  0
SECTION
  2
HEADER
  9
$ACADVER
  1
AC1015
  9
$ACADMAINTVER
 70
    20
  9
$DWGCODEPAGE
  3
ANSI_1252
  9
$INSBASE
 10
0.0
 20
0.0
 30
0.0
  9
$EXTMIN
 10
-0.0128164049386896
 20
-0.0090630292066862
 30
-0.0015258207003583
  9
$EXTMAX
 10
418.0261240224658
 20
295.0150458552118
 30
0.0000000349246037
  9
$LIMMIN
 10
0.0
 20
0.0
  9
$LIMMAX
 10
420.0
 20
297.0
  9
$ORTHOMODE
 70
     1
  9
$REGENMODE
 70
     1
  9
$FILLMODE
 70
     1
  9
$QTEXTMODE
 70
     0
  9
$MIRRTEXT
 70
     1
  9
$LTSCALE
 40
1.0
  9
$ATTMODE
 70
     1
  9
$TEXTSIZE
 40
2.5
  9
$TRACEWID
 40
1.0
  9
$TEXTSTYLE
  7
STANDARD
  9
$CLAYER
  8
0
  9
$CELTYPE
  6
BYLAYER
  9
$CECOLOR
 62
   256
  9
$CELTSCALE
 40
1.0
  9
$DISPSILH
 70
     0
  9
$DIMSCALE
 40
1.0
  9
$DIMASZ
 40
2.5
  9
$DIMEXO
 40
0.625
  9
$DIMDLI
 40
3.75
  9
$DIMRND
 40
0.0
  9
$DIMDLE
 40
0.0
  9
$DIMEXE
 40
1.25
  9
$DIMTP
 40
0.0
  9
$DIMTM
 40
0.0
  9
$DIMTXT
 40
2.5
  9
$DIMCEN
 40
2.5
  9
$DIMTSZ
 40
0.0
  9
$DIMTOL
 70
     0
  9
$DIMLIM
 70
     0
  9
$DIMTIH
 70
     0
  9
$DIMTOH
 70
     0
  9
$DIMSE1
 70
     0
  9
$DIMSE2
 70
     0
  9
$DIMTAD
 70
     1
  9
$DIMZIN
 70
     0
  9
$DIMBLK
  1

  9
$DIMASO
 70
     1
  9
$DIMSHO
 70
     1
  9
$DIMPOST
  1

  9
$DIMAPOST
  1

  9
$DIMALT
 70
     0
  9
$DIMALTD
 70
     4
  9
$DIMALTF
 40
0.0394
  9
$DIMLFAC
 40
1.0
  9
$DIMTOFL
 70
     1
  9
$DIMTVP
 40
0.0
  9
$DIMTIX
 70
     0
  9
$DIMSOXD
 70
     0
  9
$DIMSAH
 70
     0
  9
$DIMBLK1
  1

  9
$DIMBLK2
  1

  9
$DIMSTYLE
  2
STANDARD
  9
$DIMCLRD
 70
     0
  9
$DIMCLRE
 70
     0
  9
$DIMCLRT
 70
     0
  9
$DIMTFAC
 40
1.0
  9
$DIMGAP
 40
0.625
  9
$DIMJUST
 70
     0
  9
$DIMSD1
 70
     0
  9
$DIMSD2
 70
     0
  9
$DIMTOLJ
 70
     1
  9
$DIMTZIN
 70
     0
  9
$DIMALTZ
 70
     0
  9
$DIMALTTZ
 70
     0
  9
$DIMUPT
 70
     0
  9
$DIMDEC
 70
     4
  9
$DIMTDEC
 70
     4
  9
$DIMALTU
 70
     8
  9
$DIMALTTD
 70
     4
  9
$DIMTXSTY
  7
STANDARD
  9
$DIMAUNIT
 70
     0
  9
$DIMADEC
 70
     0
  9
$DIMALTRND
 40
0.0
  9
$DIMAZIN
 70
     0
  9
$DIMDSEP
 70
    46
  9
$DIMATFIT
 70
     3
  9
$DIMFRAC
 70
     0
  9
$DIMLDRBLK
  1

  9
$DIMLUNIT
 70
     6
  9
$DIMLWD
 70
    -2
  9
$DIMLWE
 70
    -2
  9
$DIMTMOVE
 70
     0
  9
$LUNITS
 70
     2
  9
$LUPREC
 70
     4
  9
$SKETCHINC
 40
1.0
  9
$FILLETRAD
 40
10.0
  9
$AUNITS
 70
     0
  9
$AUPREC
 70
     0
  9
$MENU
  1
.
  9
$ELEVATION
 40
0.0
  9
$PELEVATION
 40
0.0
  9
$THICKNESS
 40
0.0
  9
$LIMCHECK
 70
     0
  9
$CHAMFERA
 40
10.0
  9
$CHAMFERB
 40
10.0
  9
$CHAMFERC
 40
20.0
  9
$CHAMFERD
 40
0.0
  9
$SKPOLY
 70
     0
  9
$TDCREATE
 40
2451107.667011180
  9
$TDUCREATE
 40
2451107.625344514
  9
$TDUPDATE
 40
2457045.599896655
  9
$TDUUPDATE
 40
2457045.558229989
  9
$TDINDWG
 40
0.0133300579
  9
$TDUSRTIMER
 40
0.0133300579
  9
$USRTIMER
 70
     1
  9
$ANGBASE
 50
0.0
  9
$ANGDIR
 70
     0
  9
$PDMODE
 70
    35
  9
$PDSIZE
 40
-2.0
  9
$PLINEWID
 40
0.0
  9
$SPLFRAME
 70
     0
  9
$SPLINETYPE
 70
     6
  9
$SPLINESEGS
 70
     8
  9
$HANDSEED
  5
587
  9
$SURFTAB1
 70
     6
  9
$SURFTAB2
 70
     6
  9
$SURFTYPE
 70
     6
  9
$SURFU
 70
     6
  9
$SURFV
 70
     6
  9
$UCSBASE
  2

  9
$UCSNAME
  2

  9
$UCSORG
 10
0.0
 20
0.0
 30
0.0
  9
$UCSXDIR
 10
1.0
 20
0.0
 30
0.0
  9
$UCSYDIR
 10
0.0
 20
1.0
 30
0.0
  9
$UCSORTHOREF
  2

  9
$UCSORTHOVIEW
 70
     0
  9
$UCSORGTOP
 10
0.0
 20
0.0
 30
0.0
  9
$UCSORGBOTTOM
 10
0.0
 20
0.0
 30
0.0
  9
$UCSORGLEFT
 10
0.0
 20
0.0
 30
0.0
  9
$UCSORGRIGHT
 10
0.0
 20
0.0
 30
0.0
  9
$UCSORGFRONT
 10
0.0
 20
0.0
 30
0.0
  9
$UCSORGBACK
 10
0.0
 20
0.0
 30
0.0
  9
$PUCSBASE
  2

  9
$PUCSNAME
  2

  9
$PUCSORG
 10
0.0
 20
0.0
 30
0.0
  9
$PUCSXDIR
 10
1.0
 20
0.0
 30
0.0
  9
$PUCSYDIR
 10
0.0
 20
1.0
 30
0.0
  9
$PUCSORTHOREF
  2

  9
$PUCSORTHOVIEW
 70
     0
  9
$PUCSORGTOP
 10
0.0
 20
0.0
 30
0.0
  9
$PUCSORGBOTTOM
 10
0.0
 20
0.0
 30
0.0
  9
$PUCSORGLEFT
 10
0.0
 20
0.0
 30
0.0
  9
$PUCSORGRIGHT
 10
0.0
 20
0.0
 30
0.0
  9
$PUCSORGFRONT
 10
0.0
 20
0.0
 30
0.0
  9
$PUCSORGBACK
 10
0.0
 20
0.0
 30
0.0
  9
$USERI1
 70
     0
  9
$USERI2
 70
     0
  9
$USERI3
 70
     0
  9
$USERI4
 70
     0
  9
$USERI5
 70
     0
  9
$USERR1
 40
0.0
  9
$USERR2
 40
0.0
  9
$USERR3
 40
0.0
  9
$USERR4
 40
0.0
  9
$USERR5
 40
0.0
  9
$WORLDVIEW
 70
     1
  9
$SHADEDGE
 70
     3
  9
$SHADEDIF
 70
    70
  9
$TILEMODE
 70
     1
  9
$MAXACTVP
 70
    48
  9
$PINSBASE
 10
0.0
 20
0.0
 30
0.0
  9
$PLIMCHECK
 70
     0
  9
$PEXTMIN
 10
1.000000000000000E+20
 20
1.000000000000000E+20
 30
1.000000000000000E+20
  9
$PEXTMAX
 10
-1.000000000000000E+20
 20
-1.000000000000000E+20
 30
-1.000000000000000E+20
  9
$PLIMMIN
 10
0.0
 20
0.0
  9
$PLIMMAX
 10
420.0
 20
297.0
  9
$UNITMODE
 70
     0
  9
$VISRETAIN
 70
     1
  9
$PLINEGEN
 70
     0
  9
$PSLTSCALE
 70
     1
  9
$TREEDEPTH
 70
  3020
  9
$CMLSTYLE
  2
STANDARD
  9
$CMLJUST
 70
     0
  9
$CMLSCALE
 40
20.0
  9
$PROXYGRAPHICS
 70
     1
  9
$MEASUREMENT
 70
     1
  9
$CELWEIGHT
370
    -1
  9
$ENDCAPS
280
     0
  9
$JOINSTYLE
280
     0
  9
$LWDISPLAY
290
     0
  9
$INSUNITS
 70
     0
  9
$HYPERLINKBASE
  1

  9
$STYLESHEET
  1
HP_SW.ctb
  9
$XEDIT
290
     1
  9
$CEPSNTYPE
380
     0
  9
$PSTYLEMODE
290
     1
  9
$FINGERPRINTGUID
  2
{BBF2B0DB-860E-4EBD-90EB-445B8244141D}
  9
$VERSIONGUID
  2
{FD33D2E9-542B-4300-BE99-A0F8D786CDD0}
  9
$EXTNAMES
290
     1
  9
$PSVPSCALE
 40
0.0
  9
$OLESTARTUP
290
     0
  0
ENDSEC
  0
SECTION
  2
CLASSES
  0
CLASS
  1
PH_VARS
  2
PhoenixVars
  3
PHOENIX7010
 90
        0
280
     0
281
     0
  0
CLASS
  1
PH_GROUP
  2
PhGroup
  3
PHOENIX7010
 90
        0
280
     0
281
     0
  0
CLASS
  1
ACDBDICTIONARYWDFLT
  2
AcDbDictionaryWithDefault
  3
ObjectDBX Classes
 90
        0
280
     0
281
     0
  0
CLASS
  1
MATERIAL
  2
AcDbMaterial
  3
ObjectDBX Classes
 90
     1153
280
     0
281
     0
  0
CLASS
  1
VISUALSTYLE
  2
AcDbVisualStyle
  3
ObjectDBX Classes
 90
     4095
280
     0
281
     0
  0
CLASS
  1
TABLESTYLE
  2
AcDbTableStyle
  3
ObjectDBX Classes
 90
     4095
280
     0
281
     0
  0
CLASS
  1
SCALE
  2
AcDbScale
  3
ObjectDBX Classes
 90
     1153
280
     0
281
     0
  0
CLASS
  1
MLEADERSTYLE
  2
AcDbMLeaderStyle
  3
ACDB_MLEADERSTYLE_CLASS
 90
     4095
280
     0
281
     0
  0
CLASS
  1
PH_ENTDIMREACTOR
  2
EntDimReactor
  3
PHOENIX7010
 90
        0
280
     0
281
     0
  0
CLASS
  1
DICTIONARYVAR
  2
AcDbDictionaryVar
  3
ObjectDBX Classes
 90
        0
280
     0
281
     0
  0
CLASS
  1
CELLSTYLEMAP
  2
AcDbCellStyleMap
  3
ObjectDBX Classes
 90
     1152
280
     0
281
     0
  0
CLASS
  1
ACDBPLACEHOLDER
  2
AcDbPlaceHolder
  3
ObjectDBX Classes
 90
        0
280
     0
281
     0
  0
CLASS
  1
LAYOUT
  2
AcDbLayout
  3
ObjectDBX Classes
 90
        0
280
     0
281
     0
  0
ENDSEC
  0
SECTION
  2
TABLES
  0
TABLE
  2
VPORT
  5
8
330
0
100
AcDbSymbolTable
 70
     1
  0
VPORT
  5
3DA
330
8
100
AcDbSymbolTableRecord
100
AcDbViewportTableRecord
  2
*ACTIVE
 70
     0
 10
0.0
 20
0.0
 11
1.0
 21
1.0
 12
209.0066538087636
 22
147.5029914130026
 13
0.0
 23
0.0
 14
10.0
 24
10.0
 15
10.0
 25
10.0
 16
0.0
 26
0.0
 36
1.0
 17
0.0
 27
0.0
 37
0.0
 40
297.1325015205721
 41
1.906175771971496
 42
50.0
 43
0.0
 44
0.0
 50
0.0
 51
0.0
 71
     0
 72
   100
 73
     1
 74
     0
 75
     0
 76
     0
 77
     0
 78
     0
281
     0
 65
     1
110
0.0
120
0.0
130
0.0
111
1.0
121
0.0
131
0.0
112
0.0
122
1.0
132
0.0
 79
     0
146
0.0
  0
ENDTAB
  0
TABLE
  2
LTYPE
  5
5
330
0
100
AcDbSymbolTable
 70
     2
  0
LTYPE
  5
12
330
5
100
AcDbSymbolTableRecord
100
AcDbLinetypeTableRecord
  2
BYBLOCK
 70
     0
  3

 72
    65
 73
     0
 40
0.0
  0
LTYPE
  5
13
330
5
100
AcDbSymbolTableRecord
100
AcDbLinetypeTableRecord
  2
BYLAYER
 70
     0
  3

 72
    65
 73
     0
 40
0.0
  0
LTYPE
  5
14
330
5
100
AcDbSymbolTableRecord
100
AcDbLinetypeTableRecord
  2
CONTINUOUS
 70
     0
  3
Solid line
 72
    65
 73
     0
 40
0.0
  0
LTYPE
  5
33F
330
5
100
AcDbSymbolTableRecord
100
AcDbLinetypeTableRecord
  2
ACAD_ISO04W100
 70
     0
  3
____ . ____ . ____ . ____ . ____ . ____ . ____ 
 72
    65
 73
     4
 40
30.5
 49
24.0
 74
     0
 49
-3.0
 74
     0
 49
0.5
 74
     0
 49
-3.0
 74
     0
  0
ENDTAB
  0
TABLE
  2
LAYER
  5
2
102
{ACAD_XDICTIONARY
360
429
102
}
330
0
100
AcDbSymbolTable
 70
     7
  0
LAYER
  5
E
102
{ACAD_XDICTIONARY
360
50D
102
}
330
2
100
AcDbSymbolTableRecord
100
AcDbLayerTableRecord
  2
0
 70
     0
 62
     7
  6
CONTINUOUS
370
    -3
390
3DD
  0
LAYER
  5
21
102
{ACAD_XDICTIONARY
360
50F
102
}
330
2
100
AcDbSymbolTableRecord
100
AcDbLayerTableRecord
  2
BPA45737
 70
     0
 62
     7
  6
CONTINUOUS
370
    -3
390
3DD
  0
LAYER
  5
8A
102
{ACAD_XDICTIONARY
360
511
102
}
330
2
100
AcDbSymbolTableRecord
100
AcDbLayerTableRecord
  2
BPA45734
 70
     0
 62
     7
  6
CONTINUOUS
370
    -3
390
3DD
  0
LAYER
  5
96
102
{ACAD_XDICTIONARY
360
513
102
}
330
2
100
AcDbSymbolTableRecord
100
AcDbLayerTableRecord
  2
RAHMEN
 70
     0
 62
     7
  6
CONTINUOUS
370
    -3
390
3DD
  0
LAYER
  5
112
102
{ACAD_XDICTIONARY
360
515
102
}
330
2
100
AcDbSymbolTableRecord
100
AcDbLayerTableRecord
  2
2KOPF
 70
     0
 62
     7
  6
CONTINUOUS
370
    -3
390
3DD
  0
LAYER
  5
27D
102
{ACAD_XDICTIONARY
360
517
102
}
330
2
100
AcDbSymbolTableRecord
100
AcDbLayerTableRecord
  2
PH_HILFSELEMENTE
 70
     0
 62
    -7
  6
CONTINUOUS
370
    -3
390
3DD
  0
LAYER
  5
340
330
2
100
AcDbSymbolTableRecord
100
AcDbLayerTableRecord
  2
DEFPOINTS
 70
     0
 62
     7
  6
CONTINUOUS
290
     0
370
    -3
390
3DD
  0
ENDTAB
  0
TABLE
  2
STYLE
  5
3
330
0
100
AcDbSymbolTable
 70
     2
  0
STYLE
  5
F
330
3
100
AcDbSymbolTableRecord
100
AcDbTextStyleTableRecord
  2
STANDARD
 70
     0
 40
0.0
 41
1.199999999999999
 50
0.0
 71
     0
 42
2.5
  3
isocp.shx
  4

  0
ENDTAB
  0
TABLE
  2
VIEW
  5
6
330
0
100
AcDbSymbolTable
 70
     0
  0
ENDTAB
  0
TABLE
  2
UCS
  5
7
330
0
100
AcDbSymbolTable
 70
     0
  0
ENDTAB
  0
TABLE
  2
APPID
  5
9
330
0
100
AcDbSymbolTable
 70
     6
  0
APPID
  5
10
330
9
100
AcDbSymbolTableRecord
100
AcDbRegAppTableRecord
  2
ACAD
 70
     0
  0
APPID
  5
266
330
9
100
AcDbSymbolTableRecord
100
AcDbRegAppTableRecord
  2
PHOENIX7010
 70
     0
  0
APPID
  5
50A
330
9
100
AcDbSymbolTableRecord
100
AcDbRegAppTableRecord
  2
AcadAnnoPO
 70
     0
  0
APPID
  5
50B
330
9
100
AcDbSymbolTableRecord
100
AcDbRegAppTableRecord
  2
ACAD_EXEMPT_FROM_CAD_STANDARDS
 70
     0
  0
APPID
  5
545
330
9
100
AcDbSymbolTableRecord
100
AcDbRegAppTableRecord
  2
ACAD_PSEXT
 70
     0
  0
APPID
  5
583
330
9
100
AcDbSymbolTableRecord
100
AcDbRegAppTableRecord
  2
ACAD_MLEADERVER
 70
     0
  0
ENDTAB
  0
TABLE
  2
DIMSTYLE
  5
A
330
0
100
AcDbSymbolTable
 70
     5
100
AcDbDimStyleTable
 71
     1
340
1D
  0
DIMSTYLE
105
1D
330
A
100
AcDbSymbolTableRecord
100
AcDbDimStyleTableRecord
  2
STANDARD
 70
     0
340
F
  0
DIMSTYLE
105
26D
330
A
100
AcDbSymbolTableRecord
100
AcDbDimStyleTableRecord
  2
PHOENIX
 70
     0
  4
"
 41
3.72
 42
0.0
 43
7.0
 44
1.5
 73
     0
 74
     0
 77
     1
 78
     8
140
3.5
141
0.0
143
0.0393700787401575
146
0.6666666666666666
147
2.0
172
     1
173
     1
176
     1
177
     1
178
     5
271
     2
272
     2
284
     8
288
     1
289
     0
340
F
341
267
343
267
344
267
  0
DIMSTYLE
105
26E
330
A
100
AcDbSymbolTableRecord
100
AcDbDimStyleTableRecord
  2
PHOENIX$4
 70
     0
  4
"
 41
3.72
 42
0.0
 43
7.0
 44
1.5
 73
     0
 74
     0
 77
     1
 78
     8
140
3.5
141
0.0
143
0.0393700787401575
146
0.6666666666666666
147
2.0
173
     1
176
     1
177
     1
178
     5
271
     2
272
     2
281
     1
284
     8
288
     1
289
     0
340
F
341
267
343
267
344
267
  0
DIMSTYLE
105
428
330
A
100
AcDbSymbolTableRecord
100
AcDbDimStyleTableRecord
  2
ISO-25
 70
     0
 41
2.5
 42
0.625
 43
3.75
 44
1.25
 73
     0
 74
     0
 77
     1
 78
     8
140
2.5
141
2.5
143
0.03937007874016
147
0.625
171
     3
172
     1
271
     2
272
     2
274
     3
278
    44
283
     0
284
     8
340
F
  0
ENDTAB
  0
TABLE
  2
BLOCK_RECORD
  5
1
330
0
100
AcDbSymbolTable
 70
    10
  0
BLOCK_RECORD
  5
18
330
1
100
AcDbSymbolTableRecord
100
AcDbBlockTableRecord
  2
*MODEL_SPACE
340
424
  0
BLOCK_RECORD
  5
15
330
1
100
AcDbSymbolTableRecord
100
AcDbBlockTableRecord
  2
*PAPER_SPACE
340
425
  0
BLOCK_RECORD
  5
267
330
1
100
AcDbSymbolTableRecord
100
AcDbBlockTableRecord
  2
_OPEN15
340
0
  0
BLOCK_RECORD
  5
2A2
330
1
100
AcDbSymbolTableRecord
100
AcDbBlockTableRecord
  2
PH_GRPBLK
340
0
102
{BLKREFS
331
4A0
331
4B8
331
4BB
331
4F3
102
}
  0
ENDTAB
  0
ENDSEC
  0
SECTION
  2
BLOCKS
  0
BLOCK
  5
19
330
18
100
AcDbEntity
  8
0
100
AcDbBlockBegin
  2
*MODEL_SPACE
 70
     0
 10
0.0
 20
0.0
 30
0.0
  3
*MODEL_SPACE
  1

  0
ENDBLK
  5
1A
330
18
100
AcDbEntity
  8
0
100
AcDbBlockEnd
  0
BLOCK
  5
16
330
15
100
AcDbEntity
 67
     1
  8
0
100
AcDbBlockBegin
  2
*PAPER_SPACE
 70
     0
 10
0.0
 20
0.0
 30
0.0
  3
*PAPER_SPACE
  1

  0
ENDBLK
  5
17
330
15
100
AcDbEntity
 67
     1
  8
0
100
AcDbBlockEnd
  0
BLOCK
  5
26B
330
267
100
AcDbEntity
  8
0
100
AcDbBlockBegin
  2
_OPEN15
 70
     0
 10
1.0
 20
0.0
 30
0.0
  3
_OPEN15
  1

  0
LINE
  5
268
330
267
100
AcDbEntity
  8
0
  6
ByBlock
 62
     0
100
AcDbLine
 10
0.0
 20
0.0
 30
0.0
 11
1.0
 21
0.0
 31
0.0
  0
LINE
  5
269
330
267
100
AcDbEntity
  8
0
  6
ByBlock
 62
     0
100
AcDbLine
 10
1.0
 20
0.0
 30
0.0
 11
0.0
 21
0.1316524975873958
 31
0.0
  0
LINE
  5
26A
330
267
100
AcDbEntity
  8
0
  6
ByBlock
 62
     0
100
AcDbLine
 10
1.0
 20
0.0
 30
0.0
 11
0.0
 21
-0.1316524975873958
 31
0.0
  0
ENDBLK
  5
26C
330
267
100
AcDbEntity
  8
0
100
AcDbBlockEnd
  0
BLOCK
  5
2A4
330
2A2
100
AcDbEntity
  8
0
 62
     7
100
AcDbBlockBegin
  2
PH_GRPBLK
 70
     0
 10
0.0
 20
0.0
 30
0.0
  3
PH_GRPBLK
  1

  0
POINT
  5
2A3
330
2A2
100
AcDbEntity
  8
DEFPOINTS
  6
Continuous
 62
     0
100
AcDbPoint
 10
0.0
 20
0.0
 30
0.0
  0
ENDBLK
  5
2A5
330
2A2
100
AcDbEntity
  8
0
 62
     7
100
AcDbBlockEnd
  0
ENDSEC
  0
SECTION
  2
ENTITIES
  0
LINE
  5
22
330
18
100
AcDbEntity
  8
BPA45737
  6
Continuous
 62
     1
100
AcDbLine
 10
108.1098145556964
 20
225.210166215192
 30
0.0
 11
108.1098145556964
 21
241.8768328818587
 31
0.0
1001
PHOENIX7010
1002
{
1070
    41
1040
1.5
1002
}
  0
LINE
  5
23
330
18
100
AcDbEntity
  8
BPA45737
  6
Continuous
 62
     1
100
AcDbLine
 10
248.1097331754882
 20
225.210166215192
 30
0.0
 11
248.1097331754882
 21
241.8769142620671
 31
0.0
1001
PHOENIX7010
1002
{
1070
    41
1040
1.5
1002
}
  0
LINE
  5
24
330
18
100
AcDbEntity
  8
BPA45737
  6
Continuous
 62
     1
100
AcDbLine
 10
99.77648122236315
 20
225.210166215192
 30
0.0
 11
99.77648122236315
 21
241.8768328818587
 31
0.0
1001
PHOENIX7010
1002
{
1070
    41
1040
1.5
1002
}
  0
LINE
  5
25
330
18
100
AcDbEntity
  8
BPA45737
  6
Continuous
 62
     1
100
AcDbLine
 10
256.4430665088214
 20
225.210166215192
 30
0.0
 11
256.4430665088214
 21
241.8768328818587
 31
0.0
1001
PHOENIX7010
1002
{
1070
    41
1040
1.5
1002
}
  0
TEXT
  5
26
330
18
100
AcDbEntity
  8
BPA45737
 62
     5
100
AcDbText
 10
78.10981455569649
 20
243.8768328818587
 30
0.0
 40
7.0
  1
12.5
100
AcDbText
1001
PHOENIX7010
1002
{
1070
    41
1040
1.5
1002
}
  0
LINE
  5
27
330
18
100
AcDbEntity
  8
BPA45737
 62
     1
100
AcDbLine
 10
108.1098145556964
 20
225.210166215192
 30
0.0
 11
108.1098145556964
 21
202.2799090537337
 31
0.0
1001
PHOENIX7010
1002
{
1070
    41
1040
1.5
1002
}
  0
LINE
  5
28
330
18
100
AcDbEntity
  8
BPA45737
 62
     1
100
AcDbLine
 10
248.1097331754882
 20
225.210166215192
 30
0.0
 11
248.1097331754882
 21
202.2799090537337
 31
0.0
1001
PHOENIX7010
1002
{
1070
    41
1040
1.5
1002
}
  0
LINE
  5
29
330
18
100
AcDbEntity
  8
BPA45737
 62
     1
100
AcDbLine
 10
118.1098145556964
 20
228.9842547568587
 30
0.0
 11
118.1098145556964
 21
216.4649269573795
 31
0.0
1001
PHOENIX7010
1002
{
1070
    41
1040
1.5
1002
}
  0
LINE
  5
2A
330
18
100
AcDbEntity
  8
BPA45737
 62
     1
100
AcDbLine
 10
128.1098145556964
 20
228.9842547568587
 30
0.0
 11
128.1098145556964
 21
202.2799497438378
 31
0.0
1001
PHOENIX7010
1002
{
1070
    41
1040
1.5
1002
}
  0
LINE
  5
2B
330
18
100
AcDbEntity
  8
BPA45737
 62
     1
100
AcDbLine
 10
138.1098145556964
 20
228.9842547568587
 30
0.0
 11
138.1098145556964
 21
216.4649269573795
 31
0.0
1001
PHOENIX7010
1002
{
1070
    41
1040
1.5
1002
}
  0
LINE
  5
2D
330
18
100
AcDbEntity
  8
BPA45737
  6
Continuous
 62
     1
100
AcDbLine
 10
99.77648122236315
 20
241.8768328818587
 30
0.0
 11
92.83636688317043
 21
242.7905291709212
 31
0.0
1001
PHOENIX7010
1002
{
1070
    41
1040
1.5
1002
}
  0
LINE
  5
2E
330
18
100
AcDbEntity
  8
BPA45737
  6
Continuous
 62
     1
100
AcDbLine
 10
99.77648122236315
 20
241.8768328818587
 30
0.0
 11
92.83636688317043
 21
240.9631365927962
 31
0.0
1001
PHOENIX7010
1002
{
1070
    41
1040
1.5
1002
}
  0
LINE
  5
2F
330
18
100
AcDbEntity
  8
BPA45737
  6
Continuous
 62
     1
100
AcDbLine
 10
108.1098145556964
 20
241.8768328818587
 30
0.0
 11
115.0499288948892
 21
242.7905291709212
 31
0.0
1001
PHOENIX7010
1002
{
1070
    41
1040
1.5
1002
}
  0
LINE
  5
30
330
18
100
AcDbEntity
  8
BPA45737
  6
Continuous
 62
     1
100
AcDbLine
 10
108.1098145556964
 20
241.8768328818587
 30
0.0
 11
115.0499288948892
 21
240.9631365927962
 31
0.0
1001
PHOENIX7010
1002
{
1070
    41
1040
1.5
1002
}
  0
LINE
  5
31
330
18
100
AcDbEntity
  8
BPA45737
  6
Continuous
 62
     1
100
AcDbLine
 10
76.21584279462877
 20
241.8768328818587
 30
0.0
 11
121.6365886442381
 21
241.8768328818587
 31
0.0
1001
PHOENIX7010
1002
{
1070
    41
1040
1.5
1002
}
  0
LINE
  5
33
330
18
100
AcDbEntity
  8
BPA45737
  6
Continuous
 62
     1
100
AcDbLine
 10
248.1097331754882
 20
241.8769142620671
 30
0.0
 11
248.1097331754882
 21
237.8768328818587
 31
0.0
1001
PHOENIX7010
1002
{
1070
    41
1040
1.5
1002
}
  0
LINE
  5
34
330
18
100
AcDbEntity
  8
BPA45737
  6
Continuous
 62
     1
100
AcDbLine
 10
256.4430665088214
 20
241.8768328818587
 30
0.0
 11
256.4430665088214
 21
237.8767515016503
 31
0.0
1001
PHOENIX7010
1002
{
1070
    41
1040
1.5
1002
}
  0
LINE
  5
35
330
18
100
AcDbEntity
  8
BPA45737
  6
Continuous
 62
     1
100
AcDbLine
 10
248.1097331754882
 20
241.8768328818587
 30
0.0
 11
241.1696086637694
 21
242.7906105511296
 31
0.0
1001
PHOENIX7010
1002
{
1070
    41
1040
1.5
1002
}
  0
LINE
  5
36
330
18
100
AcDbEntity
  8
BPA45737
  6
Continuous
 62
     1
100
AcDbLine
 10
248.1097331754882
 20
241.8768328818587
 30
0.0
 11
241.1696086637694
 21
240.9632179730046
 31
0.0
1001
PHOENIX7010
1002
{
1070
    41
1040
1.5
1002
}
  0
LINE
  5
37
330
18
100
AcDbEntity
  8
BPA45737
  6
Continuous
 62
     1
100
AcDbLine
 10
256.4430665088214
 20
241.8767515016503
 30
0.0
 11
263.3831910205401
 21
242.7903664105046
 31
0.0
1001
PHOENIX7010
1002
{
1070
    41
1040
1.5
1002
}
  0
LINE
  5
38
330
18
100
AcDbEntity
  8
BPA45737
  6
Continuous
 62
     1
100
AcDbLine
 10
256.4430665088214
 20
241.8767515016503
 30
0.0
 11
263.3831910205401
 21
240.9629738323796
 31
0.0
1001
PHOENIX7010
1002
{
1070
    41
1040
1.5
1002
}
  0
TEXT
  5
39
330
18
100
AcDbEntity
  8
BPA45737
 62
     5
100
AcDbText
 10
266.4430868538735
 20
243.8766701214421
 30
0.0
 40
7.0
  1
12.5
 50
359.9994506835915
100
AcDbText
1001
PHOENIX7010
1002
{
1070
    41
1040
1.5
1002
}
  0
LINE
  5
3A
330
18
100
AcDbEntity
  8
BPA45737
  6
Continuous
 62
     1
100
AcDbLine
 10
234.1097331754882
 20
241.8769549521712
 30
0.0
 11
280.9408285530923
 21
241.8769549521712
 31
0.0
1001
PHOENIX7010
1002
{
1070
    41
1040
1.5
1002
}
  0
LINE
  5
3C
330
18
100
AcDbEntity
  8
BPA45737
  6
Continuous
 62
     1
100
AcDbLine
 10
108.1098145556964
 20
241.8769549521712
 30
0.0
 11
248.1097331754882
 21
241.8770770224837
 31
0.0
1001
PHOENIX7010
1002
{
1070
    41
1040
1.5
1002
}
  0
LINE
  5
3D
330
18
100
AcDbEntity
  8
BPA45737
  6
Continuous
 62
     1
100
AcDbLine
 10
108.1098145556964
 20
241.8768328818587
 30
0.0
 11
108.1098145556964
 21
245.8769549521712
 31
0.0
1001
PHOENIX7010
1002
{
1070
    41
1040
1.5
1002
}
  0
LINE
  5
3E
330
18
100
AcDbEntity
  8
BPA45737
  6
Continuous
 62
     1
100
AcDbLine
 10
248.1097331754882
 20
241.8769549521712
 30
0.0
 11
248.1097331754882
 21
245.8770770224837
 31
0.0
1001
PHOENIX7010
1002
{
1070
    41
1040
1.5
1002
}
  0
LINE
  5
3F
330
18
100
AcDbEntity
  8
BPA45737
  6
Continuous
 62
     1
100
AcDbLine
 10
108.1098145556964
 20
241.8769549521712
 30
0.0
 11
115.0499288948892
 21
242.7906512412337
 31
0.0
1001
PHOENIX7010
1002
{
1070
    41
1040
1.5
1002
}
  0
LINE
  5
40
330
18
100
AcDbEntity
  8
BPA45737
  6
Continuous
 62
     1
100
AcDbLine
 10
108.1098145556964
 20
241.8769549521712
 30
0.0
 11
115.0499288948892
 21
240.9632586631087
 31
0.0
1001
PHOENIX7010
1002
{
1070
    41
1040
1.5
1002
}
  0
LINE
  5
41
330
18
100
AcDbEntity
  8
BPA45737
  6
Continuous
 62
     1
100
AcDbLine
 10
248.1097331754882
 20
241.8770770224837
 30
0.0
 11
241.1696290088214
 21
242.7907733115462
 31
0.0
1001
PHOENIX7010
1002
{
1070
    41
1040
1.5
1002
}
  0
LINE
  5
42
330
18
100
AcDbEntity
  8
BPA45737
  6
Continuous
 62
     1
100
AcDbLine
 10
248.1097331754882
 20
241.8770770224837
 30
0.0
 11
241.1696290088214
 21
240.9633807334212
 31
0.0
1001
PHOENIX7010
1002
{
1070
    41
1040
1.5
1002
}
  0
TEXT
  5
43
330
18
100
AcDbEntity
  8
BPA45737
 62
     5
100
AcDbText
 10
166.0647991187663
 20
243.8770258299889
 30
0.0
 40
7.0
  1
n x 15
 50
0.0000499579846633
 72
     1
 11
178.1097738655923
 21
243.8770363323796
 31
0.0
100
AcDbText
1001
PHOENIX7010
1002
{
1070
    41
1040
1.5
1002
}
  0
LINE
  5
45
330
18
100
AcDbEntity
  8
BPA45737
  6
Continuous
 62
     1
100
AcDbLine
 10
99.77648122236315
 20
258.5434995485254
 30
0.0
 11
256.4430665088214
 21
258.5434995485254
 31
0.0
1001
PHOENIX7010
1002
{
1070
    41
1040
1.5
1002
}
  0
LINE
  5
46
330
18
100
AcDbEntity
  8
BPA45737
  6
Continuous
 62
     1
100
AcDbLine
 10
99.77648122236315
 20
241.8768328818587
 30
0.0
 11
99.77648122236315
 21
262.5434995485254
 31
0.0
1001
PHOENIX7010
1002
{
1070
    41
1040
1.5
1002
}
  0
LINE
  5
47
330
18
100
AcDbEntity
  8
BPA45737
  6
Continuous
 62
     1
100
AcDbLine
 10
256.4430665088214
 20
241.8768328818587
 30
0.0
 11
256.4430665088214
 21
262.5434995485254
 31
0.0
1001
PHOENIX7010
1002
{
1070
    41
1040
1.5
1002
}
  0
LINE
  5
48
330
18
100
AcDbEntity
  8
BPA45737
  6
Continuous
 62
     1
100
AcDbLine
 10
99.77648122236315
 20
258.5434995485254
 30
0.0
 11
106.7165955615558
 21
259.4571958375878
 31
0.0
1001
PHOENIX7010
1002
{
1070
    41
1040
1.5
1002
}
  0
LINE
  5
49
330
18
100
AcDbEntity
  8
BPA45737
  6
Continuous
 62
     1
100
AcDbLine
 10
99.77648122236315
 20
258.5434995485254
 30
0.0
 11
106.7165955615558
 21
257.6298032594628
 31
0.0
1001
PHOENIX7010
1002
{
1070
    41
1040
1.5
1002
}
  0
LINE
  5
4A
330
18
100
AcDbEntity
  8
BPA45737
  6
Continuous
 62
     1
100
AcDbLine
 10
256.4430665088214
 20
258.5434995485254
 30
0.0
 11
249.5029419971027
 21
259.4571958375878
 31
0.0
1001
PHOENIX7010
1002
{
1070
    41
1040
1.5
1002
}
  0
LINE
  5
4B
330
18
100
AcDbEntity
  8
BPA45737
  6
Continuous
 62
     1
100
AcDbLine
 10
256.4430665088214
 20
258.5434995485254
 30
0.0
 11
249.5029419971027
 21
257.6298032594628
 31
0.0
1001
PHOENIX7010
1002
{
1070
    41
1040
1.5
1002
}
  0
TEXT
  5
4C
330
18
100
AcDbEntity
  8
BPA45737
 62
     5
100
AcDbText
 10
169.7097738655923
 20
260.5434995485254
 30
0.0
 40
7.0
  1
  T  
 72
     1
 11
178.1097738655923
 21
260.5434995485254
 31
0.0
100
AcDbText
1001
PHOENIX7010
1002
{
1070
    41
1040
1.5
1002
}
  0
LINE
  5
4E
330
18
100
AcDbEntity
  8
BPA45737
  6
Continuous
 62
     1
100
AcDbLine
 10
273.1097331754881
 20
151.4302182985253
 30
0.0
 11
273.1097331754881
 21
181.0435402386295
 31
0.0
1001
PHOENIX7010
1002
{
1070
    41
1040
1.5
1002
}
  0
LINE
  5
4F
330
18
100
AcDbEntity
  8
BPA45737
  6
Continuous
 62
     1
100
AcDbLine
 10
248.1097331754882
 20
151.4302182985253
 30
0.0
 11
277.1097331754881
 21
151.4302182985253
 31
0.0
1001
PHOENIX7010
1002
{
1070
    41
1040
1.5
1002
}
  0
LINE
  5
50
330
18
100
AcDbEntity
  8
BPA45737
  6
Continuous
 62
     1
100
AcDbLine
 10
248.1097331754882
 20
181.0435402386295
 30
0.0
 11
277.1097331754881
 21
181.0435402386295
 31
0.0
1001
PHOENIX7010
1002
{
1070
    41
1040
1.5
1002
}
  0
LINE
  5
51
330
18
100
AcDbEntity
  8
BPA45737
  6
Continuous
 62
     1
100
AcDbLine
 10
273.1097331754881
 20
151.4302182985253
 30
0.0
 11
272.1960572314777
 21
158.370322465192
 31
0.0
1001
PHOENIX7010
1002
{
1070
    41
1040
1.5
1002
}
  0
LINE
  5
52
330
18
100
AcDbEntity
  8
BPA45737
  6
Continuous
 62
     1
100
AcDbLine
 10
273.1097331754881
 20
151.4302182985253
 30
0.0
 11
274.0234091194985
 21
158.370322465192
 31
0.0
1001
PHOENIX7010
1002
{
1070
    41
1040
1.5
1002
}
  0
LINE
  5
53
330
18
100
AcDbEntity
  8
BPA45737
  6
Continuous
 62
     1
100
AcDbLine
 10
273.1097331754881
 20
181.0435402386295
 30
0.0
 11
272.1960572314777
 21
174.1034360719628
 31
0.0
1001
PHOENIX7010
1002
{
1070
    41
1040
1.5
1002
}
  0
LINE
  5
54
330
18
100
AcDbEntity
  8
BPA45737
  6
Continuous
 62
     1
100
AcDbLine
 10
273.1097331754881
 20
181.0435402386295
 30
0.0
 11
274.0234091194985
 21
174.1034360719628
 31
0.0
1001
PHOENIX7010
1002
{
1070
    41
1040
1.5
1002
}
  0
TEXT
  5
55
330
18
100
AcDbEntity
  8
BPA45737
 62
     5
100
AcDbText
 10
271.1097331754881
 20
154.1918841766948
 30
0.0
 40
7.0
  1
44.45
 50
90.0
 72
     1
 11
271.1097331754881
 21
166.2368589235253
 31
0.0
100
AcDbText
1001
PHOENIX7010
1002
{
1070
    41
1040
1.5
1002
}
  0
LINE
  5
57
330
18
100
AcDbEntity
  8
BPA45737
  6
Continuous
 62
     1
100
AcDbLine
 10
289.7763998421548
 20
151.4302182985253
 30
0.0
 11
289.7763998421548
 21
210.6568621787337
 31
0.0
1001
PHOENIX7010
1002
{
1070
    41
1040
1.5
1002
}
  0
LINE
  5
58
330
18
100
AcDbEntity
  8
BPA45737
  6
Continuous
 62
     1
100
AcDbLine
 10
273.1097331754881
 20
151.4302182985253
 30
0.0
 11
293.7763998421548
 21
151.4302182985253
 31
0.0
1001
PHOENIX7010
1002
{
1070
    41
1040
1.5
1002
}
  0
LINE
  5
59
330
18
100
AcDbEntity
  8
BPA45737
  6
Continuous
 62
     1
100
AcDbLine
 10
248.1097331754882
 20
210.6568621787337
 30
0.0
 11
293.7763998421548
 21
210.6568621787337
 31
0.0
1001
PHOENIX7010
1002
{
1070
    41
1040
1.5
1002
}
  0
LINE
  5
5A
330
18
100
AcDbEntity
  8
BPA45737
  6
Continuous
 62
     1
100
AcDbLine
 10
289.7763998421548
 20
151.4302182985253
 30
0.0
 11
288.8627238981444
 21
158.370322465192
 31
0.0
1001
PHOENIX7010
1002
{
1070
    41
1040
1.5
1002
}
  0
LINE
  5
5B
330
18
100
AcDbEntity
  8
BPA45737
  6
Continuous
 62
     1
100
AcDbLine
 10
289.7763998421548
 20
151.4302182985253
 30
0.0
 11
290.6900757861651
 21
158.370322465192
 31
0.0
1001
PHOENIX7010
1002
{
1070
    41
1040
1.5
1002
}
  0
LINE
  5
5C
330
18
100
AcDbEntity
  8
BPA45737
  6
Continuous
 62
     1
100
AcDbLine
 10
289.7763998421548
 20
210.6568621787337
 30
0.0
 11
288.8627238981444
 21
203.716758012067
 31
0.0
1001
PHOENIX7010
1002
{
1070
    41
1040
1.5
1002
}
  0
LINE
  5
5D
330
18
100
AcDbEntity
  8
BPA45737
  6
Continuous
 62
     1
100
AcDbLine
 10
289.7763998421548
 20
210.6568621787337
 30
0.0
 11
290.6900757861651
 21
203.716758012067
 31
0.0
1001
PHOENIX7010
1002
{
1070
    41
1040
1.5
1002
}
  0
TEXT
  5
5E
330
18
100
AcDbEntity
  8
BPA45737
 62
     5
100
AcDbText
 10
287.7763998421548
 20
172.3929630621234
 30
0.0
 40
7.0
  1
88.9
 50
90.0
 72
     1
 11
287.7763998421548
 21
181.0435402386295
 31
0.0
100
AcDbText
1001
PHOENIX7010
1002
{
1070
    41
1040
1.5
1002
}
  0
LINE
  5
60
330
18
100
AcDbEntity
  8
BPA45737
  6
Continuous
 62
     1
100
AcDbLine
 10
188.1098145556964
 20
151.4302182985253
 30
0.0
 11
208.7437256885089
 21
120.2102069052962
 31
0.0
1001
PHOENIX7010
1002
{
1070
    41
1040
1.5
1002
}
  0
LINE
  5
61
330
18
100
AcDbEntity
  8
BPA45737
  6
Continuous
 62
     1
100
AcDbLine
 10
208.743746033561
 20
120.2102069052962
 30
0.0
 11
223.6645224007486
 21
120.2102069052962
 31
0.0
1001
PHOENIX7010
1002
{
1070
    41
1040
1.5
1002
}
  0
TEXT
  5
63
330
18
100
AcDbEntity
  8
BPA45737
 62
     5
100
AcDbText
 10
217.6948975635089
 20
122.2526670289941
 30
0.0
 40
7.0
  1
6
100
AcDbText
1001
PHOENIX7010
1002
{
1070
    41
1040
1.5
1002
}
  0
LINE
  5
65
330
18
100
AcDbEntity
  8
BPA45737
  6
Continuous
 62
     5
100
AcDbLine
 10
210.2666952523111
 20
123.5955015016503
 30
0.0
 11
214.2666952523111
 21
123.5955015016503
 31
0.0
1001
PHOENIX7010
1002
{
1070
    41
1040
1.5
1002
}
  0
LINE
  5
66
330
18
100
AcDbEntity
  8
BPA45737
  6
Continuous
 62
     5
100
AcDbLine
 10
214.2666952523111
 20
123.5955015016503
 30
0.0
 11
214.2666952523111
 21
127.5955015016503
 31
0.0
1001
PHOENIX7010
1002
{
1070
    41
1040
1.5
1002
}
  0
LINE
  5
67
330
18
100
AcDbEntity
  8
BPA45737
  6
Continuous
 62
     5
100
AcDbLine
 10
214.2666952523111
 20
127.5955015016503
 30
0.0
 11
210.2666952523111
 21
127.5955015016503
 31
0.0
1001
PHOENIX7010
1002
{
1070
    41
1040
1.5
1002
}
  0
LINE
  5
68
330
18
100
AcDbEntity
  8
BPA45737
  6
Continuous
 62
     5
100
AcDbLine
 10
210.2666952523111
 20
127.5955015016503
 30
0.0
 11
210.2666952523111
 21
123.5955015016503
 31
0.0
1001
PHOENIX7010
1002
{
1070
    41
1040
1.5
1002
}
  0
LINE
  5
6A
330
18
100
AcDbEntity
  8
BPA45737
  6
Continuous
 62
     1
100
AcDbLine
 10
128.1098145556964
 20
140.5435402386295
 30
0.0
 11
141.5484945687173
 21
120.2102069052962
 31
0.0
1001
PHOENIX7010
1002
{
1070
    41
1040
1.5
1002
}
  0
TEXT
  5
6B
330
18
100
AcDbEntity
  8
BPA45737
 62
     5
100
AcDbText
 10
144.9438803109048
 20
122.1146055055566
 30
0.0
 40
7.0
  1
 ø 4.6
100
AcDbText
1001
PHOENIX7010
1002
{
1070
    41
1040
1.5
1002
}
  0
LINE
  5
6C
330
18
100
AcDbEntity
  8
BPA45737
  6
Continuous
 62
     1
100
AcDbLine
 10
141.5484945687173
 20
120.2102069052962
 30
0.0
 11
165.4000163786131
 21
120.2102069052962
 31
0.0
1001
PHOENIX7010
1002
{
1070
    41
1040
1.5
1002
}
  0
LINE
  5
6E
330
18
100
AcDbEntity
  8
BPA45737
  6
Continuous
 62
     1
100
AcDbLine
 10
256.4431478890298
 20
108.8768735719628
 30
0.0
 11
277.1097331754881
 21
108.8768735719628
 31
0.0
1001
PHOENIX7010
1002
{
1070
    41
1040
1.5
1002
}
  0
LINE
  5
6F
330
18
100
AcDbEntity
  8
BPA45737
  6
Continuous
 62
     1
100
AcDbLine
 10
256.4431478890298
 20
110.2102069052962
 30
0.0
 11
277.1097331754881
 21
110.2102069052962
 31
0.0
1001
PHOENIX7010
1002
{
1070
    41
1040
1.5
1002
}
  0
LINE
  5
70
330
18
100
AcDbEntity
  8
BPA45737
  6
Continuous
 62
     1
100
AcDbLine
 10
273.1097331754881
 20
108.8768735719628
 30
0.0
 11
272.1960572314777
 21
101.9367694052962
 31
0.0
1001
PHOENIX7010
1002
{
1070
    41
1040
1.5
1002
}
  0
LINE
  5
71
330
18
100
AcDbEntity
  8
BPA45737
  6
Continuous
 62
     1
100
AcDbLine
 10
273.1097331754881
 20
108.8768735719628
 30
0.0
 11
274.0234091194985
 21
101.9367694052962
 31
0.0
1001
PHOENIX7010
1002
{
1070
    41
1040
1.5
1002
}
  0
LINE
  5
72
330
18
100
AcDbEntity
  8
BPA45737
  6
Continuous
 62
     1
100
AcDbLine
 10
273.1097331754881
 20
110.2102069052962
 30
0.0
 11
272.1960572314777
 21
117.1503110719628
 31
0.0
1001
PHOENIX7010
1002
{
1070
    41
1040
1.5
1002
}
  0
LINE
  5
73
330
18
100
AcDbEntity
  8
BPA45737
  6
Continuous
 62
     1
100
AcDbLine
 10
273.1097331754881
 20
110.2102069052962
 30
0.0
 11
274.0234091194985
 21
117.1503110719628
 31
0.0
1001
PHOENIX7010
1002
{
1070
    41
1040
1.5
1002
}
  0
TEXT
  5
74
330
18
100
AcDbEntity
  8
BPA45737
 62
     5
100
AcDbText
 10
271.1097331754881
 20
120.2102069052962
 30
0.0
 40
7.0
  1
2  
 50
90.0
100
AcDbText
1001
PHOENIX7010
1002
{
1070
    41
1040
1.5
1002
}
  0
LINE
  5
75
330
18
100
AcDbEntity
  8
BPA45737
  6
Continuous
 62
     1
100
AcDbLine
 10
273.1097331754881
 20
94.87687357196284
 30
0.0
 11
273.1097331754881
 21
127.2795428427962
 31
0.0
1001
PHOENIX7010
1002
{
1070
    41
1040
1.5
1002
}
  0
LINE
  5
77
330
18
100
AcDbEntity
  8
BPA45737
  6
Continuous
 62
     1
100
AcDbLine
 10
83.10981455569649
 20
140.5435402386295
 30
0.0
 11
83.10981455569649
 21
221.543418168317
 31
0.0
1001
PHOENIX7010
1002
{
1070
    41
1040
1.5
1002
}
  0
LINE
  5
78
330
18
100
AcDbEntity
  8
BPA45737
  6
Continuous
 62
     1
100
AcDbLine
 10
83.10981455569649
 20
140.5435402386295
 30
0.0
 11
82.19612843916001
 21
147.4836444052962
 31
0.0
1001
PHOENIX7010
1002
{
1070
    41
1040
1.5
1002
}
  0
LINE
  5
79
330
18
100
AcDbEntity
  8
BPA45737
  6
Continuous
 62
     1
100
AcDbLine
 10
83.10981455569649
 20
140.5435402386295
 30
0.0
 11
84.02350067223293
 21
147.4836444052962
 31
0.0
1001
PHOENIX7010
1002
{
1070
    41
1040
1.5
1002
}
  0
LINE
  5
7A
330
18
100
AcDbEntity
  8
BPA45737
  6
Continuous
 62
     1
100
AcDbLine
 10
83.10981455569649
 20
221.543418168317
 30
0.0
 11
82.19612843916001
 21
214.6033140016503
 31
0.0
1001
PHOENIX7010
1002
{
1070
    41
1040
1.5
1002
}
  0
LINE
  5
7B
330
18
100
AcDbEntity
  8
BPA45737
  6
Continuous
 62
     1
100
AcDbLine
 10
83.10981455569649
 20
221.543418168317
 30
0.0
 11
84.02350067223293
 21
214.6033140016503
 31
0.0
1001
PHOENIX7010
1002
{
1070
    41
1040
1.5
1002
}
  0
TEXT
  5
7C
330
18
100
AcDbEntity
  8
BPA45737
 62
     5
100
AcDbText
 10
81.10981455569648
 20
171.4198775012812
 30
0.0
 40
7.0
  1
121.6
 50
90.0
 72
     1
 11
81.10981455569648
 21
181.0434995485253
 31
0.0
100
AcDbText
1001
PHOENIX7010
1002
{
1070
    41
1040
1.5
1002
}
  0
LINE
  5
7D
330
18
100
AcDbEntity
  8
BPA45737
  6
Continuous
 62
     1
100
AcDbLine
 10
108.1098145556964
 20
221.543418168317
 30
0.0
 11
79.10981455569649
 21
221.543418168317
 31
0.0
1001
PHOENIX7010
1002
{
1070
    41
1040
1.5
1002
}
  0
LINE
  5
7E
330
18
100
AcDbEntity
  8
BPA45737
  6
Continuous
 62
     1
100
AcDbLine
 10
108.1098145556964
 20
140.5435402386295
 30
0.0
 11
79.10981455569649
 21
140.5435402386295
 31
0.0
1001
PHOENIX7010
1002
{
1070
    41
1040
1.5
1002
}
  0
LINE
  5
80
330
18
100
AcDbEntity
  8
BPA45737
  6
Continuous
 62
     1
100
AcDbLine
 10
66.4431478890298
 20
136.8768735719628
 30
0.0
 11
66.4431478890298
 21
225.210166215192
 31
0.0
1001
PHOENIX7010
1002
{
1070
    41
1040
1.5
1002
}
  0
LINE
  5
81
330
18
100
AcDbEntity
  8
BPA45737
  6
Continuous
 62
     1
100
AcDbLine
 10
99.77648122236315
 20
136.8768735719628
 30
0.0
 11
62.4431478890298
 21
136.8768735719628
 31
0.0
1001
PHOENIX7010
1002
{
1070
    41
1040
1.5
1002
}
  0
LINE
  5
82
330
18
100
AcDbEntity
  8
BPA45737
  6
Continuous
 62
     1
100
AcDbLine
 10
99.77648122236315
 20
225.210166215192
 30
0.0
 11
62.4431478890298
 21
225.210166215192
 31
0.0
1001
PHOENIX7010
1002
{
1070
    41
1040
1.5
1002
}
  0
LINE
  5
83
330
18
100
AcDbEntity
  8
BPA45737
  6
Continuous
 62
     1
100
AcDbLine
 10
66.4431478890298
 20
136.8768735719628
 30
0.0
 11
65.52946177249336
 21
143.8169777386295
 31
0.0
1001
PHOENIX7010
1002
{
1070
    41
1040
1.5
1002
}
  0
LINE
  5
84
330
18
100
AcDbEntity
  8
BPA45737
  6
Continuous
 62
     1
100
AcDbLine
 10
66.4431478890298
 20
136.8768735719628
 30
0.0
 11
67.35683400556627
 21
143.8169777386295
 31
0.0
1001
PHOENIX7010
1002
{
1070
    41
1040
1.5
1002
}
  0
LINE
  5
85
330
18
100
AcDbEntity
  8
BPA45737
  6
Continuous
 62
     1
100
AcDbLine
 10
66.4431478890298
 20
225.210166215192
 30
0.0
 11
65.52946177249336
 21
218.2700620485253
 31
0.0
1001
PHOENIX7010
1002
{
1070
    41
1040
1.5
1002
}
  0
LINE
  5
86
330
18
100
AcDbEntity
  8
BPA45737
  6
Continuous
 62
     1
100
AcDbLine
 10
66.4431478890298
 20
225.210166215192
 30
0.0
 11
67.35683400556627
 21
218.2700620485253
 31
0.0
1001
PHOENIX7010
1002
{
1070
    41
1040
1.5
1002
}
  0
TEXT
  5
87
330
18
100
AcDbEntity
  8
BPA45737
 62
     5
100
AcDbText
 10
64.4431478890298
 20
170.7199181913854
 30
0.0
 40
7.0
  1
132.6
 50
90.0
 72
     1
 11
64.4431478890298
 21
181.0435402386295
 31
0.0
100
AcDbText
1001
PHOENIX7010
1002
{
1070
    41
1040
1.5
1002
}
  0
LINE
  5
8B
330
18
100
AcDbEntity
  8
BPA45734
  6
Continuous
 62
     7
100
AcDbLine
 10
99.77648122236315
 20
136.8768735719628
 30
0.0
 11
256.4430665088214
 21
136.8768735719628
 31
0.0
1001
PHOENIX7010
1002
{
1070
    41
1040
1.5
1002
}
  0
LINE
  5
8C
330
18
100
AcDbEntity
  8
BPA45737
  6
Continuous
 62
     7
100
AcDbLine
 10
99.77648122236315
 20
136.8768735719628
 30
0.0
 11
99.77648122236315
 21
225.210166215192
 31
0.0
1001
PHOENIX7010
1002
{
1070
    41
1040
1.5
1002
}
  0
LINE
  5
8D
330
18
100
AcDbEntity
  8
BPA45734
  6
Continuous
 62
     7
100
AcDbLine
 10
256.4430665088214
 20
225.210166215192
 30
0.0
 11
99.77648122236315
 21
225.210166215192
 31
0.0
1001
PHOENIX7010
1002
{
1070
    41
1040
1.5
1002
}
  0
LINE
  5
8E
330
18
100
AcDbEntity
  8
BPA45734
  6
Continuous
 62
     7
100
AcDbLine
 10
256.4430665088214
 20
136.8768735719628
 30
0.0
 11
256.4430665088214
 21
225.210166215192
 31
0.0
1001
PHOENIX7010
1002
{
1070
    41
1040
1.5
1002
}
  0
LINE
  5
90
330
18
100
AcDbEntity
  8
BPA45734
  6
Continuous
 62
     7
100
AcDbLine
 10
256.4431478890298
 20
110.2102069052962
 30
0.0
 11
256.4431478890298
 21
108.8768735719628
 31
0.0
1001
PHOENIX7010
1002
{
1070
    41
1040
1.5
1002
}
  0
LINE
  5
91
330
18
100
AcDbEntity
  8
BPA45734
  6
Continuous
 62
     7
100
AcDbLine
 10
99.77648122236315
 20
110.2102069052962
 30
0.0
 11
256.4431478890298
 21
110.2102069052962
 31
0.0
1001
PHOENIX7010
1002
{
1070
    41
1040
1.5
1002
}
  0
LINE
  5
92
330
18
100
AcDbEntity
  8
BPA45734
  6
Continuous
 62
     7
100
AcDbLine
 10
256.4431478890298
 20
108.8768735719628
 30
0.0
 11
99.77648122236315
 21
108.8768735719628
 31
0.0
1001
PHOENIX7010
1002
{
1070
    41
1040
1.5
1002
}
  0
LINE
  5
93
330
18
100
AcDbEntity
  8
BPA45734
  6
Continuous
 62
     7
100
AcDbLine
 10
99.77648122236315
 20
108.8768735719628
 30
0.0
 11
99.77648122236315
 21
110.2102069052962
 31
0.0
1001
PHOENIX7010
1002
{
1070
    41
1040
1.5
1002
}
  0
CIRCLE
  5
13E
330
18
100
AcDbEntity
  8
BPA45734
  6
Continuous
 62
     7
100
AcDbCircle
 10
108.1098145556964
 20
140.5435402386295
 30
0.0
 40
1.533333301544189
1001
PHOENIX7010
1002
{
1070
    41
1040
1.5
1002
}
  0
CIRCLE
  5
13F
330
18
100
AcDbEntity
  8
BPA45734
  6
Continuous
 62
     7
100
AcDbCircle
 10
118.1098145556964
 20
140.5435402386295
 30
0.0
 40
1.533333301544189
1001
PHOENIX7010
1002
{
1070
    41
1040
1.5
1002
}
  0
CIRCLE
  5
140
330
18
100
AcDbEntity
  8
BPA45734
  6
Continuous
 62
     7
100
AcDbCircle
 10
128.1098145556964
 20
140.5435402386295
 30
0.0
 40
1.533333301544189
1001
PHOENIX7010
1002
{
1070
    41
1040
1.5
1002
}
  0
CIRCLE
  5
141
330
18
100
AcDbEntity
  8
BPA45734
  6
Continuous
 62
     7
100
AcDbCircle
 10
138.1098145556964
 20
140.5435402386295
 30
0.0
 40
1.533333301544189
1001
PHOENIX7010
1002
{
1070
    41
1040
1.5
1002
}
  0
CIRCLE
  5
142
330
18
100
AcDbEntity
  8
BPA45734
  6
Continuous
 62
     7
100
AcDbCircle
 10
148.1098145556964
 20
140.5435402386295
 30
0.0
 40
1.533333301544189
1001
PHOENIX7010
1002
{
1070
    41
1040
1.5
1002
}
  0
CIRCLE
  5
143
330
18
100
AcDbEntity
  8
BPA45734
  6
Continuous
 62
     7
100
AcDbCircle
 10
158.1098145556964
 20
140.5435402386295
 30
0.0
 40
1.533333301544189
1001
PHOENIX7010
1002
{
1070
    41
1040
1.5
1002
}
  0
CIRCLE
  5
144
330
18
100
AcDbEntity
  8
BPA45734
  6
Continuous
 62
     7
100
AcDbCircle
 10
168.1098145556964
 20
140.5435402386295
 30
0.0
 40
1.533333301544189
1001
PHOENIX7010
1002
{
1070
    41
1040
1.5
1002
}
  0
CIRCLE
  5
145
330
18
100
AcDbEntity
  8
BPA45734
  6
Continuous
 62
     7
100
AcDbCircle
 10
178.1098145556964
 20
140.5435402386295
 30
0.0
 40
1.533333301544189
1001
PHOENIX7010
1002
{
1070
    41
1040
1.5
1002
}
  0
CIRCLE
  5
146
330
18
100
AcDbEntity
  8
BPA45734
  6
Continuous
 62
     7
100
AcDbCircle
 10
188.1098145556964
 20
140.5435402386295
 30
0.0
 40
1.533333301544189
1001
PHOENIX7010
1002
{
1070
    41
1040
1.5
1002
}
  0
CIRCLE
  5
147
330
18
100
AcDbEntity
  8
BPA45734
  6
Continuous
 62
     7
100
AcDbCircle
 10
198.1098145556964
 20
140.5435402386295
 30
0.0
 40
1.533333301544189
1001
PHOENIX7010
1002
{
1070
    41
1040
1.5
1002
}
  0
CIRCLE
  5
148
330
18
100
AcDbEntity
  8
BPA45734
  6
Continuous
 62
     7
100
AcDbCircle
 10
208.1098145556964
 20
140.5435402386295
 30
0.0
 40
1.533333301544189
1001
PHOENIX7010
1002
{
1070
    41
1040
1.5
1002
}
  0
CIRCLE
  5
149
330
18
100
AcDbEntity
  8
BPA45734
  6
Continuous
 62
     7
100
AcDbCircle
 10
218.1098145556964
 20
140.5435402386295
 30
0.0
 40
1.533333301544189
1001
PHOENIX7010
1002
{
1070
    41
1040
1.5
1002
}
  0
CIRCLE
  5
14A
330
18
100
AcDbEntity
  8
BPA45734
  6
Continuous
 62
     7
100
AcDbCircle
 10
228.1098145556964
 20
140.5435402386295
 30
0.0
 40
1.533333301544189
1001
PHOENIX7010
1002
{
1070
    41
1040
1.5
1002
}
  0
CIRCLE
  5
14B
330
18
100
AcDbEntity
  8
BPA45734
  6
Continuous
 62
     7
100
AcDbCircle
 10
238.1098145556964
 20
140.5435402386295
 30
0.0
 40
1.533333301544189
1001
PHOENIX7010
1002
{
1070
    41
1040
1.5
1002
}
  0
CIRCLE
  5
14C
330
18
100
AcDbEntity
  8
BPA45734
  6
Continuous
 62
     7
100
AcDbCircle
 10
248.1097331754882
 20
140.5435402386295
 30
0.0
 40
1.533333301544189
1001
PHOENIX7010
1002
{
1070
    41
1040
1.5
1002
}
  0
LINE
  5
14F
330
18
100
AcDbEntity
  8
BPA45734
  6
Continuous
 62
     7
100
AcDbLine
 10
101.4431478890298
 20
145.8768735719628
 30
0.0
 11
101.4431478890298
 21
143.2102069052962
 31
0.0
1001
PHOENIX7010
1002
{
1070
    41
1040
1.5
1002
}
  0
LINE
  5
150
330
18
100
AcDbEntity
  8
BPA45734
  6
Continuous
 62
     7
100
AcDbLine
 10
101.4431478890298
 20
143.2102069052962
 30
0.0
 11
104.7764812223631
 21
143.2102069052962
 31
0.0
1001
PHOENIX7010
1002
{
1070
    41
1040
1.5
1002
}
  0
LINE
  5
151
330
18
100
AcDbEntity
  8
BPA45734
  6
Continuous
 62
     7
100
AcDbLine
 10
104.7764812223631
 20
143.2102069052962
 30
0.0
 11
104.7764812223631
 21
145.8768735719628
 31
0.0
1001
PHOENIX7010
1002
{
1070
    41
1040
1.5
1002
}
  0
LINE
  5
153
330
18
100
AcDbEntity
  8
BPA45734
  6
Continuous
 62
     7
100
AcDbLine
 10
111.4431478890298
 20
145.8768735719628
 30
0.0
 11
111.4431478890298
 21
143.2102069052962
 31
0.0
1001
PHOENIX7010
1002
{
1070
    41
1040
1.5
1002
}
  0
LINE
  5
154
330
18
100
AcDbEntity
  8
BPA45734
  6
Continuous
 62
     7
100
AcDbLine
 10
111.4431478890298
 20
143.2102069052962
 30
0.0
 11
114.7764812223631
 21
143.2102069052962
 31
0.0
1001
PHOENIX7010
1002
{
1070
    41
1040
1.5
1002
}
  0
LINE
  5
155
330
18
100
AcDbEntity
  8
BPA45734
  6
Continuous
 62
     7
100
AcDbLine
 10
114.7764812223631
 20
143.2102069052962
 30
0.0
 11
114.7764812223631
 21
145.8768735719628
 31
0.0
1001
PHOENIX7010
1002
{
1070
    41
1040
1.5
1002
}
  0
LINE
  5
157
330
18
100
AcDbEntity
  8
BPA45734
  6
Continuous
 62
     7
100
AcDbLine
 10
121.4431478890298
 20
145.8768735719628
 30
0.0
 11
121.4431478890298
 21
143.2102069052962
 31
0.0
1001
PHOENIX7010
1002
{
1070
    41
1040
1.5
1002
}
  0
LINE
  5
158
330
18
100
AcDbEntity
  8
BPA45734
  6
Continuous
 62
     7
100
AcDbLine
 10
121.4431478890298
 20
143.2102069052962
 30
0.0
 11
124.7764812223631
 21
143.2102069052962
 31
0.0
1001
PHOENIX7010
1002
{
1070
    41
1040
1.5
1002
}
  0
LINE
  5
159
330
18
100
AcDbEntity
  8
BPA45734
  6
Continuous
 62
     7
100
AcDbLine
 10
124.7764812223631
 20
143.2102069052962
 30
0.0
 11
124.7764812223631
 21
145.8768735719628
 31
0.0
1001
PHOENIX7010
1002
{
1070
    41
1040
1.5
1002
}
  0
LINE
  5
15B
330
18
100
AcDbEntity
  8
BPA45734
  6
Continuous
 62
     7
100
AcDbLine
 10
131.4431478890298
 20
145.8768735719628
 30
0.0
 11
131.4431478890298
 21
143.2102069052962
 31
0.0
1001
PHOENIX7010
1002
{
1070
    41
1040
1.5
1002
}
  0
LINE
  5
15C
330
18
100
AcDbEntity
  8
BPA45734
  6
Continuous
 62
     7
100
AcDbLine
 10
131.4431478890298
 20
143.2102069052962
 30
0.0
 11
134.7764812223631
 21
143.2102069052962
 31
0.0
1001
PHOENIX7010
1002
{
1070
    41
1040
1.5
1002
}
  0
LINE
  5
15D
330
18
100
AcDbEntity
  8
BPA45734
  6
Continuous
 62
     7
100
AcDbLine
 10
134.7764812223631
 20
143.2102069052962
 30
0.0
 11
134.7764812223631
 21
145.8768735719628
 31
0.0
1001
PHOENIX7010
1002
{
1070
    41
1040
1.5
1002
}
  0
LINE
  5
15F
330
18
100
AcDbEntity
  8
BPA45734
  6
Continuous
 62
     7
100
AcDbLine
 10
141.4431478890298
 20
145.8768735719628
 30
0.0
 11
141.4431478890298
 21
143.2102069052962
 31
0.0
1001
PHOENIX7010
1002
{
1070
    41
1040
1.5
1002
}
  0
LINE
  5
160
330
18
100
AcDbEntity
  8
BPA45734
  6
Continuous
 62
     7
100
AcDbLine
 10
141.4431478890298
 20
143.2102069052962
 30
0.0
 11
144.7764812223631
 21
143.2102069052962
 31
0.0
1001
PHOENIX7010
1002
{
1070
    41
1040
1.5
1002
}
  0
LINE
  5
161
330
18
100
AcDbEntity
  8
BPA45734
  6
Continuous
 62
     7
100
AcDbLine
 10
144.7764812223631
 20
143.2102069052962
 30
0.0
 11
144.7764812223631
 21
145.8768735719628
 31
0.0
1001
PHOENIX7010
1002
{
1070
    41
1040
1.5
1002
}
  0
LINE
  5
163
330
18
100
AcDbEntity
  8
BPA45734
  6
Continuous
 62
     7
100
AcDbLine
 10
151.4431478890298
 20
145.8768735719628
 30
0.0
 11
151.4431478890298
 21
143.2102069052962
 31
0.0
1001
PHOENIX7010
1002
{
1070
    41
1040
1.5
1002
}
  0
LINE
  5
164
330
18
100
AcDbEntity
  8
BPA45734
  6
Continuous
 62
     7
100
AcDbLine
 10
151.4431478890298
 20
143.2102069052962
 30
0.0
 11
154.7764812223631
 21
143.2102069052962
 31
0.0
1001
PHOENIX7010
1002
{
1070
    41
1040
1.5
1002
}
  0
LINE
  5
165
330
18
100
AcDbEntity
  8
BPA45734
  6
Continuous
 62
     7
100
AcDbLine
 10
154.7764812223631
 20
143.2102069052962
 30
0.0
 11
154.7764812223631
 21
145.8768735719628
 31
0.0
1001
PHOENIX7010
1002
{
1070
    41
1040
1.5
1002
}
  0
LINE
  5
167
330
18
100
AcDbEntity
  8
BPA45734
  6
Continuous
 62
     7
100
AcDbLine
 10
161.4431478890298
 20
145.8768735719628
 30
0.0
 11
161.4431478890298
 21
143.2102069052962
 31
0.0
1001
PHOENIX7010
1002
{
1070
    41
1040
1.5
1002
}
  0
LINE
  5
168
330
18
100
AcDbEntity
  8
BPA45734
  6
Continuous
 62
     7
100
AcDbLine
 10
161.4431478890298
 20
143.2102069052962
 30
0.0
 11
164.7764812223631
 21
143.2102069052962
 31
0.0
1001
PHOENIX7010
1002
{
1070
    41
1040
1.5
1002
}
  0
LINE
  5
169
330
18
100
AcDbEntity
  8
BPA45734
  6
Continuous
 62
     7
100
AcDbLine
 10
164.7764812223631
 20
143.2102069052962
 30
0.0
 11
164.7764812223631
 21
145.8768735719628
 31
0.0
1001
PHOENIX7010
1002
{
1070
    41
1040
1.5
1002
}
  0
LINE
  5
16B
330
18
100
AcDbEntity
  8
BPA45734
  6
Continuous
 62
     7
100
AcDbLine
 10
171.4431478890298
 20
145.8768735719628
 30
0.0
 11
171.4431478890298
 21
143.2102069052962
 31
0.0
1001
PHOENIX7010
1002
{
1070
    41
1040
1.5
1002
}
  0
LINE
  5
16C
330
18
100
AcDbEntity
  8
BPA45734
  6
Continuous
 62
     7
100
AcDbLine
 10
171.4431478890298
 20
143.2102069052962
 30
0.0
 11
174.7764812223631
 21
143.2102069052962
 31
0.0
1001
PHOENIX7010
1002
{
1070
    41
1040
1.5
1002
}
  0
LINE
  5
16D
330
18
100
AcDbEntity
  8
BPA45734
  6
Continuous
 62
     7
100
AcDbLine
 10
174.7764812223631
 20
143.2102069052962
 30
0.0
 11
174.7764812223631
 21
145.8768735719628
 31
0.0
1001
PHOENIX7010
1002
{
1070
    41
1040
1.5
1002
}
  0
LINE
  5
16F
330
18
100
AcDbEntity
  8
BPA45734
  6
Continuous
 62
     7
100
AcDbLine
 10
181.4431478890298
 20
145.8768735719628
 30
0.0
 11
181.4431478890298
 21
143.2102069052962
 31
0.0
1001
PHOENIX7010
1002
{
1070
    41
1040
1.5
1002
}
  0
LINE
  5
170
330
18
100
AcDbEntity
  8
BPA45734
  6
Continuous
 62
     7
100
AcDbLine
 10
181.4431478890298
 20
143.2102069052962
 30
0.0
 11
184.7764812223632
 21
143.2102069052962
 31
0.0
1001
PHOENIX7010
1002
{
1070
    41
1040
1.5
1002
}
  0
LINE
  5
171
330
18
100
AcDbEntity
  8
BPA45734
  6
Continuous
 62
     7
100
AcDbLine
 10
184.7764812223632
 20
143.2102069052962
 30
0.0
 11
184.7764812223632
 21
145.8768735719628
 31
0.0
1001
PHOENIX7010
1002
{
1070
    41
1040
1.5
1002
}
  0
LINE
  5
173
330
18
100
AcDbEntity
  8
BPA45734
  6
Continuous
 62
     7
100
AcDbLine
 10
191.4431478890298
 20
145.8768735719628
 30
0.0
 11
191.4431478890298
 21
143.2102069052962
 31
0.0
1001
PHOENIX7010
1002
{
1070
    41
1040
1.5
1002
}
  0
LINE
  5
174
330
18
100
AcDbEntity
  8
BPA45734
  6
Continuous
 62
     7
100
AcDbLine
 10
191.4431478890298
 20
143.2102069052962
 30
0.0
 11
194.7764812223631
 21
143.2102069052962
 31
0.0
1001
PHOENIX7010
1002
{
1070
    41
1040
1.5
1002
}
  0
LINE
  5
175
330
18
100
AcDbEntity
  8
BPA45734
  6
Continuous
 62
     7
100
AcDbLine
 10
194.7764812223631
 20
143.2102069052962
 30
0.0
 11
194.7764812223631
 21
145.8768735719628
 31
0.0
1001
PHOENIX7010
1002
{
1070
    41
1040
1.5
1002
}
  0
LINE
  5
177
330
18
100
AcDbEntity
  8
BPA45734
  6
Continuous
 62
     7
100
AcDbLine
 10
201.4431478890298
 20
145.8768735719628
 30
0.0
 11
201.4431478890298
 21
143.2102069052962
 31
0.0
1001
PHOENIX7010
1002
{
1070
    41
1040
1.5
1002
}
  0
LINE
  5
178
330
18
100
AcDbEntity
  8
BPA45734
  6
Continuous
 62
     7
100
AcDbLine
 10
201.4431478890298
 20
143.2102069052962
 30
0.0
 11
204.7764812223632
 21
143.2102069052962
 31
0.0
1001
PHOENIX7010
1002
{
1070
    41
1040
1.5
1002
}
  0
LINE
  5
179
330
18
100
AcDbEntity
  8
BPA45734
  6
Continuous
 62
     7
100
AcDbLine
 10
204.7764812223632
 20
143.2102069052962
 30
0.0
 11
204.7764812223632
 21
145.8768735719628
 31
0.0
1001
PHOENIX7010
1002
{
1070
    41
1040
1.5
1002
}
  0
LINE
  5
17B
330
18
100
AcDbEntity
  8
BPA45734
  6
Continuous
 62
     7
100
AcDbLine
 10
211.4431478890298
 20
145.8768735719628
 30
0.0
 11
211.4431478890298
 21
143.2102069052962
 31
0.0
1001
PHOENIX7010
1002
{
1070
    41
1040
1.5
1002
}
  0
LINE
  5
17C
330
18
100
AcDbEntity
  8
BPA45734
  6
Continuous
 62
     7
100
AcDbLine
 10
211.4431478890298
 20
143.2102069052962
 30
0.0
 11
214.7764812223632
 21
143.2102069052962
 31
0.0
1001
PHOENIX7010
1002
{
1070
    41
1040
1.5
1002
}
  0
LINE
  5
17D
330
18
100
AcDbEntity
  8
BPA45734
  6
Continuous
 62
     7
100
AcDbLine
 10
214.7764812223632
 20
143.2102069052962
 30
0.0
 11
214.7764812223632
 21
145.8768735719628
 31
0.0
1001
PHOENIX7010
1002
{
1070
    41
1040
1.5
1002
}
  0
LINE
  5
17F
330
18
100
AcDbEntity
  8
BPA45734
  6
Continuous
 62
     7
100
AcDbLine
 10
221.4431478890298
 20
145.8768735719628
 30
0.0
 11
221.4431478890298
 21
143.2102069052962
 31
0.0
1001
PHOENIX7010
1002
{
1070
    41
1040
1.5
1002
}
  0
LINE
  5
180
330
18
100
AcDbEntity
  8
BPA45734
  6
Continuous
 62
     7
100
AcDbLine
 10
221.4431478890298
 20
143.2102069052962
 30
0.0
 11
224.7764812223632
 21
143.2102069052962
 31
0.0
1001
PHOENIX7010
1002
{
1070
    41
1040
1.5
1002
}
  0
LINE
  5
181
330
18
100
AcDbEntity
  8
BPA45734
  6
Continuous
 62
     7
100
AcDbLine
 10
224.7764812223632
 20
143.2102069052962
 30
0.0
 11
224.7764812223632
 21
145.8768735719628
 31
0.0
1001
PHOENIX7010
1002
{
1070
    41
1040
1.5
1002
}
  0
LINE
  5
183
330
18
100
AcDbEntity
  8
BPA45734
  6
Continuous
 62
     7
100
AcDbLine
 10
231.4431478890298
 20
145.8768735719628
 30
0.0
 11
231.4431478890298
 21
143.2102069052962
 31
0.0
1001
PHOENIX7010
1002
{
1070
    41
1040
1.5
1002
}
  0
LINE
  5
184
330
18
100
AcDbEntity
  8
BPA45734
  6
Continuous
 62
     7
100
AcDbLine
 10
231.4431478890298
 20
143.2102069052962
 30
0.0
 11
234.7764812223632
 21
143.2102069052962
 31
0.0
1001
PHOENIX7010
1002
{
1070
    41
1040
1.5
1002
}
  0
LINE
  5
185
330
18
100
AcDbEntity
  8
BPA45734
  6
Continuous
 62
     7
100
AcDbLine
 10
234.7764812223632
 20
143.2102069052962
 30
0.0
 11
234.7764812223632
 21
145.8768735719628
 31
0.0
1001
PHOENIX7010
1002
{
1070
    41
1040
1.5
1002
}
  0
LINE
  5
187
330
18
100
AcDbEntity
  8
BPA45734
  6
Continuous
 62
     7
100
AcDbLine
 10
241.4430665088215
 20
145.8768735719628
 30
0.0
 11
241.4430665088215
 21
143.2102069052962
 31
0.0
1001
PHOENIX7010
1002
{
1070
    41
1040
1.5
1002
}
  0
LINE
  5
188
330
18
100
AcDbEntity
  8
BPA45734
  6
Continuous
 62
     7
100
AcDbLine
 10
241.4430665088215
 20
143.2102069052962
 30
0.0
 11
244.7763998421548
 21
143.2102069052962
 31
0.0
1001
PHOENIX7010
1002
{
1070
    41
1040
1.5
1002
}
  0
LINE
  5
189
330
18
100
AcDbEntity
  8
BPA45734
  6
Continuous
 62
     7
100
AcDbLine
 10
244.7763998421548
 20
143.2102069052962
 30
0.0
 11
244.7763998421548
 21
145.8768735719628
 31
0.0
1001
PHOENIX7010
1002
{
1070
    41
1040
1.5
1002
}
  0
LINE
  5
18B
330
18
100
AcDbEntity
  8
BPA45734
  6
Continuous
 62
     7
100
AcDbLine
 10
251.4430665088214
 20
145.8768735719628
 30
0.0
 11
251.4430665088214
 21
143.2102069052962
 31
0.0
1001
PHOENIX7010
1002
{
1070
    41
1040
1.5
1002
}
  0
LINE
  5
18C
330
18
100
AcDbEntity
  8
BPA45734
  6
Continuous
 62
     7
100
AcDbLine
 10
251.4430665088214
 20
143.2102069052962
 30
0.0
 11
254.7763998421548
 21
143.2102069052962
 31
0.0
1001
PHOENIX7010
1002
{
1070
    41
1040
1.5
1002
}
  0
LINE
  5
18D
330
18
100
AcDbEntity
  8
BPA45734
  6
Continuous
 62
     7
100
AcDbLine
 10
254.7763998421548
 20
143.2102069052962
 30
0.0
 11
254.7763998421548
 21
145.8768735719628
 31
0.0
1001
PHOENIX7010
1002
{
1070
    41
1040
1.5
1002
}
  0
LINE
  5
190
330
18
100
AcDbEntity
  8
BPA45734
  6
Continuous
 62
     7
100
AcDbLine
 10
106.1098145556964
 20
149.4302182985253
 30
0.0
 11
110.1098145556964
 21
149.4302182985253
 31
0.0
1001
PHOENIX7010
1002
{
1070
    41
1040
1.5
1002
}
  0
LINE
  5
191
330
18
100
AcDbEntity
  8
BPA45734
  6
Continuous
 62
     7
100
AcDbLine
 10
110.1098145556964
 20
149.4302182985253
 30
0.0
 11
110.1098145556964
 21
153.4302182985253
 31
0.0
1001
PHOENIX7010
1002
{
1070
    41
1040
1.5
1002
}
  0
LINE
  5
192
330
18
100
AcDbEntity
  8
BPA45734
  6
Continuous
 62
     7
100
AcDbLine
 10
110.1098145556964
 20
153.4302182985253
 30
0.0
 11
106.1098145556964
 21
153.4302182985253
 31
0.0
1001
PHOENIX7010
1002
{
1070
    41
1040
1.5
1002
}
  0
LINE
  5
193
330
18
100
AcDbEntity
  8
BPA45734
  6
Continuous
 62
     7
100
AcDbLine
 10
106.1098145556964
 20
153.4302182985253
 30
0.0
 11
106.1098145556964
 21
149.4302182985253
 31
0.0
1001
PHOENIX7010
1002
{
1070
    41
1040
1.5
1002
}
  0
LINE
  5
195
330
18
100
AcDbEntity
  8
BPA45734
  6
Continuous
 62
     7
100
AcDbLine
 10
126.1098145556964
 20
149.4302182985253
 30
0.0
 11
130.1098145556964
 21
149.4302182985253
 31
0.0
1001
PHOENIX7010
1002
{
1070
    41
1040
1.5
1002
}
  0
LINE
  5
196
330
18
100
AcDbEntity
  8
BPA45734
  6
Continuous
 62
     7
100
AcDbLine
 10
130.1098145556964
 20
149.4302182985253
 30
0.0
 11
130.1098145556964
 21
153.4302182985253
 31
0.0
1001
PHOENIX7010
1002
{
1070
    41
1040
1.5
1002
}
  0
LINE
  5
197
330
18
100
AcDbEntity
  8
BPA45734
  6
Continuous
 62
     7
100
AcDbLine
 10
130.1098145556964
 20
153.4302182985253
 30
0.0
 11
126.1098145556964
 21
153.4302182985253
 31
0.0
1001
PHOENIX7010
1002
{
1070
    41
1040
1.5
1002
}
  0
LINE
  5
198
330
18
100
AcDbEntity
  8
BPA45734
  6
Continuous
 62
     7
100
AcDbLine
 10
126.1098145556964
 20
153.4302182985253
 30
0.0
 11
126.1098145556964
 21
149.4302182985253
 31
0.0
1001
PHOENIX7010
1002
{
1070
    41
1040
1.5
1002
}
  0
LINE
  5
19A
330
18
100
AcDbEntity
  8
BPA45734
  6
Continuous
 62
     7
100
AcDbLine
 10
146.1098145556964
 20
149.4302182985253
 30
0.0
 11
150.1098145556964
 21
149.4302182985253
 31
0.0
1001
PHOENIX7010
1002
{
1070
    41
1040
1.5
1002
}
  0
LINE
  5
19B
330
18
100
AcDbEntity
  8
BPA45734
  6
Continuous
 62
     7
100
AcDbLine
 10
150.1098145556964
 20
149.4302182985253
 30
0.0
 11
150.1098145556964
 21
153.4302182985253
 31
0.0
1001
PHOENIX7010
1002
{
1070
    41
1040
1.5
1002
}
  0
LINE
  5
19C
330
18
100
AcDbEntity
  8
BPA45734
  6
Continuous
 62
     7
100
AcDbLine
 10
150.1098145556964
 20
153.4302182985253
 30
0.0
 11
146.1098145556964
 21
153.4302182985253
 31
0.0
1001
PHOENIX7010
1002
{
1070
    41
1040
1.5
1002
}
  0
LINE
  5
19D
330
18
100
AcDbEntity
  8
BPA45734
  6
Continuous
 62
     7
100
AcDbLine
 10
146.1098145556964
 20
153.4302182985253
 30
0.0
 11
146.1098145556964
 21
149.4302182985253
 31
0.0
1001
PHOENIX7010
1002
{
1070
    41
1040
1.5
1002
}
  0
LINE
  5
19F
330
18
100
AcDbEntity
  8
BPA45734
  6
Continuous
 62
     7
100
AcDbLine
 10
166.1098145556964
 20
149.4302182985253
 30
0.0
 11
170.1098145556964
 21
149.4302182985253
 31
0.0
1001
PHOENIX7010
1002
{
1070
    41
1040
1.5
1002
}
  0
LINE
  5
1A0
330
18
100
AcDbEntity
  8
BPA45734
  6
Continuous
 62
     7
100
AcDbLine
 10
170.1098145556964
 20
149.4302182985253
 30
0.0
 11
170.1098145556964
 21
153.4302182985253
 31
0.0
1001
PHOENIX7010
1002
{
1070
    41
1040
1.5
1002
}
  0
LINE
  5
1A1
330
18
100
AcDbEntity
  8
BPA45734
  6
Continuous
 62
     7
100
AcDbLine
 10
170.1098145556964
 20
153.4302182985253
 30
0.0
 11
166.1098145556964
 21
153.4302182985253
 31
0.0
1001
PHOENIX7010
1002
{
1070
    41
1040
1.5
1002
}
  0
LINE
  5
1A2
330
18
100
AcDbEntity
  8
BPA45734
  6
Continuous
 62
     7
100
AcDbLine
 10
166.1098145556964
 20
153.4302182985253
 30
0.0
 11
166.1098145556964
 21
149.4302182985253
 31
0.0
1001
PHOENIX7010
1002
{
1070
    41
1040
1.5
1002
}
  0
LINE
  5
1A4
330
18
100
AcDbEntity
  8
BPA45734
  6
Continuous
 62
     7
100
AcDbLine
 10
186.1098145556964
 20
149.4302182985253
 30
0.0
 11
190.1098145556964
 21
149.4302182985253
 31
0.0
1001
PHOENIX7010
1002
{
1070
    41
1040
1.5
1002
}
  0
LINE
  5
1A5
330
18
100
AcDbEntity
  8
BPA45734
  6
Continuous
 62
     7
100
AcDbLine
 10
190.1098145556964
 20
149.4302182985253
 30
0.0
 11
190.1098145556964
 21
153.4302182985253
 31
0.0
1001
PHOENIX7010
1002
{
1070
    41
1040
1.5
1002
}
  0
LINE
  5
1A6
330
18
100
AcDbEntity
  8
BPA45734
  6
Continuous
 62
     7
100
AcDbLine
 10
190.1098145556964
 20
153.4302182985253
 30
0.0
 11
186.1098145556964
 21
153.4302182985253
 31
0.0
1001
PHOENIX7010
1002
{
1070
    41
1040
1.5
1002
}
  0
LINE
  5
1A7
330
18
100
AcDbEntity
  8
BPA45734
  6
Continuous
 62
     7
100
AcDbLine
 10
186.1098145556964
 20
153.4302182985253
 30
0.0
 11
186.1098145556964
 21
149.4302182985253
 31
0.0
1001
PHOENIX7010
1002
{
1070
    41
1040
1.5
1002
}
  0
LINE
  5
1A9
330
18
100
AcDbEntity
  8
BPA45734
  6
Continuous
 62
     7
100
AcDbLine
 10
206.1098145556964
 20
149.4302182985253
 30
0.0
 11
210.1098145556964
 21
149.4302182985253
 31
0.0
1001
PHOENIX7010
1002
{
1070
    41
1040
1.5
1002
}
  0
LINE
  5
1AA
330
18
100
AcDbEntity
  8
BPA45734
  6
Continuous
 62
     7
100
AcDbLine
 10
210.1098145556964
 20
149.4302182985253
 30
0.0
 11
210.1098145556964
 21
153.4302182985253
 31
0.0
1001
PHOENIX7010
1002
{
1070
    41
1040
1.5
1002
}
  0
LINE
  5
1AB
330
18
100
AcDbEntity
  8
BPA45734
  6
Continuous
 62
     7
100
AcDbLine
 10
210.1098145556964
 20
153.4302182985253
 30
0.0
 11
206.1098145556964
 21
153.4302182985253
 31
0.0
1001
PHOENIX7010
1002
{
1070
    41
1040
1.5
1002
}
  0
LINE
  5
1AC
330
18
100
AcDbEntity
  8
BPA45734
  6
Continuous
 62
     7
100
AcDbLine
 10
206.1098145556964
 20
153.4302182985253
 30
0.0
 11
206.1098145556964
 21
149.4302182985253
 31
0.0
1001
PHOENIX7010
1002
{
1070
    41
1040
1.5
1002
}
  0
LINE
  5
1AE
330
18
100
AcDbEntity
  8
BPA45734
  6
Continuous
 62
     7
100
AcDbLine
 10
226.1098145556964
 20
149.4302182985253
 30
0.0
 11
230.1098145556964
 21
149.4302182985253
 31
0.0
1001
PHOENIX7010
1002
{
1070
    41
1040
1.5
1002
}
  0
LINE
  5
1AF
330
18
100
AcDbEntity
  8
BPA45734
  6
Continuous
 62
     7
100
AcDbLine
 10
230.1098145556964
 20
149.4302182985253
 30
0.0
 11
230.1098145556964
 21
153.4302182985253
 31
0.0
1001
PHOENIX7010
1002
{
1070
    41
1040
1.5
1002
}
  0
LINE
  5
1B0
330
18
100
AcDbEntity
  8
BPA45734
  6
Continuous
 62
     7
100
AcDbLine
 10
230.1098145556964
 20
153.4302182985253
 30
0.0
 11
226.1098145556964
 21
153.4302182985253
 31
0.0
1001
PHOENIX7010
1002
{
1070
    41
1040
1.5
1002
}
  0
LINE
  5
1B1
330
18
100
AcDbEntity
  8
BPA45734
  6
Continuous
 62
     7
100
AcDbLine
 10
226.1098145556964
 20
153.4302182985253
 30
0.0
 11
226.1098145556964
 21
149.4302182985253
 31
0.0
1001
PHOENIX7010
1002
{
1070
    41
1040
1.5
1002
}
  0
LINE
  5
1B3
330
18
100
AcDbEntity
  8
BPA45734
  6
Continuous
 62
     7
100
AcDbLine
 10
246.1097331754882
 20
149.4302182985253
 30
0.0
 11
250.1097331754882
 21
149.4302182985253
 31
0.0
1001
PHOENIX7010
1002
{
1070
    41
1040
1.5
1002
}
  0
LINE
  5
1B4
330
18
100
AcDbEntity
  8
BPA45734
  6
Continuous
 62
     7
100
AcDbLine
 10
250.1097331754882
 20
149.4302182985253
 30
0.0
 11
250.1097331754882
 21
153.4302182985253
 31
0.0
1001
PHOENIX7010
1002
{
1070
    41
1040
1.5
1002
}
  0
LINE
  5
1B5
330
18
100
AcDbEntity
  8
BPA45734
  6
Continuous
 62
     7
100
AcDbLine
 10
250.1097331754882
 20
153.4302182985253
 30
0.0
 11
246.1097331754882
 21
153.4302182985253
 31
0.0
1001
PHOENIX7010
1002
{
1070
    41
1040
1.5
1002
}
  0
LINE
  5
1B6
330
18
100
AcDbEntity
  8
BPA45734
  6
Continuous
 62
     7
100
AcDbLine
 10
246.1097331754882
 20
153.4302182985253
 30
0.0
 11
246.1097331754882
 21
149.4302182985253
 31
0.0
1001
PHOENIX7010
1002
{
1070
    41
1040
1.5
1002
}
  0
LINE
  5
1B9
330
18
100
AcDbEntity
  8
BPA45734
  6
Continuous
 62
     7
100
AcDbLine
 10
106.1098145556964
 20
179.0435402386295
 30
0.0
 11
110.1098145556964
 21
179.0435402386295
 31
0.0
1001
PHOENIX7010
1002
{
1070
    41
1040
1.5
1002
}
  0
LINE
  5
1BA
330
18
100
AcDbEntity
  8
BPA45734
  6
Continuous
 62
     7
100
AcDbLine
 10
110.1098145556964
 20
179.0435402386295
 30
0.0
 11
110.1098145556964
 21
183.0435402386295
 31
0.0
1001
PHOENIX7010
1002
{
1070
    41
1040
1.5
1002
}
  0
LINE
  5
1BB
330
18
100
AcDbEntity
  8
BPA45734
  6
Continuous
 62
     7
100
AcDbLine
 10
110.1098145556964
 20
183.0435402386295
 30
0.0
 11
106.1098145556964
 21
183.0435402386295
 31
0.0
1001
PHOENIX7010
1002
{
1070
    41
1040
1.5
1002
}
  0
LINE
  5
1BC
330
18
100
AcDbEntity
  8
BPA45734
  6
Continuous
 62
     7
100
AcDbLine
 10
106.1098145556964
 20
183.0435402386295
 30
0.0
 11
106.1098145556964
 21
179.0435402386295
 31
0.0
1001
PHOENIX7010
1002
{
1070
    41
1040
1.5
1002
}
  0
LINE
  5
1BE
330
18
100
AcDbEntity
  8
BPA45734
  6
Continuous
 62
     7
100
AcDbLine
 10
126.1098145556964
 20
179.0435402386295
 30
0.0
 11
130.1098145556964
 21
179.0435402386295
 31
0.0
1001
PHOENIX7010
1002
{
1070
    41
1040
1.5
1002
}
  0
LINE
  5
1BF
330
18
100
AcDbEntity
  8
BPA45734
  6
Continuous
 62
     7
100
AcDbLine
 10
130.1098145556964
 20
179.0435402386295
 30
0.0
 11
130.1098145556964
 21
183.0435402386295
 31
0.0
1001
PHOENIX7010
1002
{
1070
    41
1040
1.5
1002
}
  0
LINE
  5
1C0
330
18
100
AcDbEntity
  8
BPA45734
  6
Continuous
 62
     7
100
AcDbLine
 10
130.1098145556964
 20
183.0435402386295
 30
0.0
 11
126.1098145556964
 21
183.0435402386295
 31
0.0
1001
PHOENIX7010
1002
{
1070
    41
1040
1.5
1002
}
  0
LINE
  5
1C1
330
18
100
AcDbEntity
  8
BPA45734
  6
Continuous
 62
     7
100
AcDbLine
 10
126.1098145556964
 20
183.0435402386295
 30
0.0
 11
126.1098145556964
 21
179.0435402386295
 31
0.0
1001
PHOENIX7010
1002
{
1070
    41
1040
1.5
1002
}
  0
LINE
  5
1C3
330
18
100
AcDbEntity
  8
BPA45734
  6
Continuous
 62
     7
100
AcDbLine
 10
146.1098145556964
 20
179.0435402386295
 30
0.0
 11
150.1098145556964
 21
179.0435402386295
 31
0.0
1001
PHOENIX7010
1002
{
1070
    41
1040
1.5
1002
}
  0
LINE
  5
1C4
330
18
100
AcDbEntity
  8
BPA45734
  6
Continuous
 62
     7
100
AcDbLine
 10
150.1098145556964
 20
179.0435402386295
 30
0.0
 11
150.1098145556964
 21
183.0435402386295
 31
0.0
1001
PHOENIX7010
1002
{
1070
    41
1040
1.5
1002
}
  0
LINE
  5
1C5
330
18
100
AcDbEntity
  8
BPA45734
  6
Continuous
 62
     7
100
AcDbLine
 10
150.1098145556964
 20
183.0435402386295
 30
0.0
 11
146.1098145556964
 21
183.0435402386295
 31
0.0
1001
PHOENIX7010
1002
{
1070
    41
1040
1.5
1002
}
  0
LINE
  5
1C6
330
18
100
AcDbEntity
  8
BPA45734
  6
Continuous
 62
     7
100
AcDbLine
 10
146.1098145556964
 20
183.0435402386295
 30
0.0
 11
146.1098145556964
 21
179.0435402386295
 31
0.0
1001
PHOENIX7010
1002
{
1070
    41
1040
1.5
1002
}
  0
LINE
  5
1C8
330
18
100
AcDbEntity
  8
BPA45734
  6
Continuous
 62
     7
100
AcDbLine
 10
166.1098145556964
 20
179.0435402386295
 30
0.0
 11
170.1098145556964
 21
179.0435402386295
 31
0.0
1001
PHOENIX7010
1002
{
1070
    41
1040
1.5
1002
}
  0
LINE
  5
1C9
330
18
100
AcDbEntity
  8
BPA45734
  6
Continuous
 62
     7
100
AcDbLine
 10
170.1098145556964
 20
179.0435402386295
 30
0.0
 11
170.1098145556964
 21
183.0435402386295
 31
0.0
1001
PHOENIX7010
1002
{
1070
    41
1040
1.5
1002
}
  0
LINE
  5
1CA
330
18
100
AcDbEntity
  8
BPA45734
  6
Continuous
 62
     7
100
AcDbLine
 10
170.1098145556964
 20
183.0435402386295
 30
0.0
 11
166.1098145556964
 21
183.0435402386295
 31
0.0
1001
PHOENIX7010
1002
{
1070
    41
1040
1.5
1002
}
  0
LINE
  5
1CB
330
18
100
AcDbEntity
  8
BPA45734
  6
Continuous
 62
     7
100
AcDbLine
 10
166.1098145556964
 20
183.0435402386295
 30
0.0
 11
166.1098145556964
 21
179.0435402386295
 31
0.0
1001
PHOENIX7010
1002
{
1070
    41
1040
1.5
1002
}
  0
LINE
  5
1CD
330
18
100
AcDbEntity
  8
BPA45734
  6
Continuous
 62
     7
100
AcDbLine
 10
186.1098145556964
 20
179.0435402386295
 30
0.0
 11
190.1098145556964
 21
179.0435402386295
 31
0.0
1001
PHOENIX7010
1002
{
1070
    41
1040
1.5
1002
}
  0
LINE
  5
1CE
330
18
100
AcDbEntity
  8
BPA45734
  6
Continuous
 62
     7
100
AcDbLine
 10
190.1098145556964
 20
179.0435402386295
 30
0.0
 11
190.1098145556964
 21
183.0435402386295
 31
0.0
1001
PHOENIX7010
1002
{
1070
    41
1040
1.5
1002
}
  0
LINE
  5
1CF
330
18
100
AcDbEntity
  8
BPA45734
  6
Continuous
 62
     7
100
AcDbLine
 10
190.1098145556964
 20
183.0435402386295
 30
0.0
 11
186.1098145556964
 21
183.0435402386295
 31
0.0
1001
PHOENIX7010
1002
{
1070
    41
1040
1.5
1002
}
  0
LINE
  5
1D0
330
18
100
AcDbEntity
  8
BPA45734
  6
Continuous
 62
     7
100
AcDbLine
 10
186.1098145556964
 20
183.0435402386295
 30
0.0
 11
186.1098145556964
 21
179.0435402386295
 31
0.0
1001
PHOENIX7010
1002
{
1070
    41
1040
1.5
1002
}
  0
LINE
  5
1D2
330
18
100
AcDbEntity
  8
BPA45734
  6
Continuous
 62
     7
100
AcDbLine
 10
206.1098145556964
 20
179.0435402386295
 30
0.0
 11
210.1098145556964
 21
179.0435402386295
 31
0.0
1001
PHOENIX7010
1002
{
1070
    41
1040
1.5
1002
}
  0
LINE
  5
1D3
330
18
100
AcDbEntity
  8
BPA45734
  6
Continuous
 62
     7
100
AcDbLine
 10
210.1098145556964
 20
179.0435402386295
 30
0.0
 11
210.1098145556964
 21
183.0435402386295
 31
0.0
1001
PHOENIX7010
1002
{
1070
    41
1040
1.5
1002
}
  0
LINE
  5
1D4
330
18
100
AcDbEntity
  8
BPA45734
  6
Continuous
 62
     7
100
AcDbLine
 10
210.1098145556964
 20
183.0435402386295
 30
0.0
 11
206.1098145556964
 21
183.0435402386295
 31
0.0
1001
PHOENIX7010
1002
{
1070
    41
1040
1.5
1002
}
  0
LINE
  5
1D5
330
18
100
AcDbEntity
  8
BPA45734
  6
Continuous
 62
     7
100
AcDbLine
 10
206.1098145556964
 20
183.0435402386295
 30
0.0
 11
206.1098145556964
 21
179.0435402386295
 31
0.0
1001
PHOENIX7010
1002
{
1070
    41
1040
1.5
1002
}
  0
LINE
  5
1D7
330
18
100
AcDbEntity
  8
BPA45734
  6
Continuous
 62
     7
100
AcDbLine
 10
226.1098145556964
 20
179.0435402386295
 30
0.0
 11
230.1098145556964
 21
179.0435402386295
 31
0.0
1001
PHOENIX7010
1002
{
1070
    41
1040
1.5
1002
}
  0
LINE
  5
1D8
330
18
100
AcDbEntity
  8
BPA45734
  6
Continuous
 62
     7
100
AcDbLine
 10
230.1098145556964
 20
179.0435402386295
 30
0.0
 11
230.1098145556964
 21
183.0435402386295
 31
0.0
1001
PHOENIX7010
1002
{
1070
    41
1040
1.5
1002
}
  0
LINE
  5
1D9
330
18
100
AcDbEntity
  8
BPA45734
  6
Continuous
 62
     7
100
AcDbLine
 10
230.1098145556964
 20
183.0435402386295
 30
0.0
 11
226.1098145556964
 21
183.0435402386295
 31
0.0
1001
PHOENIX7010
1002
{
1070
    41
1040
1.5
1002
}
  0
LINE
  5
1DA
330
18
100
AcDbEntity
  8
BPA45734
  6
Continuous
 62
     7
100
AcDbLine
 10
226.1098145556964
 20
183.0435402386295
 30
0.0
 11
226.1098145556964
 21
179.0435402386295
 31
0.0
1001
PHOENIX7010
1002
{
1070
    41
1040
1.5
1002
}
  0
LINE
  5
1DC
330
18
100
AcDbEntity
  8
BPA45734
  6
Continuous
 62
     7
100
AcDbLine
 10
246.1097331754882
 20
179.0435402386295
 30
0.0
 11
250.1097331754882
 21
179.0435402386295
 31
0.0
1001
PHOENIX7010
1002
{
1070
    41
1040
1.5
1002
}
  0
LINE
  5
1DD
330
18
100
AcDbEntity
  8
BPA45734
  6
Continuous
 62
     7
100
AcDbLine
 10
250.1097331754882
 20
179.0435402386295
 30
0.0
 11
250.1097331754882
 21
183.0435402386295
 31
0.0
1001
PHOENIX7010
1002
{
1070
    41
1040
1.5
1002
}
  0
LINE
  5
1DE
330
18
100
AcDbEntity
  8
BPA45734
  6
Continuous
 62
     7
100
AcDbLine
 10
250.1097331754882
 20
183.0435402386295
 30
0.0
 11
246.1097331754882
 21
183.0435402386295
 31
0.0
1001
PHOENIX7010
1002
{
1070
    41
1040
1.5
1002
}
  0
LINE
  5
1DF
330
18
100
AcDbEntity
  8
BPA45734
  6
Continuous
 62
     7
100
AcDbLine
 10
246.1097331754882
 20
183.0435402386295
 30
0.0
 11
246.1097331754882
 21
179.0435402386295
 31
0.0
1001
PHOENIX7010
1002
{
1070
    41
1040
1.5
1002
}
  0
LINE
  5
1E2
330
18
100
AcDbEntity
  8
BPA45734
  6
Continuous
 62
     7
100
AcDbLine
 10
106.1098145556964
 20
212.6568621787337
 30
0.0
 11
110.1098145556964
 21
212.6568621787337
 31
0.0
1001
PHOENIX7010
1002
{
1070
    41
1040
1.5
1002
}
  0
LINE
  5
1E3
330
18
100
AcDbEntity
  8
BPA45734
  6
Continuous
 62
     7
100
AcDbLine
 10
110.1098145556964
 20
212.6568621787337
 30
0.0
 11
110.1098145556964
 21
208.6568621787337
 31
0.0
1001
PHOENIX7010
1002
{
1070
    41
1040
1.5
1002
}
  0
LINE
  5
1E4
330
18
100
AcDbEntity
  8
BPA45734
  6
Continuous
 62
     7
100
AcDbLine
 10
110.1098145556964
 20
208.6568621787337
 30
0.0
 11
106.1098145556964
 21
208.6568621787337
 31
0.0
1001
PHOENIX7010
1002
{
1070
    41
1040
1.5
1002
}
  0
LINE
  5
1E5
330
18
100
AcDbEntity
  8
BPA45734
  6
Continuous
 62
     7
100
AcDbLine
 10
106.1098145556964
 20
208.6568621787337
 30
0.0
 11
106.1098145556964
 21
212.6568621787337
 31
0.0
1001
PHOENIX7010
1002
{
1070
    41
1040
1.5
1002
}
  0
LINE
  5
1E7
330
18
100
AcDbEntity
  8
BPA45734
  6
Continuous
 62
     7
100
AcDbLine
 10
126.1098145556964
 20
212.6568621787337
 30
0.0
 11
130.1098145556964
 21
212.6568621787337
 31
0.0
1001
PHOENIX7010
1002
{
1070
    41
1040
1.5
1002
}
  0
LINE
  5
1E8
330
18
100
AcDbEntity
  8
BPA45734
  6
Continuous
 62
     7
100
AcDbLine
 10
130.1098145556964
 20
212.6568621787337
 30
0.0
 11
130.1098145556964
 21
208.6568621787337
 31
0.0
1001
PHOENIX7010
1002
{
1070
    41
1040
1.5
1002
}
  0
LINE
  5
1E9
330
18
100
AcDbEntity
  8
BPA45734
  6
Continuous
 62
     7
100
AcDbLine
 10
130.1098145556964
 20
208.6568621787337
 30
0.0
 11
126.1098145556964
 21
208.6568621787337
 31
0.0
1001
PHOENIX7010
1002
{
1070
    41
1040
1.5
1002
}
  0
LINE
  5
1EA
330
18
100
AcDbEntity
  8
BPA45734
  6
Continuous
 62
     7
100
AcDbLine
 10
126.1098145556964
 20
208.6568621787337
 30
0.0
 11
126.1098145556964
 21
212.6568621787337
 31
0.0
1001
PHOENIX7010
1002
{
1070
    41
1040
1.5
1002
}
  0
LINE
  5
1EC
330
18
100
AcDbEntity
  8
BPA45734
  6
Continuous
 62
     7
100
AcDbLine
 10
146.1098145556964
 20
212.6568621787337
 30
0.0
 11
150.1098145556964
 21
212.6568621787337
 31
0.0
1001
PHOENIX7010
1002
{
1070
    41
1040
1.5
1002
}
  0
LINE
  5
1ED
330
18
100
AcDbEntity
  8
BPA45734
  6
Continuous
 62
     7
100
AcDbLine
 10
150.1098145556964
 20
212.6568621787337
 30
0.0
 11
150.1098145556964
 21
208.6568621787337
 31
0.0
1001
PHOENIX7010
1002
{
1070
    41
1040
1.5
1002
}
  0
LINE
  5
1EE
330
18
100
AcDbEntity
  8
BPA45734
  6
Continuous
 62
     7
100
AcDbLine
 10
150.1098145556964
 20
208.6568621787337
 30
0.0
 11
146.1098145556964
 21
208.6568621787337
 31
0.0
1001
PHOENIX7010
1002
{
1070
    41
1040
1.5
1002
}
  0
LINE
  5
1EF
330
18
100
AcDbEntity
  8
BPA45734
  6
Continuous
 62
     7
100
AcDbLine
 10
146.1098145556964
 20
208.6568621787337
 30
0.0
 11
146.1098145556964
 21
212.6568621787337
 31
0.0
1001
PHOENIX7010
1002
{
1070
    41
1040
1.5
1002
}
  0
LINE
  5
1F1
330
18
100
AcDbEntity
  8
BPA45734
  6
Continuous
 62
     7
100
AcDbLine
 10
166.1098145556964
 20
212.6568621787337
 30
0.0
 11
170.1098145556964
 21
212.6568621787337
 31
0.0
1001
PHOENIX7010
1002
{
1070
    41
1040
1.5
1002
}
  0
LINE
  5
1F2
330
18
100
AcDbEntity
  8
BPA45734
  6
Continuous
 62
     7
100
AcDbLine
 10
170.1098145556964
 20
212.6568621787337
 30
0.0
 11
170.1098145556964
 21
208.6568621787337
 31
0.0
1001
PHOENIX7010
1002
{
1070
    41
1040
1.5
1002
}
  0
LINE
  5
1F3
330
18
100
AcDbEntity
  8
BPA45734
  6
Continuous
 62
     7
100
AcDbLine
 10
170.1098145556964
 20
208.6568621787337
 30
0.0
 11
166.1098145556964
 21
208.6568621787337
 31
0.0
1001
PHOENIX7010
1002
{
1070
    41
1040
1.5
1002
}
  0
LINE
  5
1F4
330
18
100
AcDbEntity
  8
BPA45734
  6
Continuous
 62
     7
100
AcDbLine
 10
166.1098145556964
 20
208.6568621787337
 30
0.0
 11
166.1098145556964
 21
212.6568621787337
 31
0.0
1001
PHOENIX7010
1002
{
1070
    41
1040
1.5
1002
}
  0
LINE
  5
1F6
330
18
100
AcDbEntity
  8
BPA45734
  6
Continuous
 62
     7
100
AcDbLine
 10
186.1098145556964
 20
212.6568621787337
 30
0.0
 11
190.1098145556964
 21
212.6568621787337
 31
0.0
1001
PHOENIX7010
1002
{
1070
    41
1040
1.5
1002
}
  0
LINE
  5
1F7
330
18
100
AcDbEntity
  8
BPA45734
  6
Continuous
 62
     7
100
AcDbLine
 10
190.1098145556964
 20
212.6568621787337
 30
0.0
 11
190.1098145556964
 21
208.6568621787337
 31
0.0
1001
PHOENIX7010
1002
{
1070
    41
1040
1.5
1002
}
  0
LINE
  5
1F8
330
18
100
AcDbEntity
  8
BPA45734
  6
Continuous
 62
     7
100
AcDbLine
 10
190.1098145556964
 20
208.6568621787337
 30
0.0
 11
186.1098145556964
 21
208.6568621787337
 31
0.0
1001
PHOENIX7010
1002
{
1070
    41
1040
1.5
1002
}
  0
LINE
  5
1F9
330
18
100
AcDbEntity
  8
BPA45734
  6
Continuous
 62
     7
100
AcDbLine
 10
186.1098145556964
 20
208.6568621787337
 30
0.0
 11
186.1098145556964
 21
212.6568621787337
 31
0.0
1001
PHOENIX7010
1002
{
1070
    41
1040
1.5
1002
}
  0
LINE
  5
1FB
330
18
100
AcDbEntity
  8
BPA45734
  6
Continuous
 62
     7
100
AcDbLine
 10
206.1098145556964
 20
212.6568621787337
 30
0.0
 11
210.1098145556964
 21
212.6568621787337
 31
0.0
1001
PHOENIX7010
1002
{
1070
    41
1040
1.5
1002
}
  0
LINE
  5
1FC
330
18
100
AcDbEntity
  8
BPA45734
  6
Continuous
 62
     7
100
AcDbLine
 10
210.1098145556964
 20
212.6568621787337
 30
0.0
 11
210.1098145556964
 21
208.6568621787337
 31
0.0
1001
PHOENIX7010
1002
{
1070
    41
1040
1.5
1002
}
  0
LINE
  5
1FD
330
18
100
AcDbEntity
  8
BPA45734
  6
Continuous
 62
     7
100
AcDbLine
 10
210.1098145556964
 20
208.6568621787337
 30
0.0
 11
206.1098145556964
 21
208.6568621787337
 31
0.0
1001
PHOENIX7010
1002
{
1070
    41
1040
1.5
1002
}
  0
LINE
  5
1FE
330
18
100
AcDbEntity
  8
BPA45734
  6
Continuous
 62
     7
100
AcDbLine
 10
206.1098145556964
 20
208.6568621787337
 30
0.0
 11
206.1098145556964
 21
212.6568621787337
 31
0.0
1001
PHOENIX7010
1002
{
1070
    41
1040
1.5
1002
}
  0
LINE
  5
200
330
18
100
AcDbEntity
  8
BPA45734
  6
Continuous
 62
     7
100
AcDbLine
 10
226.1098145556964
 20
212.6568621787337
 30
0.0
 11
230.1098145556964
 21
212.6568621787337
 31
0.0
1001
PHOENIX7010
1002
{
1070
    41
1040
1.5
1002
}
  0
LINE
  5
201
330
18
100
AcDbEntity
  8
BPA45734
  6
Continuous
 62
     7
100
AcDbLine
 10
230.1098145556964
 20
212.6568621787337
 30
0.0
 11
230.1098145556964
 21
208.6568621787337
 31
0.0
1001
PHOENIX7010
1002
{
1070
    41
1040
1.5
1002
}
  0
LINE
  5
202
330
18
100
AcDbEntity
  8
BPA45734
  6
Continuous
 62
     7
100
AcDbLine
 10
230.1098145556964
 20
208.6568621787337
 30
0.0
 11
226.1098145556964
 21
208.6568621787337
 31
0.0
1001
PHOENIX7010
1002
{
1070
    41
1040
1.5
1002
}
  0
LINE
  5
203
330
18
100
AcDbEntity
  8
BPA45734
  6
Continuous
 62
     7
100
AcDbLine
 10
226.1098145556964
 20
208.6568621787337
 30
0.0
 11
226.1098145556964
 21
212.6568621787337
 31
0.0
1001
PHOENIX7010
1002
{
1070
    41
1040
1.5
1002
}
  0
LINE
  5
205
330
18
100
AcDbEntity
  8
BPA45734
  6
Continuous
 62
     7
100
AcDbLine
 10
246.1097331754882
 20
212.6568621787337
 30
0.0
 11
250.1097331754882
 21
212.6568621787337
 31
0.0
1001
PHOENIX7010
1002
{
1070
    41
1040
1.5
1002
}
  0
LINE
  5
206
330
18
100
AcDbEntity
  8
BPA45734
  6
Continuous
 62
     7
100
AcDbLine
 10
250.1097331754882
 20
212.6568621787337
 30
0.0
 11
250.1097331754882
 21
208.6568621787337
 31
0.0
1001
PHOENIX7010
1002
{
1070
    41
1040
1.5
1002
}
  0
LINE
  5
207
330
18
100
AcDbEntity
  8
BPA45734
  6
Continuous
 62
     7
100
AcDbLine
 10
250.1097331754882
 20
208.6568621787337
 30
0.0
 11
246.1097331754882
 21
208.6568621787337
 31
0.0
1001
PHOENIX7010
1002
{
1070
    41
1040
1.5
1002
}
  0
LINE
  5
208
330
18
100
AcDbEntity
  8
BPA45734
  6
Continuous
 62
     7
100
AcDbLine
 10
246.1097331754882
 20
208.6568621787337
 30
0.0
 11
246.1097331754882
 21
212.6568621787337
 31
0.0
1001
PHOENIX7010
1002
{
1070
    41
1040
1.5
1002
}
  0
CIRCLE
  5
20B
330
18
100
AcDbEntity
  8
BPA45734
  6
Continuous
 62
     7
100
AcDbCircle
 10
108.1098145556964
 20
221.543418168317
 30
0.0
 40
1.533333301544189
1001
PHOENIX7010
1002
{
1070
    41
1040
1.5
1002
}
  0
CIRCLE
  5
20C
330
18
100
AcDbEntity
  8
BPA45734
  6
Continuous
 62
     7
100
AcDbCircle
 10
118.1098145556964
 20
221.543418168317
 30
0.0
 40
1.533333301544189
1001
PHOENIX7010
1002
{
1070
    41
1040
1.5
1002
}
  0
CIRCLE
  5
20D
330
18
100
AcDbEntity
  8
BPA45734
  6
Continuous
 62
     7
100
AcDbCircle
 10
128.1098145556964
 20
221.543418168317
 30
0.0
 40
1.533333301544189
1001
PHOENIX7010
1002
{
1070
    41
1040
1.5
1002
}
  0
CIRCLE
  5
20E
330
18
100
AcDbEntity
  8
BPA45734
  6
Continuous
 62
     7
100
AcDbCircle
 10
138.1098145556964
 20
221.543418168317
 30
0.0
 40
1.533333301544189
1001
PHOENIX7010
1002
{
1070
    41
1040
1.5
1002
}
  0
CIRCLE
  5
20F
330
18
100
AcDbEntity
  8
BPA45734
  6
Continuous
 62
     7
100
AcDbCircle
 10
148.1098145556964
 20
221.5434995485253
 30
0.0
 40
1.533333301544189
1001
PHOENIX7010
1002
{
1070
    41
1040
1.5
1002
}
  0
CIRCLE
  5
210
330
18
100
AcDbEntity
  8
BPA45734
  6
Continuous
 62
     7
100
AcDbCircle
 10
158.1098145556964
 20
221.5434995485253
 30
0.0
 40
1.533333301544189
1001
PHOENIX7010
1002
{
1070
    41
1040
1.5
1002
}
  0
CIRCLE
  5
211
330
18
100
AcDbEntity
  8
BPA45734
  6
Continuous
 62
     7
100
AcDbCircle
 10
168.1098145556964
 20
221.5434995485253
 30
0.0
 40
1.533333301544189
1001
PHOENIX7010
1002
{
1070
    41
1040
1.5
1002
}
  0
CIRCLE
  5
212
330
18
100
AcDbEntity
  8
BPA45734
  6
Continuous
 62
     7
100
AcDbCircle
 10
178.1098145556964
 20
221.5434995485253
 30
0.0
 40
1.533333301544189
1001
PHOENIX7010
1002
{
1070
    41
1040
1.5
1002
}
  0
CIRCLE
  5
213
330
18
100
AcDbEntity
  8
BPA45734
  6
Continuous
 62
     7
100
AcDbCircle
 10
188.1098145556964
 20
221.5434995485253
 30
0.0
 40
1.533333301544189
1001
PHOENIX7010
1002
{
1070
    41
1040
1.5
1002
}
  0
CIRCLE
  5
214
330
18
100
AcDbEntity
  8
BPA45734
  6
Continuous
 62
     7
100
AcDbCircle
 10
198.1098145556964
 20
221.5434995485253
 30
0.0
 40
1.533333301544189
1001
PHOENIX7010
1002
{
1070
    41
1040
1.5
1002
}
  0
CIRCLE
  5
215
330
18
100
AcDbEntity
  8
BPA45734
  6
Continuous
 62
     7
100
AcDbCircle
 10
208.1098145556964
 20
221.5434995485253
 30
0.0
 40
1.533333301544189
1001
PHOENIX7010
1002
{
1070
    41
1040
1.5
1002
}
  0
CIRCLE
  5
216
330
18
100
AcDbEntity
  8
BPA45734
  6
Continuous
 62
     7
100
AcDbCircle
 10
218.1098145556964
 20
221.5434995485253
 30
0.0
 40
1.533333301544189
1001
PHOENIX7010
1002
{
1070
    41
1040
1.5
1002
}
  0
CIRCLE
  5
217
330
18
100
AcDbEntity
  8
BPA45734
  6
Continuous
 62
     7
100
AcDbCircle
 10
228.1098145556964
 20
221.5434995485253
 30
0.0
 40
1.533333301544189
1001
PHOENIX7010
1002
{
1070
    41
1040
1.5
1002
}
  0
CIRCLE
  5
218
330
18
100
AcDbEntity
  8
BPA45734
  6
Continuous
 62
     7
100
AcDbCircle
 10
238.1098145556964
 20
221.5434995485253
 30
0.0
 40
1.533333301544189
1001
PHOENIX7010
1002
{
1070
    41
1040
1.5
1002
}
  0
CIRCLE
  5
219
330
18
100
AcDbEntity
  8
BPA45734
  6
Continuous
 62
     7
100
AcDbCircle
 10
248.1097331754882
 20
221.5434995485253
 30
0.0
 40
1.533333301544189
1001
PHOENIX7010
1002
{
1070
    41
1040
1.5
1002
}
  0
LINE
  5
21C
330
18
100
AcDbEntity
  8
BPA45734
  6
Continuous
 62
     7
100
AcDbLine
 10
101.4431478890298
 20
216.210166215192
 30
0.0
 11
101.4431478890298
 21
218.8768328818587
 31
0.0
1001
PHOENIX7010
1002
{
1070
    41
1040
1.5
1002
}
  0
LINE
  5
21D
330
18
100
AcDbEntity
  8
BPA45734
  6
Continuous
 62
     7
100
AcDbLine
 10
101.4431478890298
 20
218.8768328818587
 30
0.0
 11
104.7764812223631
 21
218.8768328818587
 31
0.0
1001
PHOENIX7010
1002
{
1070
    41
1040
1.5
1002
}
  0
LINE
  5
21E
330
18
100
AcDbEntity
  8
BPA45734
  6
Continuous
 62
     7
100
AcDbLine
 10
104.7764812223631
 20
218.8768328818587
 30
0.0
 11
104.7764812223631
 21
216.210166215192
 31
0.0
1001
PHOENIX7010
1002
{
1070
    41
1040
1.5
1002
}
  0
LINE
  5
220
330
18
100
AcDbEntity
  8
BPA45734
  6
Continuous
 62
     7
100
AcDbLine
 10
111.4431478890298
 20
216.210166215192
 30
0.0
 11
111.4431478890298
 21
218.8768328818587
 31
0.0
1001
PHOENIX7010
1002
{
1070
    41
1040
1.5
1002
}
  0
LINE
  5
221
330
18
100
AcDbEntity
  8
BPA45734
  6
Continuous
 62
     7
100
AcDbLine
 10
111.4431478890298
 20
218.8768328818587
 30
0.0
 11
114.7764812223631
 21
218.8768328818587
 31
0.0
1001
PHOENIX7010
1002
{
1070
    41
1040
1.5
1002
}
  0
LINE
  5
222
330
18
100
AcDbEntity
  8
BPA45734
  6
Continuous
 62
     7
100
AcDbLine
 10
114.7764812223631
 20
218.8768328818587
 30
0.0
 11
114.7764812223631
 21
216.210166215192
 31
0.0
1001
PHOENIX7010
1002
{
1070
    41
1040
1.5
1002
}
  0
LINE
  5
224
330
18
100
AcDbEntity
  8
BPA45734
  6
Continuous
 62
     7
100
AcDbLine
 10
121.4431478890298
 20
216.210166215192
 30
0.0
 11
121.4431478890298
 21
218.8768328818587
 31
0.0
1001
PHOENIX7010
1002
{
1070
    41
1040
1.5
1002
}
  0
LINE
  5
225
330
18
100
AcDbEntity
  8
BPA45734
  6
Continuous
 62
     7
100
AcDbLine
 10
121.4431478890298
 20
218.8768328818587
 30
0.0
 11
124.7764812223631
 21
218.8768328818587
 31
0.0
1001
PHOENIX7010
1002
{
1070
    41
1040
1.5
1002
}
  0
LINE
  5
226
330
18
100
AcDbEntity
  8
BPA45734
  6
Continuous
 62
     7
100
AcDbLine
 10
124.7764812223631
 20
218.8768328818587
 30
0.0
 11
124.7764812223631
 21
216.210166215192
 31
0.0
1001
PHOENIX7010
1002
{
1070
    41
1040
1.5
1002
}
  0
LINE
  5
228
330
18
100
AcDbEntity
  8
BPA45734
  6
Continuous
 62
     7
100
AcDbLine
 10
131.4431478890298
 20
216.210166215192
 30
0.0
 11
131.4431478890298
 21
218.8768328818587
 31
0.0
1001
PHOENIX7010
1002
{
1070
    41
1040
1.5
1002
}
  0
LINE
  5
229
330
18
100
AcDbEntity
  8
BPA45734
  6
Continuous
 62
     7
100
AcDbLine
 10
131.4431478890298
 20
218.8768328818587
 30
0.0
 11
134.7764812223631
 21
218.8768328818587
 31
0.0
1001
PHOENIX7010
1002
{
1070
    41
1040
1.5
1002
}
  0
LINE
  5
22A
330
18
100
AcDbEntity
  8
BPA45734
  6
Continuous
 62
     7
100
AcDbLine
 10
134.7764812223631
 20
218.8768328818587
 30
0.0
 11
134.7764812223631
 21
216.210166215192
 31
0.0
1001
PHOENIX7010
1002
{
1070
    41
1040
1.5
1002
}
  0
LINE
  5
22C
330
18
100
AcDbEntity
  8
BPA45734
  6
Continuous
 62
     7
100
AcDbLine
 10
141.4431478890298
 20
216.210166215192
 30
0.0
 11
141.4431478890298
 21
218.8768328818587
 31
0.0
1001
PHOENIX7010
1002
{
1070
    41
1040
1.5
1002
}
  0
LINE
  5
22D
330
18
100
AcDbEntity
  8
BPA45734
  6
Continuous
 62
     7
100
AcDbLine
 10
141.4431478890298
 20
218.8768328818587
 30
0.0
 11
144.7764812223631
 21
218.8768328818587
 31
0.0
1001
PHOENIX7010
1002
{
1070
    41
1040
1.5
1002
}
  0
LINE
  5
22E
330
18
100
AcDbEntity
  8
BPA45734
  6
Continuous
 62
     7
100
AcDbLine
 10
144.7764812223631
 20
218.8768328818587
 30
0.0
 11
144.7764812223631
 21
216.210166215192
 31
0.0
1001
PHOENIX7010
1002
{
1070
    41
1040
1.5
1002
}
  0
LINE
  5
230
330
18
100
AcDbEntity
  8
BPA45734
  6
Continuous
 62
     7
100
AcDbLine
 10
151.4431478890298
 20
216.210166215192
 30
0.0
 11
151.4431478890298
 21
218.8768328818587
 31
0.0
1001
PHOENIX7010
1002
{
1070
    41
1040
1.5
1002
}
  0
LINE
  5
231
330
18
100
AcDbEntity
  8
BPA45734
  6
Continuous
 62
     7
100
AcDbLine
 10
151.4431478890298
 20
218.8768328818587
 30
0.0
 11
154.7764812223631
 21
218.8768328818587
 31
0.0
1001
PHOENIX7010
1002
{
1070
    41
1040
1.5
1002
}
  0
LINE
  5
232
330
18
100
AcDbEntity
  8
BPA45734
  6
Continuous
 62
     7
100
AcDbLine
 10
154.7764812223631
 20
218.8768328818587
 30
0.0
 11
154.7764812223631
 21
216.210166215192
 31
0.0
1001
PHOENIX7010
1002
{
1070
    41
1040
1.5
1002
}
  0
LINE
  5
234
330
18
100
AcDbEntity
  8
BPA45734
  6
Continuous
 62
     7
100
AcDbLine
 10
161.4431478890298
 20
216.210166215192
 30
0.0
 11
161.4431478890298
 21
218.8768328818587
 31
0.0
1001
PHOENIX7010
1002
{
1070
    41
1040
1.5
1002
}
  0
LINE
  5
235
330
18
100
AcDbEntity
  8
BPA45734
  6
Continuous
 62
     7
100
AcDbLine
 10
161.4431478890298
 20
218.8768328818587
 30
0.0
 11
164.7764812223631
 21
218.8768328818587
 31
0.0
1001
PHOENIX7010
1002
{
1070
    41
1040
1.5
1002
}
  0
LINE
  5
236
330
18
100
AcDbEntity
  8
BPA45734
  6
Continuous
 62
     7
100
AcDbLine
 10
164.7764812223631
 20
218.8768328818587
 30
0.0
 11
164.7764812223631
 21
216.210166215192
 31
0.0
1001
PHOENIX7010
1002
{
1070
    41
1040
1.5
1002
}
  0
LINE
  5
238
330
18
100
AcDbEntity
  8
BPA45734
  6
Continuous
 62
     7
100
AcDbLine
 10
171.4431478890298
 20
216.210166215192
 30
0.0
 11
171.4431478890298
 21
218.8768328818587
 31
0.0
1001
PHOENIX7010
1002
{
1070
    41
1040
1.5
1002
}
  0
LINE
  5
239
330
18
100
AcDbEntity
  8
BPA45734
  6
Continuous
 62
     7
100
AcDbLine
 10
171.4431478890298
 20
218.8768328818587
 30
0.0
 11
174.7764812223631
 21
218.8768328818587
 31
0.0
1001
PHOENIX7010
1002
{
1070
    41
1040
1.5
1002
}
  0
LINE
  5
23A
330
18
100
AcDbEntity
  8
BPA45734
  6
Continuous
 62
     7
100
AcDbLine
 10
174.7764812223631
 20
218.8768328818587
 30
0.0
 11
174.7764812223631
 21
216.210166215192
 31
0.0
1001
PHOENIX7010
1002
{
1070
    41
1040
1.5
1002
}
  0
LINE
  5
23C
330
18
100
AcDbEntity
  8
BPA45734
  6
Continuous
 62
     7
100
AcDbLine
 10
181.4431478890298
 20
216.210166215192
 30
0.0
 11
181.4431478890298
 21
218.8768328818587
 31
0.0
1001
PHOENIX7010
1002
{
1070
    41
1040
1.5
1002
}
  0
LINE
  5
23D
330
18
100
AcDbEntity
  8
BPA45734
  6
Continuous
 62
     7
100
AcDbLine
 10
181.4431478890298
 20
218.8768328818587
 30
0.0
 11
184.7764812223632
 21
218.8768328818587
 31
0.0
1001
PHOENIX7010
1002
{
1070
    41
1040
1.5
1002
}
  0
LINE
  5
23E
330
18
100
AcDbEntity
  8
BPA45734
  6
Continuous
 62
     7
100
AcDbLine
 10
184.7764812223632
 20
218.8768328818587
 30
0.0
 11
184.7764812223632
 21
216.210166215192
 31
0.0
1001
PHOENIX7010
1002
{
1070
    41
1040
1.5
1002
}
  0
LINE
  5
240
330
18
100
AcDbEntity
  8
BPA45734
  6
Continuous
 62
     7
100
AcDbLine
 10
191.4431478890298
 20
216.210166215192
 30
0.0
 11
191.4431478890298
 21
218.8768328818587
 31
0.0
1001
PHOENIX7010
1002
{
1070
    41
1040
1.5
1002
}
  0
LINE
  5
241
330
18
100
AcDbEntity
  8
BPA45734
  6
Continuous
 62
     7
100
AcDbLine
 10
191.4431478890298
 20
218.8768328818587
 30
0.0
 11
194.7764812223631
 21
218.8768328818587
 31
0.0
1001
PHOENIX7010
1002
{
1070
    41
1040
1.5
1002
}
  0
LINE
  5
242
330
18
100
AcDbEntity
  8
BPA45734
  6
Continuous
 62
     7
100
AcDbLine
 10
194.7764812223631
 20
218.8768328818587
 30
0.0
 11
194.7764812223631
 21
216.210166215192
 31
0.0
1001
PHOENIX7010
1002
{
1070
    41
1040
1.5
1002
}
  0
LINE
  5
244
330
18
100
AcDbEntity
  8
BPA45734
  6
Continuous
 62
     7
100
AcDbLine
 10
201.4431478890298
 20
216.210166215192
 30
0.0
 11
201.4431478890298
 21
218.8768328818587
 31
0.0
1001
PHOENIX7010
1002
{
1070
    41
1040
1.5
1002
}
  0
LINE
  5
245
330
18
100
AcDbEntity
  8
BPA45734
  6
Continuous
 62
     7
100
AcDbLine
 10
201.4431478890298
 20
218.8768328818587
 30
0.0
 11
204.7764812223632
 21
218.8768328818587
 31
0.0
1001
PHOENIX7010
1002
{
1070
    41
1040
1.5
1002
}
  0
LINE
  5
246
330
18
100
AcDbEntity
  8
BPA45734
  6
Continuous
 62
     7
100
AcDbLine
 10
204.7764812223632
 20
218.8768328818587
 30
0.0
 11
204.7764812223632
 21
216.210166215192
 31
0.0
1001
PHOENIX7010
1002
{
1070
    41
1040
1.5
1002
}
  0
LINE
  5
248
330
18
100
AcDbEntity
  8
BPA45734
  6
Continuous
 62
     7
100
AcDbLine
 10
211.4431478890298
 20
216.210166215192
 30
0.0
 11
211.4431478890298
 21
218.8768328818587
 31
0.0
1001
PHOENIX7010
1002
{
1070
    41
1040
1.5
1002
}
  0
LINE
  5
249
330
18
100
AcDbEntity
  8
BPA45734
  6
Continuous
 62
     7
100
AcDbLine
 10
211.4431478890298
 20
218.8768328818587
 30
0.0
 11
214.7764812223632
 21
218.8768328818587
 31
0.0
1001
PHOENIX7010
1002
{
1070
    41
1040
1.5
1002
}
  0
LINE
  5
24A
330
18
100
AcDbEntity
  8
BPA45734
  6
Continuous
 62
     7
100
AcDbLine
 10
214.7764812223632
 20
218.8768328818587
 30
0.0
 11
214.7764812223632
 21
216.210166215192
 31
0.0
1001
PHOENIX7010
1002
{
1070
    41
1040
1.5
1002
}
  0
LINE
  5
24C
330
18
100
AcDbEntity
  8
BPA45734
  6
Continuous
 62
     7
100
AcDbLine
 10
221.4431478890298
 20
216.210166215192
 30
0.0
 11
221.4431478890298
 21
218.8768328818587
 31
0.0
1001
PHOENIX7010
1002
{
1070
    41
1040
1.5
1002
}
  0
LINE
  5
24D
330
18
100
AcDbEntity
  8
BPA45734
  6
Continuous
 62
     7
100
AcDbLine
 10
221.4431478890298
 20
218.8768328818587
 30
0.0
 11
224.7764812223632
 21
218.8768328818587
 31
0.0
1001
PHOENIX7010
1002
{
1070
    41
1040
1.5
1002
}
  0
LINE
  5
24E
330
18
100
AcDbEntity
  8
BPA45734
  6
Continuous
 62
     7
100
AcDbLine
 10
224.7764812223632
 20
218.8768328818587
 30
0.0
 11
224.7764812223632
 21
216.210166215192
 31
0.0
1001
PHOENIX7010
1002
{
1070
    41
1040
1.5
1002
}
  0
LINE
  5
250
330
18
100
AcDbEntity
  8
BPA45734
  6
Continuous
 62
     7
100
AcDbLine
 10
231.4431478890298
 20
216.210166215192
 30
0.0
 11
231.4431478890298
 21
218.8768328818587
 31
0.0
1001
PHOENIX7010
1002
{
1070
    41
1040
1.5
1002
}
  0
LINE
  5
251
330
18
100
AcDbEntity
  8
BPA45734
  6
Continuous
 62
     7
100
AcDbLine
 10
231.4431478890298
 20
218.8768328818587
 30
0.0
 11
234.7764812223632
 21
218.8768328818587
 31
0.0
1001
PHOENIX7010
1002
{
1070
    41
1040
1.5
1002
}
  0
LINE
  5
252
330
18
100
AcDbEntity
  8
BPA45734
  6
Continuous
 62
     7
100
AcDbLine
 10
234.7764812223632
 20
218.8768328818587
 30
0.0
 11
234.7764812223632
 21
216.210166215192
 31
0.0
1001
PHOENIX7010
1002
{
1070
    41
1040
1.5
1002
}
  0
LINE
  5
254
330
18
100
AcDbEntity
  8
BPA45734
  6
Continuous
 62
     7
100
AcDbLine
 10
241.4430665088215
 20
216.210166215192
 30
0.0
 11
241.4430665088215
 21
218.8768328818587
 31
0.0
1001
PHOENIX7010
1002
{
1070
    41
1040
1.5
1002
}
  0
LINE
  5
255
330
18
100
AcDbEntity
  8
BPA45734
  6
Continuous
 62
     7
100
AcDbLine
 10
241.4430665088215
 20
218.8768328818587
 30
0.0
 11
244.7763998421548
 21
218.8768328818587
 31
0.0
1001
PHOENIX7010
1002
{
1070
    41
1040
1.5
1002
}
  0
LINE
  5
256
330
18
100
AcDbEntity
  8
BPA45734
  6
Continuous
 62
     7
100
AcDbLine
 10
244.7763998421548
 20
218.8768328818587
 30
0.0
 11
244.7763998421548
 21
216.210166215192
 31
0.0
1001
PHOENIX7010
1002
{
1070
    41
1040
1.5
1002
}
  0
LINE
  5
258
102
{ACAD_REACTORS
330
25C
102
}
330
18
100
AcDbEntity
  8
BPA45734
  6
Continuous
 62
     7
100
AcDbLine
 10
251.4430665088214
 20
216.210166215192
 30
0.0
 11
251.4430665088214
 21
218.8768328818587
 31
0.0
1001
PHOENIX7010
1002
{
1070
    41
1040
1.5
1002
}
  0
LINE
  5
259
102
{ACAD_REACTORS
330
25C
102
}
330
18
100
AcDbEntity
  8
BPA45734
  6
Continuous
 62
     7
100
AcDbLine
 10
251.4430665088214
 20
218.8768328818587
 30
0.0
 11
254.7763998421548
 21
218.8768328818587
 31
0.0
1001
PHOENIX7010
1002
{
1070
    41
1040
1.5
1002
}
  0
LINE
  5
25A
102
{ACAD_REACTORS
330
25C
102
}
330
18
100
AcDbEntity
  8
BPA45734
  6
Continuous
 62
     7
100
AcDbLine
 10
254.7763998421548
 20
218.8768328818587
 30
0.0
 11
254.7763998421548
 21
216.210166215192
 31
0.0
1001
PHOENIX7010
1002
{
1070
    41
1040
1.5
1002
}
  0
LINE
  5
493
102
{ACAD_REACTORS
330
4A2
102
}
330
18
100
AcDbEntity
  8
0
  6
Continuous
 62
     1
100
AcDbLine
 10
229.0
 20
4.0
 30
0.0
 11
229.0
 21
0.0
 31
0.0
1001
PHOENIX7010
1002
{
1070
    62
1070
     1
1070
    41
1040
1.0
1002
}
  0
LINE
  5
494
102
{ACAD_REACTORS
330
4A2
102
}
330
18
100
AcDbEntity
  8
0
  6
Continuous
 62
     3
100
AcDbLine
 10
414.0
 20
4.0
 30
0.0
 11
19.0
 21
4.0
 31
0.0
1001
PHOENIX7010
1002
{
1070
    62
1070
     3
1070
    41
1040
1.0
1002
}
  0
LINE
  5
495
102
{ACAD_REACTORS
330
4A2
102
}
330
18
100
AcDbEntity
  8
0
  6
Continuous
 62
     1
100
AcDbLine
 10
124.0
 20
295.0
 30
0.0
 11
124.0
 21
291.0
 31
0.0
1001
PHOENIX7010
1002
{
1070
    62
1070
     1
1070
    41
1040
1.0
1002
}
  0
LINE
  5
496
102
{ACAD_REACTORS
330
4A2
102
}
330
18
100
AcDbEntity
  8
0
  6
Continuous
 62
     1
100
AcDbLine
 10
229.0
 20
295.0
 30
0.0
 11
229.0
 21
291.0
 31
0.0
1001
PHOENIX7010
1002
{
1070
    62
1070
     1
1070
    41
1040
1.0
1002
}
  0
LINE
  5
497
102
{ACAD_REACTORS
330
4A2
102
}
330
18
100
AcDbEntity
  8
0
  6
Continuous
 62
     1
100
AcDbLine
 10
124.0
 20
4.0
 30
0.0
 11
124.0
 21
0.0
 31
0.0
1001
PHOENIX7010
1002
{
1070
    62
1070
     1
1070
    41
1040
1.0
1002
}
  0
LINE
  5
498
102
{ACAD_REACTORS
330
4A2
102
}
330
18
100
AcDbEntity
  8
0
  6
Continuous
 62
     1
100
AcDbLine
 10
418.0
 20
0.0
 30
0.0
 11
0.0
 21
0.0
 31
0.0
1001
PHOENIX7010
1002
{
1070
    62
1070
     1
1070
    41
1040
1.0
1002
}
  0
LINE
  5
499
102
{ACAD_REACTORS
330
4A2
102
}
330
18
100
AcDbEntity
  8
0
  6
Continuous
 62
     1
100
AcDbLine
 10
0.0
 20
0.0
 30
0.0
 11
0.0
 21
295.0
 31
0.0
1001
PHOENIX7010
1002
{
1070
    62
1070
     1
1070
    41
1040
1.0
1002
}
  0
LINE
  5
49A
102
{ACAD_REACTORS
330
4A2
102
}
330
18
100
AcDbEntity
  8
0
  6
Continuous
 62
     1
100
AcDbLine
 10
0.0
 20
295.0
 30
0.0
 11
418.0
 21
295.0
 31
0.0
1001
PHOENIX7010
1002
{
1070
    62
1070
     1
1070
    41
1040
1.0
1002
}
  0
LINE
  5
49B
102
{ACAD_REACTORS
330
4A2
102
}
330
18
100
AcDbEntity
  8
0
  6
Continuous
 62
     1
100
AcDbLine
 10
418.0
 20
295.0
 30
0.0
 11
418.0
 21
0.0
 31
0.0
1001
PHOENIX7010
1002
{
1070
    62
1070
     1
1070
    41
1040
1.0
1002
}
  0
LINE
  5
49C
102
{ACAD_REACTORS
330
4A2
102
}
330
18
100
AcDbEntity
  8
0
  6
Continuous
 62
     3
100
AcDbLine
 10
19.0
 20
4.0
 30
0.0
 11
19.0
 21
291.0
 31
0.0
1001
PHOENIX7010
1002
{
1070
    62
1070
     3
1070
    41
1040
1.0
1002
}
  0
LINE
  5
49D
102
{ACAD_REACTORS
330
4A2
102
}
330
18
100
AcDbEntity
  8
0
  6
Continuous
 62
     3
100
AcDbLine
 10
19.0
 20
291.0
 30
0.0
 11
414.0
 21
291.0
 31
0.0
1001
PHOENIX7010
1002
{
1070
    62
1070
     3
1070
    41
1040
1.0
1002
}
  0
LINE
  5
49E
102
{ACAD_REACTORS
330
4A2
102
}
330
18
100
AcDbEntity
  8
0
  6
Continuous
 62
     3
100
AcDbLine
 10
414.0
 20
291.0
 30
0.0
 11
414.0
 21
4.0
 31
0.0
1001
PHOENIX7010
1002
{
1070
    62
1070
     3
1070
    41
1040
1.0
1002
}
  0
MTEXT
  5
49F
102
{ACAD_REACTORS
330
4A2
102
}
330
18
100
AcDbEntity
  8
0
  6
Continuous
 62
     7
370
    50
100
AcDbMText
 10
18.70248718641096
 20
54.3935120791333
 30
0.0
 40
2.0
 41
0.0
 71
     7
 72
     5
  1
{\T1.1;\C1;"Schutzvermerk nach DIN ISO 16016 beachten" \Q20;"Please pay attention to copyright note DIN ISO 16016"}
 11
0.0000000000000002
 21
1.0
 31
0.0
 73
     1
 44
1.0
1001
PHOENIX7010
1002
{
1070
    41
1040
1.0
1002
}
1001
ACAD
1000
MTEXTBEGIN
1070
    73
1070
     1
1070
    44
1040
1.0
1070
    74
1070
     0
1000
MTEXTEND
  0
INSERT
  5
4A0
102
{ACAD_REACTORS
330
4A2
102
}
330
18
100
AcDbEntity
  8
0
  6
Continuous
 62
     1
100
AcDbBlockReference
  2
PH_GRPBLK
 10
229.0
 20
4.0
 30
0.0
1001
PHOENIX7010
1002
{
1070
    41
1040
1.0
1002
}
  0
HATCH
  5
4B1
102
{ACAD_REACTORS
330
505
102
}
330
18
100
AcDbEntity
  8
0
  6
Continuous
 62
     1
370
    25
100
AcDbHatch
 10
0.0
 20
0.0
 30
0.0
210
0.0
220
0.0
230
1.0
  2
_U
 70
     0
 71
     1
 91
        1
 92
        0
 93
        5
 72
     1
 10
406.4334749940256
 20
34.16453811398037
 11
399.7334749940256
 21
26.3645381139803
 72
     1
 10
399.7334749940255
 20
26.3645381139803
 11
411.7334749940255
 21
26.3645381139803
 72
     1
 10
411.7334749940255
 20
26.3645381139803
 11
411.7334749940256
 21
34.16453811398032
 72
     1
 10
411.7334749940255
 20
34.16453811398026
 11
406.4334749940255
 21
27.26453811398036
 72
     1
 10
406.4334749940256
 20
27.2645381139804
 11
406.4334749940255
 21
34.16453811398037
 97
        1
330
4F5
 75
     0
 76
     0
 52
45.0
 41
0.1
 77
     0
 78
     1
 53
45.0
 43
-1.0
 44
-33.08885297207064
 45
-0.0707106781186548
 46
0.0707106781186548
 79
     0
 98
        1
 10
-1.0
 20
-33.08885297207064
1001
PHOENIX7010
1002
{
1070
    41
1040
1.0
1002
}
  0
HATCH
  5
4B2
102
{ACAD_REACTORS
330
505
102
}
330
18
100
AcDbEntity
  8
0
  6
Continuous
 62
     1
370
    25
100
AcDbHatch
 10
0.0
 20
0.0
 30
0.0
210
0.0
220
0.0
230
1.0
  2
_U
 70
     0
 71
     1
 91
        1
 92
        0
 93
        3
 72
     1
 10
398.8834749940255
 20
26.3645381139803
 11
398.8834749940255
 21
30.51453811398031
 72
     1
 10
398.8834749940255
 20
30.51453811398028
 11
403.0334749940254
 21
30.51453811398028
 72
     2
 10
398.8834749940255
 20
30.51453811398028
 40
4.149999999999977
 50
0.0000000000001962
 51
270.0
 73
     1
 97
        1
330
4F6
 75
     0
 76
     0
 52
45.0
 41
0.65
 77
     0
 78
     1
 53
45.0
 43
-1.0
 44
-33.08885297207064
 45
-0.4596194077712559
 46
0.459619407771256
 79
     0
 98
        1
 10
-1.0
 20
-33.08885297207064
1001
PHOENIX7010
1002
{
1070
    41
1040
1.0
1002
}
  0
LINE
  5
4B3
102
{ACAD_REACTORS
330
505
102
}
330
18
100
AcDbEntity
  8
0
  6
Continuous
 62
     7
370
    50
100
AcDbLine
 10
399.7334749940255
 20
26.3645381139803
 30
0.0
 11
411.7334749940255
 21
26.3645381139803
 31
0.0
1001
PHOENIX7010
1002
{
1070
    41
1040
1.0
1002
}
  0
LINE
  5
4B4
102
{ACAD_REACTORS
330
505
102
}
330
18
100
AcDbEntity
  8
0
  6
Continuous
 62
     7
370
    50
100
AcDbLine
 10
411.7334749940255
 20
26.3645381139803
 30
0.0
 11
411.7334749940255
 21
34.16453811398026
 31
0.0
1001
PHOENIX7010
1002
{
1070
    41
1040
1.0
1002
}
  0
LINE
  5
4B5
102
{ACAD_REACTORS
330
505
102
}
330
18
100
AcDbEntity
  8
0
  6
Continuous
 62
     7
370
    50
100
AcDbLine
 10
406.4334749940256
 20
27.26453811398028
 30
0.0
 11
406.4334749940256
 21
34.16453811398026
 31
0.0
1001
PHOENIX7010
1002
{
1070
    41
1040
1.0
1002
}
  0
LINE
  5
4B6
102
{ACAD_REACTORS
330
505
102
}
330
18
100
AcDbEntity
  8
0
  6
Continuous
 62
     7
370
    50
100
AcDbLine
 10
406.4334749940256
 20
34.16453811398026
 30
0.0
 11
399.7334749940255
 21
26.3645381139803
 31
0.0
1001
PHOENIX7010
1002
{
1070
    41
1040
1.0
1002
}
  0
LINE
  5
4B7
102
{ACAD_REACTORS
330
505
102
}
330
18
100
AcDbEntity
  8
0
  6
Continuous
 62
     7
370
    50
100
AcDbLine
 10
411.7334749940255
 20
34.16453811398026
 30
0.0
 11
406.4334749940256
 21
27.26453811398028
 31
0.0
1001
PHOENIX7010
1002
{
1070
    41
1040
1.0
1002
}
  0
INSERT
  5
4B8
102
{ACAD_REACTORS
330
505
102
}
330
18
100
AcDbEntity
  8
0
  6
Continuous
 62
     1
370
    25
100
AcDbBlockReference
  2
PH_GRPBLK
 10
399.7334749940255
 20
26.3645381139803
 30
0.0
1001
PHOENIX7010
1002
{
1070
    41
1040
1.0
1002
}
  0
MTEXT
  5
4B9
102
{ACAD_REACTORS
330
506
102
}
330
18
100
AcDbEntity
  8
0
  6
Continuous
 62
     7
370
    50
100
AcDbMText
 10
380.0842366554657
 20
16.88346060003141
 30
0.0
 40
1.6
 41
0.0
 71
     7
 72
     5
  1
{\fArial|b0|i0|c0|p34;\W1.1;\C1;A Phoenix Mecano Company}
 73
     1
 44
1.0
1001
PHOENIX7010
1002
{
1070
    41
1040
1.0
1002
}
1001
ACAD
1000
MTEXTBEGIN
1070
    73
1070
     1
1070
    44
1040
1.0
1070
    74
1070
     0
1000
MTEXTEND
  0
MTEXT
  5
4BA
102
{ACAD_XDICTIONARY
360
555
102
}
102
{ACAD_REACTORS
330
506
102
}
330
18
100
AcDbEntity
  8
0
  6
Continuous
 62
     7
370
    50
100
AcDbMText
 10
392.5658807175858
 20
20.46517927327727
 30
0.0
 40
3.7
 41
0.0
 71
     7
 72
     5
  1
{\fArial|b1|i0|c0|p34;\W1.1;BOPLA}
 73
     1
 44
1.135135135135135
1001
PHOENIX7010
1002
{
1070
    41
1040
1.0
1002
}
1001
ACAD
1000
MTEXTBEGIN
1070
    73
1070
     1
1070
    44
1040
1.135135135135135
1070
    74
1070
     0
1000
MTEXTEND
  0
INSERT
  5
4BB
102
{ACAD_REACTORS
330
506
102
}
330
18
100
AcDbEntity
  8
0
  6
Continuous
 62
     7
370
    50
100
AcDbBlockReference
  2
PH_GRPBLK
 10
399.7334749940255
 20
26.3645381139803
 30
0.0
1001
PHOENIX7010
1002
{
1070
    41
1040
1.0
1002
}
  0
MTEXT
  5
4BC
102
{ACAD_REACTORS
330
507
102
}
330
18
100
AcDbEntity
  8
0
  6
Continuous
 62
     5
370
    35
100
AcDbMText
 10
317.9304981780733
 20
51.18090043987115
 30
0.0
 40
3.5
 41
0.0
 71
     7
 72
     5
  1
{\C7;Katalogzeichnung/\Q20;Catalogue drawing}
 73
     1
 44
1.0
1001
PHOENIX7010
1002
{
1070
    41
1040
1.0
1002
}
1001
ACAD
1000
MTEXTBEGIN
1070
    73
1070
     1
1070
    44
1040
1.0
1070
    74
1070
     0
1000
MTEXTEND
  0
MTEXT
  5
4BD
102
{ACAD_REACTORS
330
507
102
}
330
18
100
AcDbEntity
  8
0
  6
Continuous
 62
     5
370
    35
100
AcDbMText
 10
317.9304981780733
 20
58.18090043987115
 30
0.0
 40
4.0
 41
0.0
 71
     7
 72
     5
  1
{\C7;BSW/M . . 300}
 73
     1
 44
1.0
1001
PHOENIX7010
1002
{
1070
    41
1040
1.0
1002
}
1001
ACAD
1000
MTEXTBEGIN
1070
    73
1070
     1
1070
    44
1040
1.0
1070
    74
1070
     0
1000
MTEXTEND
  0
MTEXT
  5
4BE
102
{ACAD_REACTORS
330
507
102
}
330
18
100
AcDbEntity
  8
0
  6
Continuous
 62
     5
370
    35
100
AcDbMText
 10
317.9304981780733
 20
65.18090043987115
 30
0.0
 40
4.0
 41
0.0
 71
     7
 72
     5
  1
{\C7;Interzoll Modul}
 73
     1
 44
1.0
1001
PHOENIX7010
1002
{
1070
    41
1040
1.0
1002
}
1001
ACAD
1000
MTEXTBEGIN
1070
    73
1070
     1
1070
    44
1040
1.0
1070
    74
1070
     0
1000
MTEXTEND
  0
MTEXT
  5
4BF
102
{ACAD_REACTORS
330
507
102
}
330
18
100
AcDbEntity
  8
0
  6
Continuous
 62
     5
370
    35
100
AcDbMText
 10
339.3074630969179
 20
94.1987580068236
 30
0.0
 40
4.0
 41
0.0
 71
     7
 72
     5
  1
{\C7;-}
 73
     1
 44
1.0
1001
PHOENIX7010
1002
{
1070
    41
1040
1.0
1002
}
1001
ACAD
1000
MTEXTBEGIN
1070
    73
1070
     1
1070
    44
1040
1.0
1070
    74
1070
     0
1000
MTEXTEND
  0
MTEXT
  5
4C0
102
{ACAD_REACTORS
330
507
102
}
330
18
100
AcDbEntity
  8
0
  6
Continuous
 62
     5
370
    35
100
AcDbMText
 10
318.2942762589885
 20
93.24669079255102
 30
0.0
 40
2.5
 41
0.0
 71
     7
 72
     5
  1
{\C1;Maßstab/\P\Q20;Scale:}
 73
     1
 44
1.0
1001
PHOENIX7010
1002
{
1070
    41
1040
1.0
1002
}
1001
ACAD
1000
MTEXTBEGIN
1070
    73
1070
     1
1070
    44
1040
1.0
1070
    74
1070
     0
1000
MTEXTEND
  0
MTEXT
  5
4C1
102
{ACAD_REACTORS
330
507
102
}
330
18
100
AcDbEntity
  8
0
  6
Continuous
 62
     5
370
    35
100
AcDbMText
 10
318.5702130763932
 20
85.57846179300588
 30
0.0
 40
3.0
 41
0.0
 71
     7
 72
     5
  1
Zeichnungs-Nr. / {\Q20;Drawing-No.:}
 73
     1
 44
1.0
1001
PHOENIX7010
1002
{
1070
    41
1040
1.0
1002
}
1001
ACAD
1000
MTEXTBEGIN
1070
    73
1070
     1
1070
    44
1040
1.0
1070
    74
1070
     0
1000
MTEXTEND
  0
MTEXT
  5
4C2
102
{ACAD_REACTORS
330
507
102
}
330
18
100
AcDbEntity
  8
0
  6
Continuous
 62
     5
370
    35
100
AcDbMText
 10
339.6810942169352
 20
79.43630467405558
 30
0.0
 40
4.0
 41
0.0
 71
     7
 72
     5
  1
{\C7;3K 5315.036.01}
 73
     1
 44
1.0
1001
PHOENIX7010
1002
{
1070
    41
1040
1.0
1002
}
1001
ACAD
1000
MTEXTBEGIN
1070
    73
1070
     1
1070
    44
1040
1.0
1070
    74
1070
     0
1000
MTEXTEND
  0
MTEXT
  5
4C3
102
{ACAD_REACTORS
330
507
102
}
330
18
100
AcDbEntity
  8
0
  6
Continuous
 62
     5
370
    35
100
AcDbMText
 10
317.8800602381664
 20
71.42896167163701
 30
0.0
 40
4.0
 41
0.0
 71
     7
 72
     5
  1
{\C7;Artikel / \Q20;Article:}
 73
     1
 44
1.0
1001
PHOENIX7010
1002
{
1070
    41
1040
1.0
1002
}
1001
ACAD
1000
MTEXTBEGIN
1070
    73
1070
     1
1070
    44
1040
1.0
1070
    74
1070
     0
1000
MTEXTEND
  0
MTEXT
  5
4C4
102
{ACAD_REACTORS
330
507
102
}
330
18
100
AcDbEntity
  8
0
  6
Continuous
 62
     5
370
    35
100
AcDbMText
 10
328.5918340418987
 20
14.32304279191078
 30
0.0
 40
2.0
 41
0.0
 71
     7
 72
     5
  1
{\C1;Datum/\P\Q20;Date:}
 73
     1
 44
1.0
1001
PHOENIX7010
1002
{
1070
    41
1040
1.0
1002
}
1001
ACAD
1000
MTEXTBEGIN
1070
    73
1070
     1
1070
    44
1040
1.0
1070
    74
1070
     0
1000
MTEXTEND
  0
MTEXT
  5
4C5
102
{ACAD_REACTORS
330
507
102
}
330
18
100
AcDbEntity
  8
0
  6
Continuous
 62
     5
370
    35
100
AcDbMText
 10
315.167758256943
 20
14.32303913053613
 30
0.0
 40
2.0
 41
0.0
 71
     7
 72
     5
  1
{\C1;Ä.Nr/\P\Q20;Alt-No.:}
 73
     1
 44
1.0
1001
PHOENIX7010
1002
{
1070
    41
1040
1.0
1002
}
1001
ACAD
1000
MTEXTBEGIN
1070
    73
1070
     1
1070
    44
1040
1.0
1070
    74
1070
     0
1000
MTEXTEND
  0
MTEXT
  5
4C6
102
{ACAD_REACTORS
330
507
102
}
330
18
100
AcDbEntity
  8
0
  6
Continuous
 62
     5
370
    35
100
AcDbMText
 10
341.2178658257174
 20
9.605921666139238
 30
0.0
 40
2.5
 41
0.0
 71
     7
 72
     5
  1
2 901 846
 73
     1
 44
1.0
1001
PHOENIX7010
1002
{
1070
    41
1040
1.0
1002
}
1001
ACAD
1000
MTEXTBEGIN
1070
    73
1070
     1
1070
    44
1040
1.0
1070
    74
1070
     0
1000
MTEXTEND
  0
MTEXT
  5
4C7
102
{ACAD_REACTORS
330
507
102
}
330
18
100
AcDbEntity
  8
0
  6
Continuous
 62
     5
370
    35
100
AcDbMText
 10
315.5289912646938
 20
9.494755270981045
 30
0.0
 40
2.5
 41
0.0
 71
     7
 72
     5
  1
DISK:
 73
     1
 44
1.0
1001
PHOENIX7010
1002
{
1070
    41
1040
1.0
1002
}
1001
ACAD
1000
MTEXTBEGIN
1070
    73
1070
     1
1070
    44
1040
1.0
1070
    74
1070
     0
1000
MTEXTEND
  0
MTEXT
  5
4C8
102
{ACAD_REACTORS
330
507
102
}
330
18
100
AcDbEntity
  8
0
  6
Continuous
 62
     5
370
    35
100
AcDbMText
 10
341.2178658257174
 20
5.24888752318759
 30
0.0
 40
2.5
 41
0.0
 71
     7
 72
     5
  1
18.06.99 HR
 73
     1
 44
1.0
1001
PHOENIX7010
1002
{
1070
    41
1040
1.0
1002
}
1001
ACAD
1000
MTEXTBEGIN
1070
    73
1070
     1
1070
    44
1040
1.0
1070
    74
1070
     0
1000
MTEXTEND
  0
MTEXT
  5
4C9
102
{ACAD_REACTORS
330
507
102
}
330
18
100
AcDbEntity
  8
0
  6
Continuous
 62
     5
370
    35
100
AcDbMText
 10
315.5289912646938
 20
5.24888752318759
 30
0.0
 40
2.5
 41
0.0
 71
     7
 72
     5
  1
Datum/{\Q20;Date:}
 73
     1
 44
1.0
1001
PHOENIX7010
1002
{
1070
    41
1040
1.0
1002
}
1001
ACAD
1000
MTEXTBEGIN
1070
    73
1070
     1
1070
    44
1040
1.0
1070
    74
1070
     0
1000
MTEXTEND
  0
LINE
  5
4CA
102
{ACAD_REACTORS
330
507
102
}
330
18
100
AcDbEntity
  8
0
  6
Continuous
 62
     5
370
    35
100
AcDbLine
 10
313.9999999999998
 20
13.50000000000011
 30
0.0
 11
414.0
 21
13.50000000000011
 31
0.0
1001
PHOENIX7010
1002
{
1070
    41
1040
1.0
1002
}
  0
LINE
  5
4CB
102
{ACAD_REACTORS
330
507
102
}
330
18
100
AcDbEntity
  8
0
  6
Continuous
 62
     5
100
AcDbLine
 10
404.4999999999998
 20
91.5
 30
0.0
 11
404.4999999999998
 21
98.50000000000001
 31
0.0
1001
PHOENIX7010
1002
{
1070
    62
1070
     5
1070
    41
1040
1.0
1002
}
  0
LINE
  5
4CC
102
{ACAD_REACTORS
330
507
102
}
330
18
100
AcDbEntity
  8
0
  6
ACAD_ISO04W100
 62
     1
 48
0.1451612903225806
100
AcDbLine
 10
409.4999999999997
 20
90.5
 30
0.0
 11
409.4999999999997
 21
99.50000000000001
 31
0.0
1001
PHOENIX7010
1002
{
1070
    62
1070
     1
1070
    41
1040
1.0
1002
}
  0
CIRCLE
  5
4CD
102
{ACAD_REACTORS
330
507
102
}
330
18
100
AcDbEntity
  8
0
  6
Continuous
 62
     5
100
AcDbCircle
 10
409.4999999999997
 20
95.0
 30
0.0
 40
1.75
1001
PHOENIX7010
1002
{
1070
    62
1070
     5
1070
    41
1040
1.0
1002
}
  0
CIRCLE
  5
4CE
102
{ACAD_REACTORS
330
507
102
}
330
18
100
AcDbEntity
  8
0
  6
Continuous
 62
     5
100
AcDbCircle
 10
409.4999999999997
 20
95.0
 30
0.0
 40
3.5
1001
PHOENIX7010
1002
{
1070
    62
1070
     5
1070
    41
1040
1.0
1002
}
  0
LINE
  5
4CF
102
{ACAD_REACTORS
330
507
102
}
330
18
100
AcDbEntity
  8
0
  6
Continuous
 62
     5
100
AcDbLine
 10
397.4999999999998
 20
93.25000000000001
 30
0.0
 11
397.4999999999998
 21
96.75
 31
0.0
1001
PHOENIX7010
1002
{
1070
    62
1070
     5
1070
    41
1040
1.0
1002
}
  0
LINE
  5
4D0
102
{ACAD_REACTORS
330
507
102
}
330
18
100
AcDbEntity
  8
0
  6
ACAD_ISO04W100
 62
     1
 48
0.282258064516129
100
AcDbLine
 10
413.9999999999997
 20
95.0
 30
0.0
 11
396.4999999999998
 21
95.0
 31
0.0
1001
PHOENIX7010
1002
{
1070
    62
1070
     1
1070
    41
1040
1.0
1002
}
  0
LINE
  5
4D1
102
{ACAD_REACTORS
330
507
102
}
330
18
100
AcDbEntity
  8
0
  6
Continuous
 62
     5
100
AcDbLine
 10
404.4999999999998
 20
91.5
 30
0.0
 11
397.4999999999998
 21
93.25000000000001
 31
0.0
1001
PHOENIX7010
1002
{
1070
    62
1070
     5
1070
    41
1040
1.0
1002
}
  0
LINE
  5
4D2
102
{ACAD_REACTORS
330
507
102
}
330
18
100
AcDbEntity
  8
0
  6
Continuous
 62
     5
100
AcDbLine
 10
404.4999999999998
 20
98.50000000000001
 30
0.0
 11
397.4999999999998
 21
96.75
 31
0.0
1001
PHOENIX7010
1002
{
1070
    62
1070
     5
1070
    41
1040
1.0
1002
}
  0
ARC
  5
4D3
102
{ACAD_REACTORS
330
507
102
}
330
18
100
AcDbEntity
  8
0
  6
Continuous
 62
     5
100
AcDbCircle
 10
316.4999999999998
 20
88.0
 30
0.0
 40
2.5
100
AcDbArc
 50
90.0
 51
180.0
1001
PHOENIX7010
1002
{
1070
    62
1070
     5
1070
    41
1040
1.0
1002
}
  0
ARC
  5
4D4
102
{ACAD_REACTORS
330
507
102
}
330
18
100
AcDbEntity
  8
0
  6
Continuous
 62
     5
100
AcDbCircle
 10
316.4999999999998
 20
99.0
 30
0.0
 40
2.5
100
AcDbArc
 50
90.0
 51
180.0
1001
PHOENIX7010
1002
{
1070
    62
1070
     5
1070
    41
1040
1.0
1002
}
  0
LINE
  5
4D5
102
{ACAD_REACTORS
330
507
102
}
330
18
100
AcDbEntity
  8
0
  6
Continuous
 62
     5
100
AcDbLine
 10
414.0
 20
90.5
 30
0.0
 11
316.4999999999998
 21
90.5
 31
0.0
1001
PHOENIX7010
1002
{
1070
    62
1070
     5
1070
    41
1040
1.0
1002
}
  0
LINE
  5
4D6
102
{ACAD_REACTORS
330
507
102
}
330
18
100
AcDbEntity
  8
0
  6
Continuous
 62
     5
100
AcDbLine
 10
414.0
 20
101.5
 30
0.0
 11
316.4999999999998
 21
101.5
 31
0.0
1001
PHOENIX7010
1002
{
1070
    62
1070
     5
1070
    41
1040
1.0
1002
}
  0
LINE
  5
4D7
102
{ACAD_REACTORS
330
507
102
}
330
18
100
AcDbEntity
  8
0
  6
Continuous
 62
     5
100
AcDbLine
 10
349.0
 20
47.00000000000011
 30
0.0
 11
349.0
 21
13.50000000000011
 31
0.0
1001
PHOENIX7010
1002
{
1070
    62
1070
     5
1070
    41
1040
1.0
1002
}
  0
TEXT
  5
4D8
102
{ACAD_REACTORS
330
507
102
}
330
18
100
AcDbEntity
  8
0
  6
Continuous
 62
     1
100
AcDbText
 10
327.9999996997324
 20
41.74999981501355
 30
0.0
 40
2.0
  1
-
 41
1.5
100
AcDbText
1001
PHOENIX7010
1002
{
1070
    62
1070
     1
1070
    41
1040
1.0
1002
}
  0
TEXT
  5
4D9
102
{ACAD_REACTORS
330
507
102
}
330
18
100
AcDbEntity
  8
0
  6
Continuous
 62
     1
100
AcDbText
 10
327.9999996997324
 20
39.24999981501355
 30
0.0
 40
2.0
  1
-
 41
1.5
100
AcDbText
1001
PHOENIX7010
1002
{
1070
    62
1070
     1
1070
    41
1040
1.0
1002
}
  0
TEXT
  5
4DA
102
{ACAD_REACTORS
330
507
102
}
330
18
100
AcDbEntity
  8
0
  6
Continuous
 62
     1
100
AcDbText
 10
327.9999996997324
 20
44.24999981501355
 30
0.0
 40
2.0
  1
-
 41
1.5
100
AcDbText
1001
PHOENIX7010
1002
{
1070
    62
1070
     1
1070
    41
1040
1.0
1002
}
  0
TEXT
  5
4DB
102
{ACAD_REACTORS
330
507
102
}
330
18
100
AcDbEntity
  8
0
  6
Continuous
 62
     1
100
AcDbText
 10
314.9999996997324
 20
41.74999981501355
 30
0.0
 40
2.0
  1
-
 41
1.5
100
AcDbText
1001
PHOENIX7010
1002
{
1070
    62
1070
     1
1070
    41
1040
1.0
1002
}
  0
TEXT
  5
4DC
102
{ACAD_REACTORS
330
507
102
}
330
18
100
AcDbEntity
  8
0
  6
Continuous
 62
     1
100
AcDbText
 10
314.9999996997324
 20
39.24999981501355
 30
0.0
 40
2.0
  1
-
 41
1.5
100
AcDbText
1001
PHOENIX7010
1002
{
1070
    62
1070
     1
1070
    41
1040
1.0
1002
}
  0
TEXT
  5
4DD
102
{ACAD_REACTORS
330
507
102
}
330
18
100
AcDbEntity
  8
0
  6
Continuous
 62
     1
100
AcDbText
 10
314.9999996997324
 20
44.24999981501355
 30
0.0
 40
2.0
  1
-
 41
1.5
100
AcDbText
1001
PHOENIX7010
1002
{
1070
    62
1070
     1
1070
    41
1040
1.0
1002
}
  0
ARC
  5
4DE
102
{ACAD_REACTORS
330
507
102
}
330
18
100
AcDbEntity
  8
0
  6
Continuous
 62
     5
100
AcDbCircle
 10
316.4999999999998
 20
44.50000000000011
 30
0.0
 40
2.5
100
AcDbArc
 50
90.0
 51
180.0
1001
PHOENIX7010
1002
{
1070
    62
1070
     5
1070
    41
1040
1.0
1002
}
  0
ARC
  5
4DF
102
{ACAD_REACTORS
330
507
102
}
330
18
100
AcDbEntity
  8
0
  6
Continuous
 62
     5
100
AcDbCircle
 10
316.4999999999998
 20
75.00000000000011
 30
0.0
 40
2.5
100
AcDbArc
 50
90.0
 51
180.0
1001
PHOENIX7010
1002
{
1070
    62
1070
     5
1070
    41
1040
1.0
1002
}
  0
TEXT
  5
4E0
102
{ACAD_REACTORS
330
507
102
}
330
18
100
AcDbEntity
  8
0
  6
Continuous
 62
     1
100
AcDbText
 10
327.9999996997324
 20
24.24999981501355
 30
0.0
 40
2.0
  1
-
 41
1.5
100
AcDbText
1001
PHOENIX7010
1002
{
1070
    62
1070
     1
1070
    41
1040
1.0
1002
}
  0
TEXT
  5
4E1
102
{ACAD_REACTORS
330
507
102
}
330
18
100
AcDbEntity
  8
0
  6
Continuous
 62
     1
100
AcDbText
 10
327.9999996997324
 20
21.74999981501355
 30
0.0
 40
2.0
  1
-
 41
1.5
100
AcDbText
1001
PHOENIX7010
1002
{
1070
    62
1070
     1
1070
    41
1040
1.0
1002
}
  0
TEXT
  5
4E2
102
{ACAD_REACTORS
330
507
102
}
330
18
100
AcDbEntity
  8
0
  6
Continuous
 62
     1
100
AcDbText
 10
327.9999996997324
 20
29.24999981501355
 30
0.0
 40
2.0
  1
-
 41
1.5
100
AcDbText
1001
PHOENIX7010
1002
{
1070
    62
1070
     1
1070
    41
1040
1.0
1002
}
  0
TEXT
  5
4E3
102
{ACAD_REACTORS
330
507
102
}
330
18
100
AcDbEntity
  8
0
  6
Continuous
 62
     1
100
AcDbText
 10
327.9999996997324
 20
26.74999981501355
 30
0.0
 40
2.0
  1
-
 41
1.5
100
AcDbText
1001
PHOENIX7010
1002
{
1070
    62
1070
     1
1070
    41
1040
1.0
1002
}
  0
TEXT
  5
4E4
102
{ACAD_REACTORS
330
507
102
}
330
18
100
AcDbEntity
  8
0
  6
Continuous
 62
     1
100
AcDbText
 10
327.9999996997324
 20
31.74999981501355
 30
0.0
 40
2.0
  1
-
 41
1.5
100
AcDbText
1001
PHOENIX7010
1002
{
1070
    62
1070
     1
1070
    41
1040
1.0
1002
}
  0
TEXT
  5
4E5
102
{ACAD_REACTORS
330
507
102
}
330
18
100
AcDbEntity
  8
0
  6
Continuous
 62
     1
100
AcDbText
 10
327.9999996997324
 20
34.24999981501355
 30
0.0
 40
2.0
  1
-
 41
1.5
100
AcDbText
1001
PHOENIX7010
1002
{
1070
    62
1070
     1
1070
    41
1040
1.0
1002
}
  0
TEXT
  5
4E6
102
{ACAD_REACTORS
330
507
102
}
330
18
100
AcDbEntity
  8
0
  6
Continuous
 62
     1
100
AcDbText
 10
327.9999996997324
 20
36.74999981501355
 30
0.0
 40
2.0
  1
-
 41
1.5
100
AcDbText
1001
PHOENIX7010
1002
{
1070
    62
1070
     1
1070
    41
1040
1.0
1002
}
  0
TEXT
  5
4E7
102
{ACAD_REACTORS
330
507
102
}
330
18
100
AcDbEntity
  8
0
  6
Continuous
 62
     1
100
AcDbText
 10
314.9999996997324
 20
24.24999981501355
 30
0.0
 40
2.0
  1
-
 41
1.5
100
AcDbText
1001
PHOENIX7010
1002
{
1070
    62
1070
     1
1070
    41
1040
1.0
1002
}
  0
TEXT
  5
4E8
102
{ACAD_REACTORS
330
507
102
}
330
18
100
AcDbEntity
  8
0
  6
Continuous
 62
     1
100
AcDbText
 10
314.9999996997324
 20
21.74999981501355
 30
0.0
 40
2.0
  1
-
 41
1.5
100
AcDbText
1001
PHOENIX7010
1002
{
1070
    62
1070
     1
1070
    41
1040
1.0
1002
}
  0
TEXT
  5
4E9
102
{ACAD_REACTORS
330
507
102
}
330
18
100
AcDbEntity
  8
0
  6
Continuous
 62
     1
100
AcDbText
 10
314.9999996997324
 20
29.24999981501355
 30
0.0
 40
2.0
  1
-
 41
1.5
100
AcDbText
1001
PHOENIX7010
1002
{
1070
    62
1070
     1
1070
    41
1040
1.0
1002
}
  0
TEXT
  5
4EA
102
{ACAD_REACTORS
330
507
102
}
330
18
100
AcDbEntity
  8
0
  6
Continuous
 62
     1
100
AcDbText
 10
314.9999996997324
 20
26.74999981501355
 30
0.0
 40
2.0
  1
-
 41
1.5
100
AcDbText
1001
PHOENIX7010
1002
{
1070
    62
1070
     1
1070
    41
1040
1.0
1002
}
  0
TEXT
  5
4EB
102
{ACAD_REACTORS
330
507
102
}
330
18
100
AcDbEntity
  8
0
  6
Continuous
 62
     1
100
AcDbText
 10
314.9999996997324
 20
31.74999981501355
 30
0.0
 40
2.0
  1
-
 41
1.5
100
AcDbText
1001
PHOENIX7010
1002
{
1070
    62
1070
     1
1070
    41
1040
1.0
1002
}
  0
TEXT
  5
4EC
102
{ACAD_REACTORS
330
507
102
}
330
18
100
AcDbEntity
  8
0
  6
Continuous
 62
     1
100
AcDbText
 10
314.9999996997324
 20
34.24999981501355
 30
0.0
 40
2.0
  1
-
 41
1.5
100
AcDbText
1001
PHOENIX7010
1002
{
1070
    62
1070
     1
1070
    41
1040
1.0
1002
}
  0
TEXT
  5
4ED
102
{ACAD_REACTORS
330
507
102
}
330
18
100
AcDbEntity
  8
0
  6
Continuous
 62
     1
100
AcDbText
 10
314.9999996997324
 20
36.74999981501355
 30
0.0
 40
2.0
  1
-
 41
1.5
100
AcDbText
1001
PHOENIX7010
1002
{
1070
    62
1070
     1
1070
    41
1040
1.0
1002
}
  0
LINE
  5
4EE
102
{ACAD_REACTORS
330
507
102
}
330
18
100
AcDbEntity
  8
0
  6
Continuous
 62
     1
100
AcDbLine
 10
326.9999999999998
 20
47.00000000000011
 30
0.0
 11
326.9999999999998
 21
13.50000000000011
 31
0.0
1001
PHOENIX7010
1002
{
1070
    62
1070
     1
1070
    41
1040
1.0
1002
}
  0
LINE
  5
4EF
102
{ACAD_REACTORS
330
507
102
}
330
18
100
AcDbEntity
  8
0
  6
Continuous
 62
     1
100
AcDbLine
 10
313.9999999999998
 20
20.50000000000011
 30
0.0
 11
349.0
 21
20.50000000000011
 31
0.0
1001
PHOENIX7010
1002
{
1070
    62
1070
     1
1070
    41
1040
1.0
1002
}
  0
LINE
  5
4F0
102
{ACAD_REACTORS
330
507
102
}
330
18
100
AcDbEntity
  8
0
  6
Continuous
 62
     5
100
AcDbLine
 10
414.0
 20
77.50000000000011
 30
0.0
 11
316.4999999999998
 21
77.50000000000011
 31
0.0
1001
PHOENIX7010
1002
{
1070
    62
1070
     5
1070
    41
1040
1.0
1002
}
  0
LINE
  5
4F1
102
{ACAD_REACTORS
330
507
102
}
330
18
100
AcDbEntity
  8
0
  6
Continuous
 62
     5
100
AcDbLine
 10
414.0
 20
47.00000000000011
 30
0.0
 11
316.4999999999998
 21
47.00000000000011
 31
0.0
1001
PHOENIX7010
1002
{
1070
    62
1070
     5
1070
    41
1040
1.0
1002
}
  0
LINE
  5
4F2
102
{ACAD_REACTORS
330
507
102
}
330
18
100
AcDbEntity
  8
0
  6
Continuous
 62
     5
100
AcDbLine
 10
313.9999999999998
 20
99.0
 30
0.0
 11
313.9999999999998
 21
4.000000000000113
 31
0.0
1001
PHOENIX7010
1002
{
1070
    62
1070
     5
1070
    41
1040
1.0
1002
}
  0
INSERT
  5
4F3
102
{ACAD_REACTORS
330
507
102
}
330
18
100
AcDbEntity
  8
0
  6
Continuous
 62
     5
370
    35
100
AcDbBlockReference
  2
PH_GRPBLK
 10
313.9999999999998
 20
13.50000000000011
 30
0.0
1001
PHOENIX7010
1002
{
1070
    41
1040
1.0
1002
}
  0
LWPOLYLINE
  5
4F5
102
{ACAD_REACTORS
330
4B1
102
}
330
18
100
AcDbEntity
  8
0
  6
Continuous
 62
     7
 60
     1
370
    50
100
AcDbPolyline
 90
        5
 70
     1
 43
0.0
 10
406.4334749940256
 20
34.16453811398037
 10
399.7334749940255
 20
26.3645381139803
 10
411.7334749940255
 20
26.3645381139803
 10
411.7334749940255
 20
34.16453811398026
 10
406.4334749940256
 20
27.2645381139804
1001
PHOENIX7010
1002
{
1070
    41
1040
1.0
1002
}
  0
LWPOLYLINE
  5
4F6
102
{ACAD_REACTORS
330
4B2
102
}
330
18
100
AcDbEntity
  8
0
  6
Continuous
 62
     7
 60
     1
370
    50
100
AcDbPolyline
 90
        3
 70
     1
 43
0.0
 10
398.8834749940255
 20
26.3645381139803
 10
398.8834749940255
 20
30.51453811398028
 10
403.0334749940254
 20
30.51453811398028
 42
2.414213562373094
1001
PHOENIX7010
1002
{
1070
    41
1040
1.0
1002
}
  0
ENDSEC
  0
SECTION
  2
OBJECTS
  0
DICTIONARY
  5
C
330
0
100
AcDbDictionary
281
     1
  3
ACAD_COLOR
350
40B
  3
ACAD_GROUP
350
D
  3
ACAD_LAYOUT
350
422
  3
ACAD_MATERIAL
350
3DE
  3
ACAD_MLEADERSTYLE
350
420
  3
ACAD_MLINESTYLE
350
1B
  3
ACAD_PLOTSETTINGS
350
423
  3
ACAD_PLOTSTYLENAME
350
3DC
  3
ACAD_SCALELIST
350
40E
  3
ACAD_TABLESTYLE
350
40C
  3
ACAD_VISUALSTYLE
350
3F7
  3
ACDB_RECOMPOSE_DATA
350
557
  3
AcDbVariableDictionary
350
537
  3
DWGPROPS
350
558
  3
PH_OBJREACTOR_DICT
350
26F
  3
PH_ROOTGROUP_DICT
350
265
  3
PH_VARS
350
264
  0
DICTIONARY
  5
429
330
2
100
AcDbDictionary
280
     1
281
     1
  3
ACAD_LAYERSTATES
360
42A
  0
DICTIONARY
  5
50D
330
E
100
AcDbDictionary
280
     1
281
     1
  3
ADSK_XREC_LAYER_RECONCILED
360
50E
  0
DICTIONARY
  5
50F
330
21
100
AcDbDictionary
280
     1
281
     1
  3
ADSK_XREC_LAYER_RECONCILED
360
510
  0
DICTIONARY
  5
511
330
8A
100
AcDbDictionary
280
     1
281
     1
  3
ADSK_XREC_LAYER_RECONCILED
360
512
  0
DICTIONARY
  5
513
330
96
100
AcDbDictionary
280
     1
281
     1
  3
ADSK_XREC_LAYER_RECONCILED
360
514
  0
DICTIONARY
  5
515
330
112
100
AcDbDictionary
280
     1
281
     1
  3
ADSK_XREC_LAYER_RECONCILED
360
516
  0
DICTIONARY
  5
517
330
27D
100
AcDbDictionary
280
     1
281
     1
  3
ADSK_XREC_LAYER_RECONCILED
360
518
  0
DICTIONARY
  5
555
330
4BA
100
AcDbDictionary
280
     1
281
     1
  3
ACAD_MTEXT_2008_RT
360
556
  0
DICTIONARY
  5
40B
102
{ACAD_REACTORS
330
C
102
}
330
C
100
AcDbDictionary
281
     1
  0
DICTIONARY
  5
D
102
{ACAD_REACTORS
330
C
102
}
330
C
100
AcDbDictionary
281
     1
  3
_GF_XXXX
350
13C
  3
_MD_XXXX
350
88
  3
_VV_XXXX
350
209
  3
_ZU_XXXX
350
25C
  3
DINA4H
350
20
  3
V11$00009
350
62
  3
V11$00010
350
64
  3
V11$00012
350
6D
  3
V11$00016
350
89
  3
V11$00017
350
8F
  3
V11$00018
350
94
  3
V11$00019
350
95
  3
V11$00022
350
A1
  3
V11$00023
350
A4
  3
V11$00030
350
13D
  3
V11$00031
350
14D
  3
V11$00032
350
14E
  3
V11$00049
350
18F
  3
V11$00058
350
1B8
  3
V11$00067
350
1E1
  3
V11$00076
350
20A
  3
V11$00077
350
21A
  3
V11$00078
350
21B
  0
DICTIONARY
  5
422
102
{ACAD_REACTORS
330
C
102
}
330
C
100
AcDbDictionary
281
     1
  3
Layout1
350
425
  3
Model
350
424
  0
DICTIONARY
  5
3DE
102
{ACAD_REACTORS
330
C
102
}
330
C
100
AcDbDictionary
281
     1
  3
ByBlock
350
3E7
  3
ByLayer
350
3DF
  3
Global
350
3EF
  0
DICTIONARY
  5
420
102
{ACAD_REACTORS
330
C
102
}
330
C
100
AcDbDictionary
281
     1
  3
Standard
350
421
  0
DICTIONARY
  5
1B
102
{ACAD_REACTORS
330
C
102
}
330
C
100
AcDbDictionary
281
     1
  3
STANDARD
350
1C
  0
DICTIONARY
  5
423
102
{ACAD_REACTORS
330
C
102
}
330
C
100
AcDbDictionary
281
     1
  0
ACDBDICTIONARYWDFLT
  5
3DC
102
{ACAD_REACTORS
330
C
102
}
330
C
100
AcDbDictionary
281
     1
  3
Normal
350
3DD
100
AcDbDictionaryWithDefault
340
3DD
  0
DICTIONARY
  5
40E
102
{ACAD_REACTORS
330
C
102
}
330
C
100
AcDbDictionary
281
     1
  3
A0
350
40F
  3
A1
350
410
  3
A2
350
411
  3
A3
350
412
  3
A4
350
413
  3
A5
350
414
  3
A6
350
415
  3
A7
350
416
  3
A8
350
417
  3
A9
350
418
  3
B0
350
419
  3
B1
350
41A
  3
B2
350
41B
  3
B3
350
41C
  3
B4
350
41D
  3
B5
350
41E
  3
B6
350
41F
  0
DICTIONARY
  5
40C
102
{ACAD_REACTORS
330
C
102
}
330
C
100
AcDbDictionary
281
     1
  3
Standard
350
40D
  0
DICTIONARY
  5
3F7
102
{ACAD_REACTORS
330
C
102
}
330
C
100
AcDbDictionary
281
     1
  3
2dWireframe
350
3FD
  3
3D Hidden
350
3FF
  3
3dWireframe
350
3FE
  3
Basic
350
3FC
  3
Brighten
350
403
  3
ColorChange
350
407
  3
Conceptual
350
400
  3
Dim
350
402
  3
EdgeColorOff
350
40A
  3
Facepattern
350
406
  3
Flat
350
3F8
  3
FlatWithEdges
350
3F9
  3
Gouraud
350
3FA
  3
GouraudWithEdges
350
3FB
  3
JitterOff
350
408
  3
Linepattern
350
405
  3
OverhangOff
350
409
  3
Realistic
350
401
  3
Thicken
350
404
  0
XRECORD
  5
557
102
{ACAD_REACTORS
330
C
102
}
330
C
100
AcDbXrecord
280
     1
 90
        1
330
40D
330
4BA
  0
DICTIONARY
  5
537
102
{ACAD_REACTORS
330
C
102
}
330
C
100
AcDbDictionary
281
     1
  3
CANNOSCALE
350
53B
  3
CMLEADERSTYLE
350
539
  3
CTABLESTYLE
350
538
  3
DIMASSOC
350
551
  3
INDEXCTL
350
550
  3
LAYEREVAL
350
53D
  3
LAYERNOTIFY
350
53E
  3
LIGHTINGUNITS
350
53C
  3
MSLTSCALE
350
53A
  3
SORTENTS
350
54F
  3
XCLIPFRAME
350
552
  0
XRECORD
  5
558
102
{ACAD_REACTORS
330
C
102
}
330
C
100
AcDbXrecord
280
     1
  1
DWGPROPS COOKIE
  2

  3

  4

  6

  7

  8
kleemann
  9

300
=
301
=
302
=
303
=
304
=
305
=
306
=
307
=
308
=
309
=
 40
0.0133299074074074
 41
2451107.66701118
 42
2457045.599896655
  1

 90
        0
  0
DICTIONARY
  5
26F
102
{ACAD_REACTORS
330
C
102
}
330
C
100
AcDbDictionary
281
     1
  0
DICTIONARY
  5
265
102
{ACAD_REACTORS
330
C
102
}
330
C
100
AcDbDictionary
281
     1
  3
$PH$AAAF3H
350
4A1
  3
$PH$AAAI
350
502
  3
PH_GRPMEMBERS
350
509
  0
PH_VARS
  5
264
102
{ACAD_REACTORS
330
C
102
}
330
C
  0
DICTIONARY
  5
42A
102
{ACAD_REACTORS
330
429
102
}
330
429
100
AcDbDictionary
281
     1
  0
XRECORD
  5
50E
102
{ACAD_REACTORS
330
50D
102
}
330
50D
100
AcDbXrecord
280
     1
290
     1
  0
XRECORD
  5
510
102
{ACAD_REACTORS
330
50F
102
}
330
50F
100
AcDbXrecord
280
     1
290
     1
  0
XRECORD
  5
512
102
{ACAD_REACTORS
330
511
102
}
330
511
100
AcDbXrecord
280
     1
290
     1
  0
XRECORD
  5
514
102
{ACAD_REACTORS
330
513
102
}
330
513
100
AcDbXrecord
280
     1
290
     1
  0
XRECORD
  5
516
102
{ACAD_REACTORS
330
515
102
}
330
515
100
AcDbXrecord
280
     1
290
     1
  0
XRECORD
  5
518
102
{ACAD_REACTORS
330
517
102
}
330
517
100
AcDbXrecord
280
     1
290
     1
  0
XRECORD
  5
556
102
{ACAD_REACTORS
330
555
102
}
330
555
100
AcDbXrecord
280
     1
 40
46997.0
  1
\pxql;{\fArial|b1|i0|c0|p34;\W1.1;BOPLA}
  0
GROUP
  5
13C
102
{ACAD_REACTORS
330
D
102
}
330
D
100
AcDbGroup
300
V11:29:_GF_XXXX
 70
     0
 71
     1
  0
GROUP
  5
88
102
{ACAD_REACTORS
330
D
102
}
330
D
100
AcDbGroup
300
V11:15:_MD_XXXX
 70
     0
 71
     1
  0
GROUP
  5
209
102
{ACAD_REACTORS
330
D
102
}
330
D
100
AcDbGroup
300
V11:75:_VV_XXXX
 70
     0
 71
     1
  0
GROUP
  5
25C
102
{ACAD_REACTORS
330
D
102
}
330
D
100
AcDbGroup
300
V11:94:_ZU_XXXX
 70
     0
 71
     1
340
258
340
259
340
25A
  0
GROUP
  5
20
102
{ACAD_REACTORS
330
D
102
}
330
D
100
AcDbGroup
300
V11:1:DINA4H
 70
     0
 71
     1
  0
GROUP
  5
62
102
{ACAD_REACTORS
330
D
102
}
330
D
100
AcDbGroup
300
V11:9:********
 70
     0
 71
     1
  0
GROUP
  5
64
102
{ACAD_REACTORS
330
D
102
}
330
D
100
AcDbGroup
300
V11:10:********
 70
     0
 71
     1
  0
GROUP
  5
6D
102
{ACAD_REACTORS
330
D
102
}
330
D
100
AcDbGroup
300
V11:12:********
 70
     0
 71
     1
  0
GROUP
  5
89
102
{ACAD_REACTORS
330
D
102
}
330
D
100
AcDbGroup
300
V11:16:********
 70
     0
 71
     1
  0
GROUP
  5
8F
102
{ACAD_REACTORS
330
D
102
}
330
D
100
AcDbGroup
300
V11:17:********
 70
     0
 71
     1
  0
GROUP
  5
94
102
{ACAD_REACTORS
330
D
102
}
330
D
100
AcDbGroup
300
V11:18:********
 70
     0
 71
     1
  0
GROUP
  5
95
102
{ACAD_REACTORS
330
D
102
}
330
D
100
AcDbGroup
300
V11:19:********
 70
     0
 71
     1
  0
GROUP
  5
A1
102
{ACAD_REACTORS
330
D
102
}
330
D
100
AcDbGroup
300
V11:22:********
 70
     0
 71
     1
  0
GROUP
  5
A4
102
{ACAD_REACTORS
330
D
102
}
330
D
100
AcDbGroup
300
V11:23:********
 70
     0
 71
     1
  0
GROUP
  5
13D
102
{ACAD_REACTORS
330
D
102
}
330
D
100
AcDbGroup
300
V11:30:********
 70
     0
 71
     1
  0
GROUP
  5
14D
102
{ACAD_REACTORS
330
D
102
}
330
D
100
AcDbGroup
300
V11:31:********
 70
     0
 71
     1
  0
GROUP
  5
14E
102
{ACAD_REACTORS
330
D
102
}
330
D
100
AcDbGroup
300
V11:32:********
 70
     0
 71
     1
  0
GROUP
  5
18F
102
{ACAD_REACTORS
330
D
102
}
330
D
100
AcDbGroup
300
V11:49:********
 70
     0
 71
     1
  0
GROUP
  5
1B8
102
{ACAD_REACTORS
330
D
102
}
330
D
100
AcDbGroup
300
V11:58:********
 70
     0
 71
     1
  0
GROUP
  5
1E1
102
{ACAD_REACTORS
330
D
102
}
330
D
100
AcDbGroup
300
V11:67:********
 70
     0
 71
     1
  0
GROUP
  5
20A
102
{ACAD_REACTORS
330
D
102
}
330
D
100
AcDbGroup
300
V11:76:********
 70
     0
 71
     1
  0
GROUP
  5
21A
102
{ACAD_REACTORS
330
D
102
}
330
D
100
AcDbGroup
300
V11:77:********
 70
     0
 71
     1
  0
GROUP
  5
21B
102
{ACAD_REACTORS
330
D
102
}
330
D
100
AcDbGroup
300
V11:78:********
 70
     0
 71
     1
  0
LAYOUT
  5
425
102
{ACAD_XDICTIONARY
360
585
102
}
102
{ACAD_REACTORS
330
422
102
}
330
422
100
AcDbPlotSettings
  1

  2
\\boplaprint3\dev_konstuktion
  4

  6

 40
0.0
 41
0.0
 42
0.0
 43
0.0
 44
0.0
 45
0.0
 46
0.0
 47
0.0
 48
0.0
 49
0.0
140
0.0
141
0.0
142
1.0
143
1.0
 70
   688
 72
     0
 73
     0
 74
     5
  7

 75
    16
147
1.0
148
0.0
149
0.0
100
AcDbLayout
  1
Layout1
 70
     1
 71
     1
 10
0.0
 20
0.0
 11
420.0
 21
297.0
 12
0.0
 22
0.0
 32
0.0
 14
1.000000000000000E+20
 24
1.000000000000000E+20
 34
1.000000000000000E+20
 15
-1.000000000000000E+20
 25
-1.000000000000000E+20
 35
-1.000000000000000E+20
146
0.0
 13
0.0
 23
0.0
 33
0.0
 16
1.0
 26
0.0
 36
0.0
 17
0.0
 27
1.0
 37
0.0
 76
     0
330
15
  0
LAYOUT
  5
424
102
{ACAD_XDICTIONARY
360
520
102
}
102
{ACAD_REACTORS
330
422
102
}
330
422
100
AcDbPlotSettings
  1

  2
\\boplaprint3\dev_konstuktion
  4
A4
  6

 40
5.027082920074462
 41
5.027099609375
 42
5.027069091796875
 43
5.027069091796875
 44
209.8886566162109
 45
297.0530090332031
 46
0.0
 47
0.0
 48
0.0
 49
0.0
140
0.0
141
0.0
142
1.0
143
1.973424093636875
 70
 11952
 72
     1
 73
     1
 74
     0
  7

 75
     0
147
0.506733450363968
148
74.17855936977289
149
1.058970890005326
100
AcDbLayout
  1
Model
 70
     1
 71
     0
 10
0.0
 20
0.0
 11
12.0
 21
9.0
 12
0.0
 22
0.0
 32
0.0
 14
0.0
 24
0.0
 34
0.0
 15
0.0
 25
0.0
 35
0.0
146
0.0
 13
0.0
 23
0.0
 33
0.0
 16
1.0
 26
0.0
 36
0.0
 17
0.0
 27
1.0
 37
0.0
 76
     0
330
18
331
3DA
1001
ACAD_PSEXT
1000
\\boplaprint3\dev_konstuktion
1000
Generic 35C-4 Series PS
1000
Flur Konstruktion
1000
F-Ineo
1070
     0
  0
MATERIAL
  5
3E7
102
{ACAD_XDICTIONARY
360
3E8
102
}
102
{ACAD_REACTORS
330
3DE
102
}
330
3DE
100
AcDbMaterial
  1
ByBlock
 72
     0
 43
0.0208333333333333
 43
0.0
 43
0.0
 43
0.0
 43
0.0
 43
0.0208333333333333
 43
0.0
 43
0.0
 43
0.0
 43
0.0
 43
1.0
 43
0.0
 43
0.0
 43
0.0
 43
0.0
 43
1.0
 77
     0
 47
0.0208333333333333
 47
0.0
 47
0.0
 47
0.0
 47
0.0
 47
0.0208333333333333
 47
0.0
 47
0.0
 47
0.0
 47
0.0
 47
1.0
 47
0.0
 47
0.0
 47
0.0
 47
0.0
 47
1.0
171
     0
 49
0.0208333333333333
 49
0.0
 49
0.0
 49
0.0
 49
0.0
 49
0.0208333333333333
 49
0.0
 49
0.0
 49
0.0
 49
0.0
 49
1.0
 49
0.0
 49
0.0
 49
0.0
 49
0.0
 49
1.0
175
     0
142
0.0208333333333333
142
0.0
142
0.0
142
0.0
142
0.0
142
0.0208333333333333
142
0.0
142
0.0
142
0.0
142
0.0
142
1.0
142
0.0
142
0.0
142
0.0
142
0.0
142
1.0
179
     0
144
0.0208333333333333
144
0.0
144
0.0
144
0.0
144
0.0
144
0.0208333333333333
144
0.0
144
0.0
144
0.0
144
0.0
144
1.0
144
0.0
144
0.0
144
0.0
144
0.0
144
1.0
147
0.0208333333333333
147
0.0
147
0.0
147
0.0
147
0.0
147
0.0208333333333333
147
0.0
147
0.0
147
0.0
147
0.0
147
1.0
147
0.0
147
0.0
147
0.0
147
0.0
147
1.0
  0
MATERIAL
  5
3DF
102
{ACAD_XDICTIONARY
360
3E0
102
}
102
{ACAD_REACTORS
330
3DE
102
}
330
3DE
100
AcDbMaterial
  1
ByLayer
 72
     0
 43
0.0208333333333333
 43
0.0
 43
0.0
 43
0.0
 43
0.0
 43
0.0208333333333333
 43
0.0
 43
0.0
 43
0.0
 43
0.0
 43
1.0
 43
0.0
 43
0.0
 43
0.0
 43
0.0
 43
1.0
 77
     0
 47
0.0208333333333333
 47
0.0
 47
0.0
 47
0.0
 47
0.0
 47
0.0208333333333333
 47
0.0
 47
0.0
 47
0.0
 47
0.0
 47
1.0
 47
0.0
 47
0.0
 47
0.0
 47
0.0
 47
1.0
171
     0
 49
0.0208333333333333
 49
0.0
 49
0.0
 49
0.0
 49
0.0
 49
0.0208333333333333
 49
0.0
 49
0.0
 49
0.0
 49
0.0
 49
1.0
 49
0.0
 49
0.0
 49
0.0
 49
0.0
 49
1.0
175
     0
142
0.0208333333333333
142
0.0
142
0.0
142
0.0
142
0.0
142
0.0208333333333333
142
0.0
142
0.0
142
0.0
142
0.0
142
1.0
142
0.0
142
0.0
142
0.0
142
0.0
142
1.0
179
     0
144
0.0208333333333333
144
0.0
144
0.0
144
0.0
144
0.0
144
0.0208333333333333
144
0.0
144
0.0
144
0.0
144
0.0
144
1.0
144
0.0
144
0.0
144
0.0
144
0.0
144
1.0
147
0.0208333333333333
147
0.0
147
0.0
147
0.0
147
0.0
147
0.0208333333333333
147
0.0
147
0.0
147
0.0
147
0.0
147
1.0
147
0.0
147
0.0
147
0.0
147
0.0
147
1.0
  0
MATERIAL
  5
3EF
102
{ACAD_XDICTIONARY
360
3F0
102
}
102
{ACAD_REACTORS
330
3DE
102
}
330
3DE
100
AcDbMaterial
  1
Global
 72
     0
 43
0.0208333333333333
 43
0.0
 43
0.0
 43
0.0
 43
0.0
 43
0.0208333333333333
 43
0.0
 43
0.0
 43
0.0
 43
0.0
 43
1.0
 43
0.0
 43
0.0
 43
0.0
 43
0.0
 43
1.0
 77
     0
 47
0.0208333333333333
 47
0.0
 47
0.0
 47
0.0
 47
0.0
 47
0.0208333333333333
 47
0.0
 47
0.0
 47
0.0
 47
0.0
 47
1.0
 47
0.0
 47
0.0
 47
0.0
 47
0.0
 47
1.0
171
     0
 49
0.0208333333333333
 49
0.0
 49
0.0
 49
0.0
 49
0.0
 49
0.0208333333333333
 49
0.0
 49
0.0
 49
0.0
 49
0.0
 49
1.0
 49
0.0
 49
0.0
 49
0.0
 49
0.0
 49
1.0
175
     0
142
0.0208333333333333
142
0.0
142
0.0
142
0.0
142
0.0
142
0.0208333333333333
142
0.0
142
0.0
142
0.0
142
0.0
142
1.0
142
0.0
142
0.0
142
0.0
142
0.0
142
1.0
179
     0
144
0.0208333333333333
144
0.0
144
0.0
144
0.0
144
0.0
144
0.0208333333333333
144
0.0
144
0.0
144
0.0
144
0.0
144
1.0
144
0.0
144
0.0
144
0.0
144
0.0
144
1.0
147
0.0208333333333333
147
0.0
147
0.0
147
0.0
147
0.0
147
0.0208333333333333
147
0.0
147
0.0
147
0.0
147
0.0
147
1.0
147
0.0
147
0.0
147
0.0
147
0.0
147
1.0
  0
MLEADERSTYLE
  5
421
102
{ACAD_REACTORS
330
420
102
}
330
420
100
AcDbMLeaderStyle
170
     2
171
     1
172
     0
 90
        2
 40
0.0
 41
0.0
173
     1
 91
-1056964608
340
12
 92
       -2
290
     1
 42
2.0
291
     1
 43
0.36
  3
Standard
 44
4.0
300

342
F
174
     1
178
     6
175
     1
176
     0
 93
-1056964608
 45
4.0
292
     0
297
     0
 46
4.0
 94
-1056964608
 47
1.0
 49
1.0
140
1.0
293
     1
141
0.0
294
     1
177
     0
142
1.0
295
     0
296
     0
143
0.125
1001
ACAD_MLEADERVER
1070
     2
  0
MLINESTYLE
  5
1C
102
{ACAD_REACTORS
330
1B
102
}
330
1B
100
AcDbMlineStyle
  2
STANDARD
 70
     0
  3

 62
   256
 51
90.0
 52
90.0
 71
     2
 49
0.5
 62
   256
  6
BYLAYER
 49
-0.5
 62
   256
  6
BYLAYER
  0
ACDBPLACEHOLDER
  5
3DD
102
{ACAD_REACTORS
330
3DC
102
}
330
3DC
  0
SCALE
  5
40F
102
{ACAD_REACTORS
330
40E
102
}
330
40E
100
AcDbScale
 70
     0
300
1:1
140
1.0
141
1.0
290
     1
  0
SCALE
  5
410
102
{ACAD_REACTORS
330
40E
102
}
330
40E
100
AcDbScale
 70
     0
300
1:2
140
1.0
141
2.0
290
     0
  0
SCALE
  5
411
102
{ACAD_REACTORS
330
40E
102
}
330
40E
100
AcDbScale
 70
     0
300
1:4
140
1.0
141
4.0
290
     0
  0
SCALE
  5
412
102
{ACAD_REACTORS
330
40E
102
}
330
40E
100
AcDbScale
 70
     0
300
1:5
140
1.0
141
5.0
290
     0
  0
SCALE
  5
413
102
{ACAD_REACTORS
330
40E
102
}
330
40E
100
AcDbScale
 70
     0
300
1:8
140
1.0
141
8.0
290
     0
  0
SCALE
  5
414
102
{ACAD_REACTORS
330
40E
102
}
330
40E
100
AcDbScale
 70
     0
300
1:10
140
1.0
141
10.0
290
     0
  0
SCALE
  5
415
102
{ACAD_REACTORS
330
40E
102
}
330
40E
100
AcDbScale
 70
     0
300
1:16
140
1.0
141
16.0
290
     0
  0
SCALE
  5
416
102
{ACAD_REACTORS
330
40E
102
}
330
40E
100
AcDbScale
 70
     0
300
1:20
140
1.0
141
20.0
290
     0
  0
SCALE
  5
417
102
{ACAD_REACTORS
330
40E
102
}
330
40E
100
AcDbScale
 70
     0
300
1:30
140
1.0
141
30.0
290
     0
  0
SCALE
  5
418
102
{ACAD_REACTORS
330
40E
102
}
330
40E
100
AcDbScale
 70
     0
300
1:40
140
1.0
141
40.0
290
     0
  0
SCALE
  5
419
102
{ACAD_REACTORS
330
40E
102
}
330
40E
100
AcDbScale
 70
     0
300
1:50
140
1.0
141
50.0
290
     0
  0
SCALE
  5
41A
102
{ACAD_REACTORS
330
40E
102
}
330
40E
100
AcDbScale
 70
     0
300
1:100
140
1.0
141
100.0
290
     0
  0
SCALE
  5
41B
102
{ACAD_REACTORS
330
40E
102
}
330
40E
100
AcDbScale
 70
     0
300
2:1
140
2.0
141
1.0
290
     0
  0
SCALE
  5
41C
102
{ACAD_REACTORS
330
40E
102
}
330
40E
100
AcDbScale
 70
     0
300
4:1
140
4.0
141
1.0
290
     0
  0
SCALE
  5
41D
102
{ACAD_REACTORS
330
40E
102
}
330
40E
100
AcDbScale
 70
     0
300
8:1
140
8.0
141
1.0
290
     0
  0
SCALE
  5
41E
102
{ACAD_REACTORS
330
40E
102
}
330
40E
100
AcDbScale
 70
     0
300
10:1
140
10.0
141
1.0
290
     0
  0
SCALE
  5
41F
102
{ACAD_REACTORS
330
40E
102
}
330
40E
100
AcDbScale
 70
     0
300
100:1
140
100.0
141
1.0
290
     0
  0
TABLESTYLE
  5
40D
102
{ACAD_XDICTIONARY
360
553
102
}
102
{ACAD_REACTORS
330
40C
102
}
330
40C
100
AcDbTableStyle
  3
Standard
 70
     0
 71
     0
 40
1.5
 41
1.5
280
     0
281
     0
  7
STANDARD
140
4.5
170
     2
 62
     0
 63
     7
283
     0
274
    -2
284
     1
 64
     0
275
    -2
285
     1
 65
     0
276
    -2
286
     1
 66
     0
277
    -2
287
     1
 67
     0
278
    -2
288
     1
 68
     0
279
    -2
289
     1
 69
     0
  7
STANDARD
140
6.0
170
     5
 62
     0
 63
     7
283
     0
274
    -2
284
     1
 64
     0
275
    -2
285
     1
 65
     0
276
    -2
286
     1
 66
     0
277
    -2
287
     1
 67
     0
278
    -2
288
     1
 68
     0
279
    -2
289
     1
 69
     0
  7
STANDARD
140
4.5
170
     5
 62
     0
 63
     7
283
     0
274
    -2
284
     1
 64
     0
275
    -2
285
     1
 65
     0
276
    -2
286
     1
 66
     0
277
    -2
287
     1
 67
     0
278
    -2
288
     1
 68
     0
279
    -2
289
     1
 69
     0
  0
VISUALSTYLE
  5
3FD
102
{ACAD_XDICTIONARY
360
566
102
}
102
{ACAD_REACTORS
330
3F7
102
}
330
3F7
100
AcDbVisualStyle
  2
2dWireframe
 70
     4
 71
     0
 72
     2
 73
     0
 90
        0
 40
-0.6
 41
-30.0
 62
     5
 63
     7
 74
     1
 91
        4
 64
     7
 65
   257
 75
     1
175
     1
 42
1.0
 92
        0
 66
   257
 43
1.0
 76
     1
 77
     6
 78
     2
 67
     7
 79
     5
170
     0
171
     0
290
     0
174
     0
 93
        1
 44
0.0
173
     0
291
     0
 45
0.0
1001
ACAD
1000
AcDbSavedByObjectVersion
1070
     0
  0
VISUALSTYLE
  5
3FF
102
{ACAD_XDICTIONARY
360
56A
102
}
102
{ACAD_REACTORS
330
3F7
102
}
330
3F7
100
AcDbVisualStyle
  2
3D Hidden
 70
     6
 71
     1
 72
     2
 73
     2
 90
        0
 40
-0.6
 41
-30.0
 62
     5
 63
     7
 74
     2
 91
        2
 64
     7
 65
   257
 75
     2
175
     1
 42
179.0
 92
        0
 66
   257
 43
1.0
 76
     1
 77
     6
 78
     2
 67
     7
 79
     3
170
     0
171
     0
290
     0
174
     0
 93
        1
 44
0.0
173
     0
291
     0
 45
0.0
1001
ACAD
1000
AcDbSavedByObjectVersion
1070
     0
  0
VISUALSTYLE
  5
3FE
102
{ACAD_XDICTIONARY
360
568
102
}
102
{ACAD_REACTORS
330
3F7
102
}
330
3F7
100
AcDbVisualStyle
  2
3dWireframe
 70
     5
 71
     0
 72
     2
 73
     0
 90
        0
 40
-0.6
 41
-30.0
 62
     5
 63
     7
 74
     1
 91
        4
 64
     7
 65
   257
 75
     1
175
     1
 42
1.0
 92
        0
 66
   257
 43
1.0
 76
     1
 77
     6
 78
     2
 67
     7
 79
     5
170
     0
171
     0
290
     0
174
     0
 93
        1
 44
0.0
173
     0
291
     0
 45
0.0
1001
ACAD
1000
AcDbSavedByObjectVersion
1070
     0
  0
VISUALSTYLE
  5
3FC
102
{ACAD_XDICTIONARY
360
564
102
}
102
{ACAD_REACTORS
330
3F7
102
}
330
3F7
100
AcDbVisualStyle
  2
Basic
 70
     7
 71
     1
 72
     0
 73
     1
 90
        0
 40
-0.6
 41
-30.0
 62
     5
 63
     7
 74
     0
 91
        4
 64
     7
 65
   257
 75
     1
175
     1
 42
1.0
 92
        8
 66
     7
 43
1.0
 76
     1
 77
     6
 78
     2
 67
     7
 79
     5
170
     0
171
     0
290
     0
174
     0
 93
        1
 44
0.0
173
     0
291
     1
 45
0.0
1001
ACAD
1000
AcDbSavedByObjectVersion
1070
     0
  0
VISUALSTYLE
  5
403
102
{ACAD_XDICTIONARY
360
572
102
}
102
{ACAD_REACTORS
330
3F7
102
}
330
3F7
100
AcDbVisualStyle
  2
Brighten
 70
    12
 71
     2
 72
     2
 73
     0
 90
        0
 40
-0.6
 41
-30.0
 62
     5
 63
     7
 74
     1
 91
        4
 64
     7
 65
   257
 75
     1
175
     1
 42
1.0
 92
        8
 66
     7
 43
1.0
 76
     1
 77
     6
 78
     2
 67
     7
 79
     5
170
     0
171
     0
290
     0
174
     0
 93
        1
 44
50.0
173
     0
291
     1
 45
0.0
1001
ACAD
1000
AcDbSavedByObjectVersion
1070
     0
  0
VISUALSTYLE
  5
407
102
{ACAD_XDICTIONARY
360
57A
102
}
102
{ACAD_REACTORS
330
3F7
102
}
330
3F7
100
AcDbVisualStyle
  2
ColorChange
 70
    16
 71
     2
 72
     2
 73
     3
 90
        0
 40
-0.6
 41
-30.0
 62
     5
 63
     8
 74
     1
 91
        4
 64
     7
 65
   257
 75
     1
175
     1
 42
1.0
 92
        8
 66
     8
 43
1.0
 76
     1
 77
     6
 78
     2
 67
     7
 79
     5
170
     0
171
     0
290
     0
174
     0
 93
        1
 44
0.0
173
     0
291
     1
 45
0.0
1001
ACAD
1000
AcDbSavedByObjectVersion
1070
     0
  0
VISUALSTYLE
  5
400
102
{ACAD_XDICTIONARY
360
56C
102
}
102
{ACAD_REACTORS
330
3F7
102
}
330
3F7
100
AcDbVisualStyle
  2
Conceptual
 70
     9
 71
     3
 72
     2
 73
     0
 90
        0
 40
-0.6
 41
-30.0
 62
     5
 63
     7
 74
     2
 91
        2
 64
     7
 65
   257
 75
     1
175
     1
 42
179.0
 92
        8
 66
     7
 43
1.0
 76
     1
 77
     6
 78
     2
 67
     7
 79
     3
170
     0
171
     0
290
     0
174
     0
 93
        1
 44
0.0
173
     0
291
     0
 45
0.0
1001
ACAD
1000
AcDbSavedByObjectVersion
1070
     0
  0
VISUALSTYLE
  5
402
102
{ACAD_XDICTIONARY
360
570
102
}
102
{ACAD_REACTORS
330
3F7
102
}
330
3F7
100
AcDbVisualStyle
  2
Dim
 70
    11
 71
     2
 72
     2
 73
     0
 90
        0
 40
-0.6
 41
-30.0
 62
     5
 63
     7
 74
     1
 91
        4
 64
     7
 65
   257
 75
     1
175
     1
 42
1.0
 92
        8
 66
     7
 43
1.0
 76
     1
 77
     6
 78
     2
 67
     7
 79
     5
170
     0
171
     0
290
     0
174
     0
 93
        1
 44
-50.0
173
     0
291
     1
 45
0.0
1001
ACAD
1000
AcDbSavedByObjectVersion
1070
     0
  0
VISUALSTYLE
  5
40A
102
{ACAD_XDICTIONARY
360
580
102
}
102
{ACAD_REACTORS
330
3F7
102
}
330
3F7
100
AcDbVisualStyle
  2
EdgeColorOff
 70
    22
 71
     2
 72
     2
 73
     0
 90
        0
 40
-0.6
 41
-30.0
 62
     5
 63
     7
 74
     1
 91
        4
 64
     7
 65
   257
 75
     1
175
     1
 42
1.0
 92
        8
 66
     7
 43
1.0
 76
     1
 77
     6
 78
     2
 67
     7
 79
     5
170
     0
171
     0
290
     0
174
     0
 93
        1
 44
0.0
173
     0
291
     1
 45
0.0
1001
ACAD
1000
AcDbSavedByObjectVersion
1070
     0
  0
VISUALSTYLE
  5
406
102
{ACAD_XDICTIONARY
360
578
102
}
102
{ACAD_REACTORS
330
3F7
102
}
330
3F7
100
AcDbVisualStyle
  2
Facepattern
 70
    15
 71
     2
 72
     2
 73
     0
 90
        0
 40
-0.6
 41
-30.0
 62
     5
 63
     7
 74
     1
 91
        4
 64
     7
 65
   257
 75
     1
175
     1
 42
1.0
 92
        8
 66
     7
 43
1.0
 76
     1
 77
     6
 78
     2
 67
     7
 79
     5
170
     0
171
     0
290
     0
174
     0
 93
        1
 44
0.0
173
     0
291
     1
 45
0.0
1001
ACAD
1000
AcDbSavedByObjectVersion
1070
     0
  0
VISUALSTYLE
  5
3F8
102
{ACAD_XDICTIONARY
360
55C
102
}
102
{ACAD_REACTORS
330
3F7
102
}
330
3F7
100
AcDbVisualStyle
  2
Flat
 70
     0
 71
     2
 72
     1
 73
     1
 90
        2
 40
-0.6
 41
30.0
 62
     5
 63
     7
 74
     0
 91
        4
 64
     7
 65
   257
 75
     1
175
     1
 42
1.0
 92
        8
 66
     7
 43
1.0
 76
     1
 77
     6
 78
     2
 67
     7
 79
     5
170
     0
171
     0
290
     0
174
     0
 93
       13
 44
0.0
173
     0
291
     1
 45
0.0
1001
ACAD
1000
AcDbSavedByObjectVersion
1070
     0
  0
VISUALSTYLE
  5
3F9
102
{ACAD_XDICTIONARY
360
55E
102
}
102
{ACAD_REACTORS
330
3F7
102
}
330
3F7
100
AcDbVisualStyle
  2
FlatWithEdges
 70
     1
 71
     2
 72
     1
 73
     1
 90
        2
 40
-0.6
 41
30.0
 62
     5
 63
     7
 74
     1
 91
        4
 64
     7
 65
   257
 75
     1
175
     1
 42
1.0
 92
        0
 66
   257
 43
1.0
 76
     1
 77
     6
 78
     2
 67
     7
 79
     5
170
     0
171
     0
290
     0
174
     0
 93
       13
 44
0.0
173
     0
291
     1
 45
0.0
1001
ACAD
1000
AcDbSavedByObjectVersion
1070
     0
  0
VISUALSTYLE
  5
3FA
102
{ACAD_XDICTIONARY
360
560
102
}
102
{ACAD_REACTORS
330
3F7
102
}
330
3F7
100
AcDbVisualStyle
  2
Gouraud
 70
     2
 71
     2
 72
     2
 73
     1
 90
        2
 40
-0.6
 41
30.0
 62
     5
 63
     7
 74
     0
 91
        4
 64
     7
 65
   257
 75
     1
175
     1
 42
1.0
 92
        0
 66
     7
 43
1.0
 76
     1
 77
     6
 78
     2
 67
     7
 79
     5
170
     0
171
     0
290
     0
174
     0
 93
       13
 44
0.0
173
     0
291
     1
 45
0.0
1001
ACAD
1000
AcDbSavedByObjectVersion
1070
     0
  0
VISUALSTYLE
  5
3FB
102
{ACAD_XDICTIONARY
360
562
102
}
102
{ACAD_REACTORS
330
3F7
102
}
330
3F7
100
AcDbVisualStyle
  2
GouraudWithEdges
 70
     3
 71
     2
 72
     2
 73
     1
 90
        2
 40
-0.6
 41
30.0
 62
     5
 63
     7
 74
     1
 91
        4
 64
     7
 65
   257
 75
     1
175
     1
 42
1.0
 92
        0
 66
   257
 43
1.0
 76
     1
 77
     6
 78
     2
 67
     7
 79
     5
170
     0
171
     0
290
     0
174
     0
 93
       13
 44
0.0
173
     0
291
     1
 45
0.0
1001
ACAD
1000
AcDbSavedByObjectVersion
1070
     0
  0
VISUALSTYLE
  5
408
102
{ACAD_XDICTIONARY
360
57C
102
}
102
{ACAD_REACTORS
330
3F7
102
}
330
3F7
100
AcDbVisualStyle
  2
JitterOff
 70
    20
 71
     2
 72
     2
 73
     0
 90
        0
 40
-0.6
 41
-30.0
 62
     5
 63
     7
 74
     1
 91
        4
 64
     7
 65
   257
 75
     1
175
     1
 42
1.0
 92
       10
 66
     7
 43
1.0
 76
     1
 77
     6
 78
     2
 67
     7
 79
     5
170
     0
171
     0
290
     0
174
     0
 93
        1
 44
0.0
173
     0
291
     1
 45
0.0
1001
ACAD
1000
AcDbSavedByObjectVersion
1070
     0
  0
VISUALSTYLE
  5
405
102
{ACAD_XDICTIONARY
360
576
102
}
102
{ACAD_REACTORS
330
3F7
102
}
330
3F7
100
AcDbVisualStyle
  2
Linepattern
 70
    14
 71
     2
 72
     2
 73
     0
 90
        0
 40
-0.6
 41
-30.0
 62
     5
 63
     7
 74
     1
 91
        4
 64
     7
 65
   257
 75
     7
175
     7
 42
1.0
 92
        8
 66
     7
 43
1.0
 76
     1
 77
     6
 78
     2
 67
     7
 79
     5
170
     0
171
     0
290
     0
174
     0
 93
        1
 44
0.0
173
     0
291
     1
 45
0.0
1001
ACAD
1000
AcDbSavedByObjectVersion
1070
     0
  0
VISUALSTYLE
  5
409
102
{ACAD_XDICTIONARY
360
57E
102
}
102
{ACAD_REACTORS
330
3F7
102
}
330
3F7
100
AcDbVisualStyle
  2
OverhangOff
 70
    21
 71
     2
 72
     2
 73
     0
 90
        0
 40
-0.6
 41
-30.0
 62
     5
 63
     7
 74
     1
 91
        4
 64
     7
 65
   257
 75
     1
175
     1
 42
1.0
 92
        9
 66
     7
 43
1.0
 76
     1
 77
     6
 78
     2
 67
     7
 79
     5
170
     0
171
     0
290
     0
174
     0
 93
        1
 44
0.0
173
     0
291
     1
 45
0.0
1001
ACAD
1000
AcDbSavedByObjectVersion
1070
     0
  0
VISUALSTYLE
  5
401
102
{ACAD_XDICTIONARY
360
56E
102
}
102
{ACAD_REACTORS
330
3F7
102
}
330
3F7
100
AcDbVisualStyle
  2
Realistic
 70
     8
 71
     2
 72
     2
 73
     0
 90
        0
 40
-0.6
 41
-30.0
 62
     5
 63
     7
 74
     1
 91
        0
 64
     7
 65
   257
 75
     1
175
     1
 42
1.0
 92
        8
 66
     8
 43
1.0
 76
     1
 77
     6
 78
     2
 67
     7
 79
     5
170
     0
171
     0
290
     0
174
     0
 93
       13
 44
0.0
173
     0
291
     0
 45
0.0
1001
ACAD
1000
AcDbSavedByObjectVersion
1070
     0
  0
VISUALSTYLE
  5
404
102
{ACAD_XDICTIONARY
360
574
102
}
102
{ACAD_REACTORS
330
3F7
102
}
330
3F7
100
AcDbVisualStyle
  2
Thicken
 70
    13
 71
     2
 72
     2
 73
     0
 90
        0
 40
-0.6
 41
-30.0
 62
     5
 63
     7
 74
     1
 91
        4
 64
     7
 65
   257
 75
     1
175
     1
 42
1.0
 92
       12
 66
     7
 43
1.0
 76
     1
 77
     6
 78
     2
 67
     7
 79
     5
170
     0
171
     0
290
     0
174
     0
 93
        1
 44
0.0
173
     0
291
     1
 45
0.0
1001
ACAD
1000
AcDbSavedByObjectVersion
1070
     0
  0
DICTIONARYVAR
  5
53B
102
{ACAD_REACTORS
330
537
102
}
330
537
100
DictionaryVariables
280
     0
  1
1:1
  0
DICTIONARYVAR
  5
539
102
{ACAD_REACTORS
330
537
102
}
330
537
100
DictionaryVariables
280
     0
  1
STANDARD
  0
DICTIONARYVAR
  5
538
102
{ACAD_REACTORS
330
537
102
}
330
537
100
DictionaryVariables
280
     0
  1
STANDARD
  0
DICTIONARYVAR
  5
551
102
{ACAD_REACTORS
330
537
102
}
330
537
100
DictionaryVariables
280
     0
  1
1
  0
DICTIONARYVAR
  5
550
102
{ACAD_REACTORS
330
537
102
}
330
537
100
DictionaryVariables
280
     0
  1
0
  0
DICTIONARYVAR
  5
53D
102
{ACAD_REACTORS
330
537
102
}
330
537
100
DictionaryVariables
280
     0
  1
1
  0
DICTIONARYVAR
  5
53E
102
{ACAD_REACTORS
330
537
102
}
330
537
100
DictionaryVariables
280
     0
  1
15
  0
DICTIONARYVAR
  5
53C
102
{ACAD_REACTORS
330
537
102
}
330
537
100
DictionaryVariables
280
     0
  1
0
  0
DICTIONARYVAR
  5
53A
102
{ACAD_REACTORS
330
537
102
}
330
537
100
DictionaryVariables
280
     0
  1
0
  0
DICTIONARYVAR
  5
54F
102
{ACAD_REACTORS
330
537
102
}
330
537
100
DictionaryVariables
280
     0
  1
127
  0
DICTIONARYVAR
  5
552
102
{ACAD_REACTORS
330
537
102
}
330
537
100
DictionaryVariables
280
     0
  1
2
  0
DICTIONARY
  5
4A1
102
{ACAD_REACTORS
330
265
102
}
330
265
100
AcDbDictionary
280
     1
281
     1
  3
PH_GRPMEMBERS
360
4A2
  0
DICTIONARY
  5
502
102
{ACAD_REACTORS
330
265
102
}
330
265
100
AcDbDictionary
280
     1
281
     1
  3
$PH$AAAA
360
503
  3
PH_GRPMEMBERS
360
507
  0
PH_GROUP
  5
509
102
{ACAD_REACTORS
330
265
102
}
330
265
  0
DICTIONARY
  5
585
330
425
100
AcDbDictionary
280
     1
281
     1
  3
ACAD_XREC_ROUNDTRIP
360
586
  0
DICTIONARY
  5
520
330
424
100
AcDbDictionary
280
     1
281
     1
  3
ACAD_XREC_ROUNDTRIP
360
584
  3
ADSK_XREC_LAYOUTTHUMBNAIL
360
521
  0
DICTIONARY
  5
3E8
330
3E7
100
AcDbDictionary
280
     1
281
     1
  3
ACAD_XREC_ROUNDTRIP
360
55A
  3
BUMPTILE
360
3EA
  3
DIFFUSETILE
360
3E9
  3
OPACITYTILE
360
3ED
  3
REFLECTIONTILE
360
3EC
  3
REFRACTIONTILE
360
3EE
  3
SPECULARTILE
360
3EB
  0
DICTIONARY
  5
3E0
330
3DF
100
AcDbDictionary
280
     1
281
     1
  3
ACAD_XREC_ROUNDTRIP
360
559
  3
BUMPTILE
360
3E2
  3
DIFFUSETILE
360
3E1
  3
OPACITYTILE
360
3E5
  3
REFLECTIONTILE
360
3E4
  3
REFRACTIONTILE
360
3E6
  3
SPECULARTILE
360
3E3
  0
DICTIONARY
  5
3F0
330
3EF
100
AcDbDictionary
280
     1
281
     1
  3
ACAD_XREC_ROUNDTRIP
360
55B
  3
BUMPTILE
360
3F2
  3
DIFFUSETILE
360
3F1
  3
OPACITYTILE
360
3F5
  3
REFLECTIONTILE
360
3F4
  3
REFRACTIONTILE
360
3F6
  3
SPECULARTILE
360
3F3
  0
DICTIONARY
  5
553
330
40D
100
AcDbDictionary
280
     1
281
     1
  3
ACAD_ROUNDTRIP_2008_TABLESTYLE_CELLSTYLEMAP
360
554
  3
ACAD_XREC_ROUNDTRIP
360
582
  0
DICTIONARY
  5
566
330
3FD
100
AcDbDictionary
280
     1
281
     1
  3
ACAD_XREC_ROUNDTRIP
360
567
  0
DICTIONARY
  5
56A
330
3FF
100
AcDbDictionary
280
     1
281
     1
  3
ACAD_XREC_ROUNDTRIP
360
56B
  0
DICTIONARY
  5
568
330
3FE
100
AcDbDictionary
280
     1
281
     1
  3
ACAD_XREC_ROUNDTRIP
360
569
  0
DICTIONARY
  5
564
330
3FC
100
AcDbDictionary
280
     1
281
     1
  3
ACAD_XREC_ROUNDTRIP
360
565
  0
DICTIONARY
  5
572
330
403
100
AcDbDictionary
280
     1
281
     1
  3
ACAD_XREC_ROUNDTRIP
360
573
  0
DICTIONARY
  5
57A
330
407
100
AcDbDictionary
280
     1
281
     1
  3
ACAD_XREC_ROUNDTRIP
360
57B
  0
DICTIONARY
  5
56C
330
400
100
AcDbDictionary
280
     1
281
     1
  3
ACAD_XREC_ROUNDTRIP
360
56D
  0
DICTIONARY
  5
570
330
402
100
AcDbDictionary
280
     1
281
     1
  3
ACAD_XREC_ROUNDTRIP
360
571
  0
DICTIONARY
  5
580
330
40A
100
AcDbDictionary
280
     1
281
     1
  3
ACAD_XREC_ROUNDTRIP
360
581
  0
DICTIONARY
  5
578
330
406
100
AcDbDictionary
280
     1
281
     1
  3
ACAD_XREC_ROUNDTRIP
360
579
  0
DICTIONARY
  5
55C
330
3F8
100
AcDbDictionary
280
     1
281
     1
  3
ACAD_XREC_ROUNDTRIP
360
55D
  0
DICTIONARY
  5
55E
330
3F9
100
AcDbDictionary
280
     1
281
     1
  3
ACAD_XREC_ROUNDTRIP
360
55F
  0
DICTIONARY
  5
560
330
3FA
100
AcDbDictionary
280
     1
281
     1
  3
ACAD_XREC_ROUNDTRIP
360
561
  0
DICTIONARY
  5
562
330
3FB
100
AcDbDictionary
280
     1
281
     1
  3
ACAD_XREC_ROUNDTRIP
360
563
  0
DICTIONARY
  5
57C
330
408
100
AcDbDictionary
280
     1
281
     1
  3
ACAD_XREC_ROUNDTRIP
360
57D
  0
DICTIONARY
  5
576
330
405
100
AcDbDictionary
280
     1
281
     1
  3
ACAD_XREC_ROUNDTRIP
360
577
  0
DICTIONARY
  5
57E
330
409
100
AcDbDictionary
280
     1
281
     1
  3
ACAD_XREC_ROUNDTRIP
360
57F
  0
DICTIONARY
  5
56E
330
401
100
AcDbDictionary
280
     1
281
     1
  3
ACAD_XREC_ROUNDTRIP
360
56F
  0
DICTIONARY
  5
574
330
404
100
AcDbDictionary
280
     1
281
     1
  3
ACAD_XREC_ROUNDTRIP
360
575
  0
PH_GROUP
  5
4A2
102
{ACAD_REACTORS
330
4A1
102
}
330
4A1
  0
DICTIONARY
  5
503
102
{ACAD_REACTORS
330
502
102
}
330
502
100
AcDbDictionary
280
     1
281
     1
  3
$PH$AAAA
360
504
  3
PH_GRPMEMBERS
360
506
  0
PH_GROUP
  5
507
102
{ACAD_REACTORS
330
502
102
}
330
502
  0
XRECORD
  5
586
102
{ACAD_REACTORS
330
585
102
}
330
585
100
AcDbXrecord
280
     1
102
SHADEPLOT
 70
     0
102
SHADEPLOTRESLEVEL
 70
     2
102
SHADEPLOTCUSTOMDPI
 70
   300
  0
XRECORD
  5
584
102
{ACAD_REACTORS
330
520
102
}
330
520
100
AcDbXrecord
280
     1
102
SHADEPLOT
 70
     0
102
SHADEPLOTRESLEVEL
 70
     2
102
SHADEPLOTCUSTOMDPI
 70
   300
  0
XRECORD
  5
521
102
{ACAD_REACTORS
330
520
102
}
330
520
100
AcDbXrecord
280
     1
310
28000000000100008700000001000800000000000087000000000000000000000001000000000000F0FCFE0000000000FFFFFF000000000000000000000000000000000000000000000000000000000000000000330000006600000099000000CC000000FF00000000330000333300006633000099330000CC330000FF3300
310
0000660000336600006666000099660000CC660000FF66000000990000339900006699000099990000CC990000FF99000000CC000033CC000066CC000099CC0000CCCC0000FFCC000000FF000033FF000066FF000099FF0000CCFF0000FFFF000000003300330033006600330099003300CC003300FF003300003333003333
310
33006633330099333300CC333300FF33330000663300336633006666330099663300CC663300FF66330000993300339933006699330099993300CC993300FF99330000CC330033CC330066CC330099CC3300CCCC3300FFCC330000FF330033FF330066FF330099FF3300CCFF3300FFFF330000006600330066006600660099
310
006600CC006600FF00660000336600333366006633660099336600CC336600FF33660000666600336666006666660099666600CC666600FF66660000996600339966006699660099996600CC996600FF99660000CC660033CC660066CC660099CC6600CCCC6600FFCC660000FF660033FF660066FF660099FF6600CCFF6600
310
FFFF660000009900330099006600990099009900CC009900FF00990000339900333399006633990099339900CC339900FF33990000669900336699006666990099669900CC669900FF66990000999900339999006699990099999900CC999900FF99990000CC990033CC990066CC990099CC9900CCCC9900FFCC990000FF99
310
0033FF990066FF990099FF9900CCFF9900FFFF99000000CC003300CC006600CC009900CC00CC00CC00FF00CC000033CC003333CC006633CC009933CC00CC33CC00FF33CC000066CC003366CC006666CC009966CC00CC66CC00FF66CC000099CC003399CC006699CC009999CC00CC99CC00FF99CC0000CCCC0033CCCC0066CC
310
CC0099CCCC00CCCCCC00FFCCCC0000FFCC0033FFCC0066FFCC0099FFCC00CCFFCC00FFFFCC000000FF003300FF006600FF009900FF00CC00FF00FF00FF000033FF003333FF006633FF009933FF00CC33FF00FF33FF000066FF003366FF006666FF009966FF00CC66FF00FF66FF000099FF003399FF006699FF009999FF00CC
310
99FF00FF99FF0000CCFF0033CCFF0066CCFF0099CCFF00CCCCFF00FFCCFF0000FFFF0033FFFF0066FFFF0099FFFF00CCFFFF00FFFFFF00000000000D0D0D001A1A1A00282828003535350043434300505050005D5D5D006B6B6B00787878008686860093939300A1A1A100AEAEAE00BBBBBB00C9C9C900D6D6D600E4E4E400
310
F1F1F100FFFFFF0000000000000000000000000000000000000000000000000000000000000000000000000000000000E1E1E1E1E1E1E1E1E1E1E1E1E1E1E1E1E1E1E1E1E1E1E1E1E1E1E1E1E1E1E1E1E1BEBEBEBEBEBEBEBEBEBEBEBEBEBEBEBEBEBEBEBEBEBEBEBEBEBEBEBEBEBEBEBEBEBEBEBEBEBEBEBEBEBEBEBEBEBE
310
BEBEBEBEBEBEBEBEBEBEBEBEBEBEBEBEBEBEBEBEBEBEBEBEBEBEBEBEBEBEBEBEBEBEBEBEBEBEBEBEBEBEBEBEBEBEBEBEBEBEBEBEBEBEBEBEBEBEBEBEBEBEBEBEBEBEBEBEBEBEBEBEBEBEBEBEBEBEBEBEBEBEBEBEBEBEBEBEBEBEBEBEBEBEBEBEBEBEBEBEBEBEBEBEBEBEBEBEBEBEBEBEBEBEBEBEBEBEBEBEBEBEBEBEBEBEBE
310
BEBEBEBEBEBEBEBEBEBEBEBEBEBEBEBEBEE1E1E1E1E1E1E1E1E1E1E1E1E1E1E1E1E1E1E1E1E1E1E1E1E1E1E1E1E1E1E1E1E1E1E1E1E1E1E1E1E1E1E1E1E1E1E1E1E1E1E1E1E1E1E1E1E1E1E1E1E1E1E1E1E1E1BEE1E1E1E1E1E1E1E1E1E1E1E1E1E1E1E1E1E1E1E1E1E1E1E1E1E1E1E1E1E1E1E1E1E1E1E1E1E1E1E1E1E1E1
310
E1E1E1E1E1E1E1E1E1E1E1E1BEE1E1E1E1E1E1E1E1E1E1E1E1E1E1E1E1E1E1E1E1E1E1E1E1E1E1E1E1E1E1E1E1E1E1E1E1E1E1E1E1E1E1E1E1E1E1E1BEE1E1E1E1E1E1E1E1E1E1E1E1E1E1E1E1E1E1E1E1E1E1E1E1E1E1E1E1E1E1E1E1E1E1E1E1E1E1E1E1E1E1E1E1E1E1E1E1E1E1E1E1E1E1E1E1E1E1E1E1E1E1E1E1E1E1
310
E1E1E1E1E1E1E1E1E1E1E1E1E1E1E1E1E1E1BEE1E1E1E1E1E1E1E1E1E1E1E1E1E1E1E1E1E1E1E1E1E1E1E1E1E1E1E1E1E1E1E1E1E1E1E1E1E1E1E1E1E1E1E1E1E1E1E1E1E1E1E1E1E1E1E1E1E1E1E1E1E1E1E1E1E1BEE1E1E1E1E1E1E128282828282828282828282828282828282828282828282828282828282828282828
310
2828282828282828282828282828BE2828282828282828282828282828282828282828282828282828282828282828282828282828282828282828282828BE282828282828282828282828282828282828282828282828282828282828282828282828280F2828282828282828282828282828282828282828282828282828
310
2828282828282828282828282828282828282828BEE1E1E1E1E1E1E1E1E1E1E1E1E1E1E1E1E1E1E1E1E1E1E1E1E1E1E1E1E1E1E1E1E1E1E1E1E1E1E1E1E1E1E1E1E1E1E1E1E1E1E1E1E1E1E1E1E1E1E1E1E1E1E1E1E1E1BEE1E1E1E1E1E1E128E1E1E1E1E1E1E1E1E1E1E1E1E1E1E1E1E1E1E1E1E1E1E1E1E1E1E1E1E1E1E1
310
E1E1E1E1E1E1E1E1E1E1E1E1E1E1E1E1E1E1E1E1E1E1E1E1E1E1E1E1E1E1E1E1E1E1E1E1E1E1E1E1E1E1E1E1E1E1E1E1E1E1E1E1E1E1E1E1E1E1E1E1E1E1E1E1E1E1E1E1E1E1E1E1E1E1E1E1E1E1E1E1E1E1E1E1E1E1E1E1E1E1E1E1E1E1E1E1E1E1E1E1E1E10F0F0F0F0F0F0F0F0F0F0F0FE10F0F0F0F0F0F0F0F0FE1E1E1
310
E1E1E1E1E1E1E1E1E1E1E1E1E1E1E1E1E1E1E1E1E128BEE1E1E1E1E1E1E1E1E1E1E1E1E1E1E1E1E1E1E1E1E1E1E1E1E1E1E1E1E1E1E1E1E1E1E1E1E1E1E1E1E1E1E1E1E1E1E1E1E1E1E1E1E1E1E1E1E1E1E1E1E1E1E1E1E1E1BEE1E1E1E1E1E1E128E1E1E1E1E1E1E1E1E1E1E1E1E1E1E1E1E1E1E1E1E1E1E1E1E1E1E1E1E1
310
E1E1E1E1E1E1E1E1E1E1E1E1E1E1E1E1E1E1E1E1E1E1E1E1E1E1E1E1E1E1E1E1E1E1E1E1E1E1E1E1E1E1E1E1E1E1E1E1E1E1E1E1E1E1E1E1E1E1E1E1E1E1E1E1E1E1E1E1E1E1E1E1E1E1E1E1E1E1E1E1E1E1E1E1E1E1E1E1E1E1E1E1E1E1E1E1E1E1E1E1E1E1E1E10F0F0F0F0F0F0F0F0F0F0FE10F0F0F0F0F0F0F0F0F0FE1
310
E1E1E1E1E1E1E1E1E1E1E1E1E1E1E1E1E1E1E1E1E1E1E128BEE1E1E1E1E1E1E1E1E1E1E1E1E1E1E1E1E1E1E1E1E1E1E1E1E1E1E1E1E1E1E1E1E1E1E1E1E1E1E1E1E1E1E1E1E1E1E1E1E1E1E1E1E1E1E1E1E1E1E1E1E1E1E1E1E1E1BEE1E1E1E1E1E1E128E1E1E1E1E1E1E1E1E1E1E1E1E1E1E1E1E1E1E1E1E1E1E1E1E1E1E1
310
E1E1E1E1E1E1E1E1E1E1E1E1E1E1E1E1E1E1E1E1E1E1E1E1E1E1E1E1E1E1E1E1E1E1E1E1E1E1E1E1E1E1E1E1E1E1E1E1E1E1E1E1E1E1E1E1E1E1E1E1E1E1E1E1E1E1E1E1E1E1E1E1E1E1E1E1E1E1E1E1E1E1E1E1E1E1E1E1E1E1E1E1E1E1E1E1E1E1E1E1E1E1E1E1E1E10F0F0F0F0F0FE1E1E1E1E1E1E10F0F0F0F0F0F0F0F
310
E1E1E1E1E1E1E1E1E1E1E1E1E1E1E1E1E1E1E1E1E1E1E1E1E128BEE1E1E1E1E1E1E1E1E1E1E1E1E1E1E1E1E1E1E1E1E1E1E1E1E1E1E1E1E1E1E1E1E1E1E1E1E1E1E1E1E1E1E1E1E1E1E1E1E1E1E1E1E1E1E1E1E1E1E1E1E1E1E1E1E1E1BEE1E1E1E1E1E1E128E1E1E1E1E1E1E1E1E1E1E1E1E1E1E1E1E1E1E1E1E1E1E1E1E1
310
E1E1E1E1E1E1E1E1E1E1E1E1E1E1E1E1E1E1E1E1E1E1E1E1E1E1E1E1E1E1E1E1E1E1E1E1E1E1E1E1E1E1E1E1E1E1E1E1E1E1E1E1E1E1E1E1E1E1E1E1E1E1E1E1E1E1E1E1E1E1E1E1E1E1E1E1E1E1E1E1E1E1E1E1E1E1E1E1E1E1E1E1E1E1E1E1E1E1E1E1E1E1E1E1E1E1E1E10F0F0F0F0FE1E1E1E1E1E1E1E10F0F0F0F0F0F
310
E10FE1E1E1E1E1E1E1E1E1E1E1E1E1E1E1E1E1E1E1E1E1E1E1E1E128BEE1E1E1E1E1E1E1E1E1E1E1E1E1E1E1E1E1E1E1E1E1E1E1E1E1E1E1E1E1E1E1E1E1E1E1E1E1E1E1E1E1E1E1E1E1E1E1E1E1E1E1E1E1E1E1E1E1E1E1E1E1E1E1E1E1E1BEE1E1E1E1E1E1E128E1E1E1E1E1E1E1E1E1E1E1E1E1E1E1E1E1E1E1E1E1E1E1
310
E1E1E1E1E1E1E1E1E1E1E1E1E1E1E1E1E1E1E1E1E1E1E1E1E1E1E1E1E1E1E1E1E1E1E1E1E1E1E1E1E1E1E1E1E1E1E1E1E1E1E1E1E1E1E1E1E1E1E1E1E1E1E1E1E1E1E1E1E1E1E1E1E1E1E1E1E1E1E1E1E1E1E1E1E1E1E1E1E1E1E1E1E1E1E1E1E1E1E1E1E1E1E1E1E1E1E1E1E1E10F0F0F0F0F0FBE0F0F0F0F0F0F0F0F0F0F
310
0F0F0F0F0F0F0F0F0F0F0F0F0F0F0F0F0F0F0F0F0F0F0F0F0F0F0F0F0F0FBEE1E1E1E1E1E1E1E1E1E1E1E1E1E1E1E1E1E1E1E1E1E1E1E1E1E1E1E1E1E1E1E1E1E1E1E1E1E1E1E1E1E1E1E1E1E1E1E1E1E1E1E1E1E1E1E1E1E1E1E1E1E1E1E1E1E1BEE1E1E1E1E1E1E128E1E1E1E1E1E1E1E1E1E1E1E1E1E1E1E1E1E1E1E1E1
310
E1E1E1E1E1E1E1E1E1E1E1E1E1E1E1E1E1E1E1E1E1E1E1E1E1E1E1E1E1E1E1E1E1E1E1E1E1E1E1E1E1E1E1E1E1E1E1E1E1E1E1E1E1E1E1E1E1E1E1E1E1E1E1E1E1E1E1E1E1E1E1E1E1E1E1E1E1E1E1E1E1E1E1E1E1E1E1E1E1E1E1E1E1E1E1E1E1E1E1E1E1E1E1E1E1E1E1E1E1E1E1E10FBEBEBEBEBEBEBEBEBEBEBEE1E1E1
310
E10FE1E1E1E1E1E1E1E1E1E1E1E1E1BEBEBEBEBEBEBEBEBEBEBEBEBEBEBEE128BEE1E1E1E1E1E1E1E1E1E1E1E1E1E1E1E1E1E1E1E1E1E1E1E1E1E1E1E1E1E1E1E1E1E1E1E1E1E1E1E1E1E1E1E1E1E1E1E1E1E1E1E1E1E1E1E1E1E1E1E1E1E1E1E1E1E1BEE1E1E1E1E1E1E128E1E1E1E1E1E1E1E1E1E1E1E1E1E1E1E1E1E1E1
310
E1E1E1E1E1E1E1E1E1E1E1E1E1E1E1E1E1E1E1E1E1E1E1E1E1E1E1E1E1E1E1E1E1E1E1E1E1E1E1E1E1E1E1E1E1E1E1E1E1E1E1E1E1E1E1E1E1E1E1E1E1E1E1E1E1E1E1E1E1E1E1E1E1E1E1E1E1E1E1E1E1E1E1E1E1E1E1E1E1E1E1E1E1E1E1E1E1E1E1E1E1E1E1E1E1E1E1E1E1E1E1E1E1E10FBEBEBEBEE1BEBEBEBEBEBEE1
310
E1E1E10FE1E1E1E1E1E1E1E1E1E1E1E1E1E1E1E1E1E1E1E2E2E2E2E2E2E2E2E2E128BEE1E1E1E1E1E1E1E1E1E1E1E1E1E1E1E1E1E1E1E1E1E1E1E1E1E1E1E1E1E1E1E1E1E1E1E1E1E1E1E1E1E1E1E1E1E1E1E1E1E1E1E1E1E1E1E1E1E1E1E1E1E1E1E1E1E1BEE1E1E1E1E1E1E128E1E1E1E1E1E1E1E1E1E1E1E1E1E1E1E1E1
310
E1E1E1E1E1E1E1E1E1E1E1E1E1E1E1E1E1E1E1E1E1E1E1E1E1E1E1E1E1E1E1E1E1E1E1E1E1E1E1E1E1E1E1E1E1E1E1E1E1E1E1E1E1E1E1E1E1E1E1E1E1E1E1E1E1E1E1E1E1E1E1E1E1E1E1E1E1E1E1E1E1E1E1E1E1E1E1E1E1E1E1E1E1E1E1E1E1E1E1E1E1E1E1E1E1E1E1E1E1E1E1E1E1E1E1E10FBEBEBEBEBEBEBEBEBEBE
310
BEBEBEBEBEBEE1E1E1E1E1E1E1E1E1E1E1E1E1E1E1E1E1E1E1E2E2E2E2E2E2E2E2E2E128BEE1E1E1E1E1E1E1E1E1E1E1E1E1E1E1E1E1E1E1E1E1E1E1E1E1E1E1E1E1E1E1E1E1E1E1E1E1E1E1E1E1E1E1E1E1E1E1E1E1E1E1E1E1E1E1E1E1E1E1E1E1E1E1E1E1E1BEE1E1E1E1E1E1E128E1E1E1E1E1E1E1E1E1E1E1E1E1E1E1
310
E1E1E1E1E1E1E1E1E1E1E1E1E1E1E1E1E1E1E1E1E1E1E1E1E1E1E1E1E1E1E1E1E1E1E1E1E1E1E1E1E1E1E1E1E1E1E1E1E1E1E1E1E1E1E1E1E1E1E1E1E1E1E1E1E1E1E1E1E1E1E1E1E1E1E1E1E1E1E1E1E1E1E1E1E1E1E1E1E1E1E1E1E1E1E1E1E1E1E1E1E1E1E1E1E1E1E1E1E1E1E1E1E1E1E1E1E1E10FBEE1E1E1E1BEBEE1
310
E1E1E1E1E1E1E10FE1E1E1E1E1E1E1E1E1E1E1E1E1E1E1E1E1E1E1E2E2E2E2E2E2E2E2E2E128BEE1E1E1E1E1E1E1E1E1E1E1E1E1E1E1E1E1E1E1E1E1E1E1E1E1E1E1E1E1E1E1E1E1E1E1E1E1E1E1E1E1E1E1E1E1E1E1E1E1E1E1E1E1E1E1E1E1E1E1E1E1E1E1E1E1E1BEE1E1E1E1E1E1E128E1E1E1E1E1E1E1E1E1E1E1E1E1
310
E1E1E1E1E1E1E1E1E1E1E1E1E1E1E1E1E1E1E1E1E1E1E1E1E1E1E1E1E1E1E1E1E1E1E1E1E1E1E1E1E1E1E1E1E1E1E1E1E1E1E1E1E1E1E1E1E1E1E1E1E1E1E1E1E1E1E1E1E1E1E1E1E1E1E1E1E1E1E1E1E1E1E1E1E1E1E1E1E1E1E1E1E1E1E1E1E1E1E1E1E1E1E1E1E1E1E1E1E1E1E1E1E1E1E1E1E1E1E1E10FBEE1E1E1E1BE
310
BEE1E1E1E1E1E1E1E10FE1E1E1E1E1E1E1E1E1E1E1E1E1E1E1E1E1E1E1E1E1BEE2E2E2E2E2E2E128BEE1E1E1E1E1E1E1E1E1E1E1E1E1E1E1E1E1E1E1E1E1E1E1E1E1E1E1E1E1E1E1E1E1E1E1E1E1E1E1E1E1E1E1E1E1E1E1E1E1E1E1E1E1E1E1E1E1E1E1E1E1E1E1E1E1E1BEE1E1E1E1E1E1E128E1E1E1E1E1E1E1E1E1E1E1
310
E1E1E1E1E1E1E1E1E1E1E1E1E1E1E1E1E1E1E1E1E1E1E1E1E1E1E1E1E1E1E1E1E1E1E1E1E1E1E1E1E1E1E1E1E1E1E1E1E1E1E1E1E1E1E1E1E1E1E1E1E1E1E1E1E1E1E1E1E1E1E1E1E1E1E1E1E1E1E1E1E1E1E1E1E1E1E1E1E1E1E1E1E1E1E1E1E1E1E1E1E1E1E1E1E1E1E1E1E1E1E1E1E1E1E1E1E1E1E1E1E1E10FBEE1E1E1
310
E1BEBEE1E1E1E1E1E1E1E10FE1E1E1E1E1E1E1E1E1E1E1E1E1E1E1E1E1E1E1E1BEBEBEE2BEE2BEE2E128BEE1E1E1E1E1E1E1E1E1E1E1E1E1E1E1E1E1E1E1E1E1E1E1E1E1E1E1E1E1E1E1E1E1E1E1E1E1E1E1E1E1E1E1E1E1E1E1E1E1E1E1E1E1E1E1E1E1E1E1E1E1E1E1E1E1E1BEE1E1E1E1E1E1E128E1E1E1E1E1E1E1E1E1
310
E1E1E1E1E1E1E1E1E1E1E1E1E1E1E1E1E1E1E1E1E1E1E1E1E1E1E1E1E1E1E1E1E1E1E1E1E1E1E1E1E1E1E1E1E1E1E1E1E1E1E1E1E1E1E1E1E1E1E1E1E1E1E1E1E1E1E1E1E1E1E1E1E1E1E1E1E1E1E1E1E1E1E1E1E1E1E1E1E1E1E1E1E1E1E1E1E1E1E1E1E1E1E1E1E1E1E1E1E1E1E1E1E1E1E1E1E1E1E1E1E1E1E1E10FBEE1
310
E1E1E1BEBEE1E1E1E1E1E1E1E10FE1E1E1E1E1E1E1E1E1E1E1E1E1E1E1E1E1E1E1E1BEBEBEBEE2E2E2E2E128BEE1E1E1E1E1E1E1E1E1E1E1E1E1E1E1E1E1E1E1E1E1E1E1E1E1E1E1E1E1E1E1E1E1E1E1E1E1E1E1E1E1E1E1E1E1E1E1E1E1E1E1E1E1E1E1E1E1E1E1E1E1E1E1E1E1E1BEE1E1E1E1E1E1E128E1E1E1E1E1E1E1
310
E1E1E1E1E1E1E1E1E1E1E1E1E1E1E1E1E1E1E1E1E1E1E1E1E1E1E1E1E1E1E1E1E1E1E1E1E1E1E1E1E1E1E1E1E1E1E1E1E1E1E1E1E1E1E1E1E1E1E1E1E1E1E1E1E1E1E1E1E1E1E1E1E1E1E1E1E1E1E1E1E1E1E1E1E1E1E1E1E1E1E1E1E1E1E1E1E1E1E1E1E1E1E1E1E1E1E1E1E1E1E1E1E1E1E1E1E1E1E1E1E1E1E1E1E1E10F
310
BEE1E1E1E1BEBEE1E1E1E1E1E1E1E10FE1E1E1E1E1E1E1E1E1E1E1E1E1E1E1E1E1E1E1E1BEBEBEBEE2E2E2E2E128BEE1E1E1E1E1E1E1E1E1E1E1E1E1E1E1E1E1E1E1E1E1E1E1E1E1E1E1E1E1E1E1E1E1E1E1E1E1E1E1E1E1E1E1E1E1E1E1E1E1E1E1E1E1E1E1E1E1E1E1E1E1E1E1E1E1E1BEE1E1E1E1E1E1E128E1E1E1E1E1
310
E1E1E1E1E1E1E1E1E1E1E1E1E1E1E1E1E1E1E1E1E1E1E1E1E1E1E1E1E1E1E1E1E1E1E1E1E1E1E1E1E1E1E1E1E1E1E1E1E1E1E1E1E1E1E1E1E1E1E1E1E1E1E1E1E1E1E1E1E1E1E1E1E1E1E1E1E1E1E1E1E1E1E1E1E1E1E1E1E1E1E1E1E1E1E1E1E1E1E1E1E1E1E1E1E1E1E1E1E1E1E1E1E1E1E1E1E1E1E1E1E1E1E1E1E1E1E1
310
E10FBEE1E1E1E1BEBEE1E1E1E1E1E1E1E10FE1E1E1E1E1E1E1E1E1E1E1E1E1E1E1E1E1E1E1E1E1BEBEBEE1E2E1E2E128BEE1E1E1E1E1E1E1E1E1E1E1E1E1E1E1E1E1E1E1E1E1E1E1E1E1E1E1E1E1E1E1E1E1E1E1E1E1E1E1E1E1E1E1E1E1E1E1E1E1E1E1E1E1E1E1E1E1E1E1E1E1E1E1E1E1E1BEE1E1E1E1E1E1E128E1E1E1
310
E1E1E1E1E1E1E1E1E1E1E1E1E1E1E1E1E1E1E1E1E1E1E1E1E1E1E1E1E1E1E1E1E1E1E1E1E1E1E1E1E1E1E1E1E1E1E1E1E1E1E1E1E1E1E1E1E1E1E1E1E1E1E1E1E1E1E1E1E1E1E1E1E1E1E1E1E1E1E1E1E1E1E1E1E1E1E1E1E1E1E1E1E1E1E1E1E1E1E1E1E1E1E1E1E1E1E1E1E1E1E1E1E1E1E1E1E1E1E1E1E1E1E1E1E1E1E1
310
E1E1E10FBEE1E1E1E1BEBEE1E1E1E1E1E1E1E10FE1E1E1E1E1E1E1E1E1E1E1E1E1E1E1E1E1E1E1E1E1E1E1E1E1E1E1E1E128BEE1E1E1E1E1E1E1E1E1E1E1E1E1E1E1E1E1E1E1E1E1E1E1E1E1E1E1E1E1E1E1E1E1E1E1E1E1E1E1E1E1E1E1E1E1E1E1E1E1E1E1E1E1E1E1E1E1E1E1E1E1E1E1E1E1E1BEE1E1E1E1E1E1E128E1
310
E1E1E1E1E1E1E1E1E1E1E1E1E1E1E1E1E1E1E1E1E1E1E1E1E1E1E1E1E1E1E1E1E1E1E1E1E1E1E1E1E1E1E1E1E1E1E1E1E1E1E1E1E1E1E1E1E1E1E1E1E1E1E1E1E1E1E1E1E1E1E1E1E1E1E1E1E1E1E1E1E1E1E1E1E1E1E1E1E1E1E1E1E1E1E1E1E1E1E1E1E1E1E1E1E1E1E1E1E1E1E1E1E1E1E1E1E1E1E1E1E1E1E1E1E1E1E1
310
E1E1E1E1E10FBEE1E1E1E1BEBEE1E1E1E1E1E1E1E10FE1E1E1E1E1E1E1E1E1E1E1E1E1E1E1E1E1E1E1E1E1E1E1E1E1E1E1E1E128BEE1E1E1E1E1E1E1E1E1E1E1E1E1E1E1E1E1E1E1E1E1E1E1E1E1E1E1E1E1E1E1E1E1E1E1E1E1E1E1E1E1E1E1E1E1E1E1E1E1E1E1E1E1E1E1E1E1E1E1E1E1E1E1E1E1E1BEE1E1E1E1E1E1E1
310
28E1E1E1E1E1E1E1E1E1E1E1E1E1E1E1E1E1E1E1E1E1E1E1E1E1E1E1E1E1E1E1E1E1E1E1E1E1E1E1E1E1E1E1E1E1E1E1E1E1E1E1E1E1E1E1E1E1E1E1E1E1E1E1E1E1E1E1E1E1E1E1E1E1E1E1E1E1E1E1E1E1E1E1E1E1E1E1E1E1E1E1E1E1E1E1E1E1E1E1E1E1E1E1E1E1E1E1E1E1E1E1E1E1E1E1E1E1E1E1E1E1E1E1E1E1E1
310
E1E1E1E1E1E1E10FE1E1E1E1E1BEE1E1E1E1E1E1E1E1E10FE1E1E1E1E1E1E1E1E1E1E1E1E1E1E1E1E1E1E1E1E1E1E1E1E1E1E1E1E128BEE1E1E1E1E1E1E1E1E1E1E1E1E1E1E1E1E1E1E1E1E1E1E1E1E1E1E1E1E1E1E1E1E1E1E1E1E1E1E1E1E1E1E1E1E1E1E1E1E1E1E1E1E1E1E1E1E1E1E1E1E1E1E1E1E1E1BEE1E1E1E1E1
310
E1E128E1E1E1E1E1E1E1E1E1E1E1E1E1E1E1E1E1E1E1E1E1E1E1E1E1E1E1E1E1E1E1E1E1E1E1E1E1E1E1E1E1E1E1E1E1E1E1E1E1E1E1E1E1E1E1E1E1E1E1E1E1E1E1E1E1E1E1E1E1E1E1E1E1E1E1E1E1E1E1E1E1E1E1E1E1E1E1E1E1E1E1E1E1E1E1E1E1E1E1E1E1E1E1E1E1E1E1E1E1E1E1E1E1E1E1E1E1E1E1E1E1E1E1E1
310
E1E1E1E1E1E1E1E1E10FBEE1E1E1E1BEBEE1E1E1E1E1E1E1E10FE1E1E1E1E1E1E1E1E1E1E1E1E1E1E1E1E1E1E1E1E1E1E1E1E1E1E1E1E128BEE1E1E1E1E1E1E1E1E1E1E1E1E1E1E1E1E1E1E1E1E1E1E1E1E1E1E1E1E1E1E1E1E1E1E1E1E1E1E1E1E1E1E1E1E1E1E1E1E1E1E1E1E1E1E1E1E1E1E1E1E1E1E1E1E1E1BEE1E1E1
310
E1E1E1E128E1E1E1E1E1E1E1E1E1E1E1E1E1E1E1E1E1E1E1E1E1E1E1E1E1E1E1E1E1E1E1E1E1E1E1E1E1E1E1E1E1E1E1E1E1E1E1E1E1E1E1E1E1E1E1E1E1E1E1E1E1E1E1E1E1E1E1E1E1E1E1E1E1E1E1E1E1E1E1E1E1E1E1E1E1E1E1E1E1E1E1E1E1E1E1E1E1E1E1E1E1E1E1E1E1E1E1E1E1E1E1E1E1E1E1E1E1E1E1E1E1E1
310
E1E1E1E1E1E1E1E1E1E1E10FBEE1E1E1E1BEBEE1E1E1E1E1E1E1E10FE1E1E1E1E1E1E1E1E1E1E1E1E1E1E1E1E1E1E1E1E1E1E1E1E1E1E1E1E128BEE1E1E1E1E1E1E1E1E1E1E1E1E1E1E1E1E1E1E1E1E1E1E1E1E1E1E1E1E1E1E1E1E1E1E1E1E1E1E1E1E1E1E1E1E1E1E1E1E1E1E1E1E1E1E1E1E1E1E1E1E1E1E1E1E1E1BEE1
310
E1E1E1E1E1E128E1E1E1E1E1E1E1E1E1E1E1E1E1E1E1E1E1E1E1E1E1E1E1E1E1E1E1E1E1E1E1E1E1E1E1E1E1E1E1E1E1E1E1E1E1E1E1E1E1E1E1E1E1E1E1E1E1E1E1E1E1E1E1E1E1E1E1E1E1E1E1E1E1E1E1E1E1E1E1E1E1E1E1E1E1E1E1E1E1E1E1E1E1E1E1E1E1E1E1E1E1E1E1E1E1E1E1E1E1E1E1E1E1E1E1E1E1E1E1E1
310
E1E1E1E1E1E1E1E1E1E1E1E1E10F0F0F0F0F0F0F0F0F0F0F0F0F0F0F0F0F0F0F0F0F0F0F0F0F0F0F0F0F0F0F0F0F0F0F0F0F0F0F0F0F0F0F0F0F0F0FBEE1E1E1E1E1E1E1E1E1E1E1E1E1E1E1E1E1E1E1E1E1E1E1E1E1E1E1E1E1E1E1E1E1E1E1E1E1E1E1E1E1E1E1E1E1E1E1E1E1E1E1E1E1E1E1E1E1E1E1E1E1E1E1E1E1E1
310
BEE1E1E1E1E1E1E128E1E1E1E1E1E1E1E1E1E1E1E1E1E1E1E1E1E1E1E1E1E1E1E1E1E1E1E1E1E1E1E1E1E1E1E1E1E1E1E1E1E1E1E1E1E1E1E1E1E1E1E1E1E1E1E1E1E1E1E1E1E1E1E1E1E1E1E1E1E1E1E1E1E1E1E1E1E1E1E1E1E1E1E1E1E1E1E1E1E1E1E1E1E1E1E1E1E1E1E1E1E1E1E1E1E1E1E1E1E1E1E1E1E1E1E1E1E1
310
E1E1E1E1E1E1E1E1E1E1E1E1E1E1E10FE1E1E1E1E1E1E1E1E1E1E1E1E1E1E1E1E1E1E1E1E1E1E1E1E1E1E1E1E1E1E1E1E1E1E1E1E1E1E1E1E1E1E1E1E128BEE1E1E1E1E1E1E1E1E1E1E1E1E1E1E1E1E1E1E1E1E1E1E1E1E1E1E1E1E1E1E1E1E1E1E1E1E1E1E1E1E1E1E1E1E1E1E1E1E1E1E1E1E1E1E1E1E1E1E1E1E1E1E1E1
310
E1E1BEE1E1E1E1E1E1E128E1E1E1E1E1E1E1E1E1E1E1E1E1E1E1E1E1E1E1E1E1E1E1E1E1E1E1E1E1E1E1E1E1E1E1E1E1E1E1E1E1E1E1E1E1E1E1E1E1E1E1E1E1E1E1E1E1E1E1E1E1E1E1E1E1E1E1E1E1E1E1E1E1E1E1E1E1E1E1E1E1E1E1E1E1E1E1E1E1E1E1E1E1E1E1E1E1E1E1E1E1E1E1E1E1E1E1E1E1E1E1E1E1E1E1E1
310
E1E1E1E1E1E1E1E1E1E1E1E1E1E1E1E1E10FE1E2E2E2E2E2E2E2E2E2E2E2E2E2E2E2E2E2E2E2E2E2E2E2E2E2E2E2E2E2E2E2E2E2E2E2E1E2E2E2E2E2E2E1E128BEE1E1E1E1E1E1E1E1E1E1E1E1E1E1E1E1E1E1E1E1E1E1E1E1E1E1E1E1E1E1E1E1E1E1E1E1E1E1E1E1E1E1E1E1E1E1E1E1E1E1E1E1E1E1E1E1E1E1E1E1E1E1
310
E1E1E1E1BEE1E1E1E1E1E1BE28E1E1E1E1E1E1E1E1E1E1E1E1E1E1E1E1E1E1E1E1E1E1E1E1E1E1E1E1E1E1E1E1E1E1E1E1E1E1E1E1E1E1E1E1E1E1E1E1E1E1E1E1E1E1E1E1E1E1E1E1E1E1E1E1E1E1E1E1E1E1E1E1E1E1E1E1E1E1E1E1E1E1E1E1E1E1E1E1E1E1E1E1E1E1E1E1E1E1E1E1E1E1E1E1E1E1E1E1E1E1E1E1E1E1
310
E1E1E1E1E1E1E1E1E1E1E1E1E1E1E1E1E1E1E10FE1E2E1E2E2E2E2E2E2E2E2E2E2E2E2E2E2E2E2E2E2E1E2E2E2E2E2E2E2E2E2E2E2E2E2E2E2E2E2E2E2E2E2E2E128BEE1E1E1E1E1E1E1E1E1E1E1E1E1E1E1E1E1E1E1E1E1E1E1E1E1E1E1E1E1E1E1E1E1E1E1E1E1E1E1E1E1E1E1E1E1E1E1E1E1E1E1E1E1E1E1E1E1E1E1E1
310
E1E1E1E1E1E1BEE1E1E1E1E1E1BEBEE1E1E1E1E1E1E1E1E1E1E1E1E1E1E1E1E1E1E1E1E1E1E1E1E1E1E1E1E1E1E1E1E1E1E1E1E1E1E1E1E1E1E1E1E1E1E1E1E1E1E1E1E1E1E1E1E1E1E1E1E1E1E1E1E1E1E1E1E1E1E1E1E1E1E1E1E1E1E1E1E1E1E1E1E1E1E1E1E1E1E1E1E1E1E1E1E1E1E1E1E1E1E1E1E1E1E1E1E1E1E1E1
310
E1E1E1E1E1E1E1E1E1E1E1E1E1E1E1E1E1E1E1E1E10FE1E2E2E1E2E1E2E1E1E1E1E1E2E1E2E1E1E1E1E1E1E1E2E2E1E1E2E1E2E1E1E1E1E1E1E2E1E1E1E1E2E1E1E1E128BEE1E1E1E1E1E1E1E1E1E1E1E1E1E1E1E1E1E1E1E1E1E1E1E1E1E1E1E1E1E1E1E1E1E1E1E1E1E1E1E1E1E1E1E1E1E1E1E1E1E1E1E1E1E1E1E1E1E1
310
E1E1E1E1E1E1E1E1BEE1E1E1E1E1E1BEBEE1E1E1E1E1E1E1E1E1E1E1E1E1E1E1E1E1E1E1E1E1E1E1E1E1E1E1E1E1E1E1E1E1E1E1E1E1E1E1E1E1E1E1E1E1E1E1E1E1E1E1E1E1E1E1E1E1E1E1E1E1E1E1E1E1E1E1E1E1E1E1E1E1E1E1E1E1E1E1E1E1E1E1E1E1E1E1E1E1E1E1E1E1E1E1E1E1E1E1E1E1E1E1E1E1E1E1E1E1E1
310
E1E1E1E1E1E1E1E1E1E1E1E1E1E1E1E1E1E1E1E1E1E1E10FE1E2E2E2E2E2E2E2E2E1E2E2E1E2E2E2E2E2E2E1E1E1E1E1E1E1E1E1E1E1E1E1E1E1E1E1E1E1E1E1E1E1E1E1E128BEE1E1E1E1E1E1E1E1E1E1E1E1E1E1E1E1E1E1E1E1E1E1E1E1E1E1E1E1E1E1E1E1E1E1E1E1E1E1E1E1E1E1E1E1E1E1E1E1E1E1E1E1E1E1E1E1
310
E1E1E1E1E1E1E1E1E1E1BEE1E1E1E1E1E1BEBEE1E1E1E1E1E1E1E1E1E1E1E1E1E1E1E1E1E1E1E1E1E1E1E1E1E1E1E1E1E1E1E1E1E1E1E1E1E1E1E1E1E1E1E1E1E1E1E1E1E1E1E1E1E1E1E1E1E1E1E1E1E1E1E1E1E1E1E1E1E1E1E1E1E1E1E1E1E1E1E1E1E1E1E1E1E1E1E1E1E1E1E1E1E1E1E1E1E1E1E1E1E1E1E1E1E1E1E1
310
E1E1E1E1E1E1E1E1E1E1E1E1E1E1E1E1E1E1E1E1E1E1E1E1E10FE1E2E2E2E2E2E2E1E2E2E2E1E1E1E2E2E2E2E2E1E1E1E1E1E1E1E1E1E1E1E1E1E1E1E1E1E1E1E1E1E1E1E1E1E128BEE1E1E1E1E1E1E1E1E1E1E1E1E1E1E1E1E1E1E1E1E1E1E1E1E1E1E1E1E1E1E1E1E1E1E1E1E1E1E1E1E1E1E1E1E1E1E1E1E1E1E1E1E1E1
310
E1E1E1E1E1E1E1E1E1E1E1E1BEE1E1E1E1E1E1BEBEE1E1E1E1E1E1E1E1E1E1E1E1E1E1E1E1E1E1E1E1E1E1E1E1E1E1E1E1E1E1E1E1E1E1E1E1E1E1E1E1E1E1E1E1E1E1E1E1E1E1E1E1E1E1E1E1E1E1E1E1E1E1E1E1E1E1E1E1E1E1E1E1E1E1E1E1E1E1E1E1E1E1E1E1E1E1E1E1E1E1E1E1E1E1E1E1E1E1E1E1E1E1E1E1E1E1
310
E1E1E1E1E1E1E1E1E1E1E1E1E1E1E1E1E1E1E1E1E1E1E1E1E1E1E10FE1E1E1E1E1E1E1E1E1E1E1E1E1E1E1E1E1E1E1E1E1E1E1E1E1E1E1E1E1E1E1E1E1E1E1E1E1E1E1E1E1E1E1E1E128BEE1E1E1E1E1E1E1E1E1E1E1E1E1E1E1E1E1E1E1E1E1E1E1E1E1E1E1E1E1E1E1E1E1E1E1E1E1E1E1E1E1E1E1E1E1E1E1E1E1E1E1E1
310
E1E1E1E1E1E1E1E1E1E1E1E1E1E1BEE1E1E1E1E1E1BEBEE1E1E1E1E1E1E1E1E1E1E1E1E1E1E1E1E1E1E1E1E1E1E1E1E1E1E1E1E1E1E1E1E1E1E1E1E1E1E1E1E1E1E1E1E1E1E1E1E1E1E1E1E1E1E1E1E1E1E1E1E1E1E1E1E1E1E1E1E1E1E1E1E1E1E1E1E1E1E1E1E1E1E1E1E1E1E1E1E1E1E1E1E1E1E1E1E1E1E1E1E1E1E1E1
310
E1E1E1E1E1E1E1E1E1E1E1E1E1E1E1E1E1E1E1E1E1E1E1E1E1E1E1E1E10FE1E2E2E2E2E2E2E2E2E2E2E2E1E2E2E2E2E2E2E2E2E1E1E1E1E1E1E1E1E1E1E1E1E1E1E1E1E1E1E1E1E1E1E1E128BEE1E1E1E1E1E1E1E1E1E1E1E1E1E1E1E1E1E1E1E1E1E1E1E1E1E1E1E1E1E1E1E1E1E1E1E1E1E1E1E1E1E1E1E1E1E1E1E1E1E1
310
E1E1E1E1E1E1E1E1E1E1E1E1E1E1E1E1BEE1E1E1E1E1E1BEBEE1E1E1E1E1E1E1E1E1E1E1E1E1E1E1E1E1E1E1E1E1E1E1E1E1E1E1E1E1E1E1E1E1E1E1E1E1E1E1E1E1E1E1E1E1E1E1E1E1E1E1E1E1E1E1E1E1E1E1E1E1E1E1E1E1E1E1E1E1E1E1E1E1E1E1E1E1E1E1E1E1E1E1E1E1E1E1E1E1E1E1E1E1E1E1E1E1E1E1E1E1E1
310
E1E1E1E1E1E1E1E1E1E1E1E1E1E1E1E1E1E1E1E1E1E1E1E1E1E1E1E1E1E1E10FE1E2E2E2E2E2E2E2E2E2E2E2E1E2E2E2E2E2E2E2E1E1E1E1E1E1E1E1E1E1E1E1E1E1E1E1E1E1E1E1E1E1E1E1E128BEE1E1E1E1E1E1E1E1E1E1E1E1E1E1E1E1E1E1E1E1E1E1E1E1E1E1E1E1E1E1E1E1E1E1E1E1E1E1E1E1E1E1E1E1E1E1E1E1
310
E1E1E1E1E1E1E1E1E1E1E1E1E1E1E1E1E1E1BEE1E1E1E1E1E1BEBEE1E1E1E1E1E1E1E1E1E1E1E1E1E1E1E1E1E1E1E1E1E1E1E1E1E1E1E1E1E1E1E1E1E1E1E1E1E1E1E1E1E1E1E1E1E1E1E1E1E1E1E1E1E1E1E1E1E1E1E1E1E1E1E1E1E1E1E1E1E1E1E1E1E1E1E1E1E1E1E1E1E1E1E1E1E1E1E1E1E1E1E1E1E1E1E1E1E1E1E1
310
E1E1E1E1E1E1E1E1E1E1E1E1E1E1E1E1E1E1E1E1E1E1E1E1E1E1E1E1E1E1E1E1E10FE1E2E1E2E1E1E1E1E1E1E2E2E1E2E2E1E1E2E1E2E1E1E1E1E1E1E1E1E1E1E1E1E1E1E1E1E1E1E1E1E1E1E1E1E128BEE1E1E1E1E1E1E1E1E1E1E1E1E1E1E1E1E1E1E1E1E1E1E1E1E1E1E1E1E1E1E1E1E1E1E1E1E1E1E1E1E1E1E1E1E1E1
310
E1E1E1E1E1E1E1E1E1E1E1E1E1E1E1E1E1E1E1E1BEE1E1E1E1E1E1BEBEE1E1E1E1E1E1E1E1E1E1E1E1E1E1E1E1E1E1E1E1E1E1E1E1E1E1E1E1E1E1E1E1E1E1E1E1E1E1E1E1E1E1E1E1E1E1E1E1E1E1E1E1E1E1E1E1E1E1E1E1E1E1E1E1E1E1E1E1E1E1E1E1E1E1E1E1E1E1E1E1E1E1E1E1E1E1E1E1E1E1E1E1E1E1E1E1E1E1
310
E1E1E1E1E1E1E1E1E1E1E1E1E1E1E1E1E1E1E1E1E1E1E1E1E1E1E1E1E1E1E1E1E1E1E10FE1E2E2E2E2E2E2E2E2E2E1E2E1E2E2E2E1E2E2E2E2E2E2E1E1E1E1E1E1E1E1E1E1E1E1E1E1E1E1E1E1E1E1E1E128BEE1E1E1E1E1E1E1E1E1E1E1E1E1E1E1E1E1E1E1E1E1E1E1E1E1E1E1E1E1E1E1E1E1E1E1E1E1E1E1E1E1E1E1E1
310
E1E1E1E1E1E1E1E1E1E1E1E1E1E1E1E1E1E1E1E1E1E1BEE1E1E1E1E1E1BEBEE1E1E1E1E1E1E1E1E1E1E1E1E1E1E1E1E1E1E1E1E1E1E1E1E1E1E1E1E1E1E1E1E1E1E1E1E1E1E1E1E1E1E1E1E1E1E1E1E1E1E1E1E1E1E1E1E1E1E1E1E1E1E1E1E1E1E1E1E1E1E1E1E1E1E1E1E1E1E1E1E1E1E1E1E1E1E1E1E1E1E1E1E1E1E1E1
310
E1E1E1E1E1E1E1E1E1E1E1E1E1E1E1E1E1E1E1E1E1E1E1E1E1E1E1E1E1E1E1E1E1E1E1E1E10FE1E1E2E2E2E2E2E2E2E2E1E1E2E1E2E2E2E2E2E2E2E2E2E2E1E1E1E1E1E1E1E1E1E1E1E1E1E1E1E1E1E1E1E1E128BEE1E1E1E1E1E1E1E1E1E1E1E1E1E1E1E1E1E1E1E1E1E1E1E1E1E1E1E1E1E1E1E1E1E1E1E1E1E1E1E1E1E1
310
E1E1E1E1E1E1E1E1E1E1E1E1E1E1E1E1E1E1E1E1E1E1E1E1BEE1E1E1E1E1E1BEBEE1E1E1E1E1E1E1E1E1E1E1E1E1E1E1E1E1E1E1E1E1E1E1E1E1E1E1E1E1E1E1E1E1E1E1E1E1E1E1E1E1E1E1E1E1E1E1E1E1E1E1E1E1E1E1E1E1E1E1E1E1E1E1E1E1E1E1E1E1E1E1E1E1E1E1E1E1E1E1E1E1E1E1E1E1E1E1E1E1E1E1E1E1E1
310
E1E1E1E1E1E1E1E1E1E1E1E1E1E1E1E1E1E1E1E1E1E1E1E1E1E1E1E1E1E1E1E1E1E1E1E1E1E1E10F0F0F0F0F0F0F0F0F0F0F0F0F0F0F0F0F0F0F0F0F0F0F0F0F0F0F0F0F0F0F0F0F0F0F0F0F0F0F0F0F0F0F0F0F0F0FBEE1E1E1E1E1E1E1E1E1E1E1E1E1E1E1E1E1E1E1E1E1E1E1E1E1E1E1E1E1E1E1E1E1E1E1E1E1E1E1E1
310
E1E1E1E1E1E1E1E1E1E1E1E1E1E1E1E1E1E1E1E1E1E1E1E1E1E1BEE1E1E1E1E1E1BEBEE1E1E1E1E1E1E1E1E1E1E1E1E1E1E1E1E1E1E1E1E1E1E1E1E1E1E1E1E1E1E1E1E1E1E1E1E1E1E1E1E1E1E1E1E1E1E1E1E1E1E1E1E1E1E1E1E1E1E1E1E1E1E1E1E1E1E1E1E1E1E1E1E1E1E1E1E1E1E1E1E1E1E1E1E1E1E1E1E1E1E1E1
310
E1E1E1E1E1E1E1E1E1E1E1E1E1E1E1E1E1E1E1E1E1E1E1E1E1E1E1E1E1E1E1E1E1E1E1E1E1E1E1E1E10FE1E1E1E1E1E1E1E1E1E1E1E2E2E2E1E2E2E2E2E2E2E2E2E2E2E2E2E2E2E1E1E1E1E1E1E1E1E1E1E1E1E1E1E1E128BEE1E1E1E1E1E1E1E1E1E1E1E1E1E1E1E1E1E1E1E1E1E1E1E1E1E1E1E1E1E1E1E1E1E1E1E1E1E1
310
E1E1E1E1E1E1E1E1E1E1E1E1E1E1E1E1E1E1E1E1E1E1E1E1E1E1E1E1BEE1E1E1E1E1E1BEBEE1E1E1E1E1E1E1E1E1E1E1E1E1E1E1E1E1E1E1E1E1E1E1E1E1E1E1E1E1E1E1E1E1E1E1E1E1E1E1E1E1E1E1E1E1E1E1E1E1E1E1E1E1E1E1E1E1E1E1E1E1E1E1E1E1E1E1E1E1E1E1E1E1E1E1E1E1E1E1E1E1E1E1E1E1E1E1E1E1E1
310
E1E1E1E1E1E1E1E1E1E1E1E1E1E1E1E1E1E1E1E1E1E1E1E1E1E1E1E1E1E1E1E1E1E1E1E1E1E1E1E1E1E1E10FE1E1E1E1E1E1E1E1E1E1E1E2E2E2E1E2E2E2E2E2E2E2E2E2E2E2E1E2E2E1E1E1E1E1E1E1E1E1E1E1E1E1E1E1E128BEE1E1E1E1E1E1E1E1E1E1E1E1E1E1E1E1E1E1E1E1E1E1E1E1E1E1E1E1E1E1E1E1E1E1E1E1
310
E1E1E1E1E1E1E1E1E1E1E1E1E1E1E1E1E1E1E1E1E1E1E1E1E1E1E1E1E1E1BEE1E1E1E1E1E1BEBEE1E1E1E1E1E1E1E1E1E1E1E1E1E1E1E1E1E1E1E1E1E1E1E1E1E1E1E1E1E1E1E1E1E1E1E1E1E1E1E1E1E1E1E1E1E1E1E1E1E1E1E1E1E1E1E1E1E1E1E1E1E1E1E1E1E1E1E1E1E1E1E1E1E1E1E1E1E1E1E1E1E1E1E1E1E1E1E1
310
E1E1E1E1E1E1E1E1E1E1E1E1E1E1E1E1E1E1E1E1E1E1E1E1E1E1E1E1E1E1E1E1E1E1E1E1E1E1E1E1E1E1E1E1E10FE1E1E1E1E1E1E1E1E1E1E1E2E2E2E1E2E2E2E2E2E2E2E2E2E2E2E1E2E2E1E1E1E1E1E1E1E1E1E1E1E1E1E1E1E128BEE1E1E1E1E1E1E1E1E1E1E1E1E1E1E1E1E1E1E1E1E1E1E1E1E1E1E1E1E1E1E1E1E1E1
310
E1E1E1E1E1E1E1E1E1E1E1E1E1E1E1E1E1E1E1E1E1E1E1E1E1E1E1E1E1E1E1E1BEE1E1E1E1E1E1BEBEE1E1E1E1E1E1E1E1E1E1E1E1E1E1E1E1E1E1E1E1E1E1E1E1E1E1E1E1E1E1E1E1E1E1E1E1E1E1E1E1E1E1E1E1E1E1E1E1E1E1E1E1E1E1E1E1E1E1E1E1E1E1E1E1E1E1E1E1E1E1E1E1E1E1E1E1E1E1E1E1E1E1E1E1E1E1
310
E1E1E1E1E1E1E1E1E1E1E1E1E1E1E1E1E1E1E1E1E1E1E1E1E1E1E1E1E1E1E1E1E1E1E1E1E1E1E1E1E1E1E1E1E1E1E10FE1E1E1E1E1E1E1E1E1E10FE1E1E1E1E1E1E1E1E1E1E1E1E1E10F0FE1E1E1E1E1E1E1E1E1E1E1E1E1E1E1E1E1E128BEE1E1E1E1E1E1E1E1E1E1E1E1E1E1E1E1E1E1E1E1E1E1E1E1E1E1E1E1E1E1E1E1
310
E1E1E1E1E1E1E1E1E1E1E1E1E1E1E1E1E1E1E1E1E1E1E1E1E1E1E1E1E1E1E1E1E1E1BEE1E1E1E1E1E1BEBEE1E1E1E1E1E1E1E1E1E1E1E1E1E1E1E1E1E1E1E1E1E1E1E1E1E1E1E1E1E1E1E1E1E1E1E1E1E1E1E1E1E1E1E1E1E1E1E1E1E1E1E1E1E1E1E1E1E1E1E1E1E1E1E1E1E1E1E1E1E1E1E1E1E1E1E1E1E1E1E1E1E1E1E1
310
E1E1E1E1E1E1E1E1E1E1E1E1E1E1E1E1E1E1E1E1E1E1E1E1E1E1E1E1E1E1E1E1E1E1E1E1E1E1E1E1E1E1E1E1E1E1E1E1E10FE10F0F0F0F0F0F0F0F0F0F0F0F0F0F0FE10F0F0F0F0F0F0F0F0F0F0F0F0F0FE1E1E1E1E1E1E1E1E1E1E1E1E1E128BEE1E1E1E1E1E1E1E1E1E1E1E1E1E1E1E1E1E1E1E1E1E1E1E1E1E1E1E1E1E1
310
E1E1E1E1E1E1E1E1E1E1E1E1E1E1E1E1E1E1E1E1E1E1E1E1E1E1E1E1E1E1E1E1E1E1E1E1BEE1E1E1E1E1E1BEBEE1E1E1E1E1E1E1E1E1E1E1E1E1E1E1E1E1E1E1E1E1E1E1E1E1E1E1E1E1E1E1E1E1E1E1E1E1E1E1E1E1E1E1E1E1E1E1E1E1E1E1E1E1E1E1E1E1E1E1E1E1E1E1E1E1E1E1E1E1E1E1E1E1E1E1E1E1E1E1E1E1E1
310
E1E1E1E1E1E1E1E1E1E1E1E1E1E1E1E1E1E1E1E1E1E1E1E1E1E1E1E1E1E1E1E1E1E1E1E1E1E1E1E1E1E1E1E1E1E1E1E1E1E1E10F0F0F0F0F0F0F0F0F0F0F0F0F0F0F0F0F0F0F0F0F0F0F0F0F0F0F0F0F0F0F0F0F0F0F0F0F0F0F0F0F0F0F0F0F0F0FBEE1E1E1E1E1E1E1E1E1E1E1E1E1E1E1E1E1E1E1E1E1E1E1E1E1E1E1E1
310
E1E1E1E1E1E1E1E1E1E1E1E1E1E1E1E1E1E1E1E1E1E1E1E1E1E1E1E1E1E1E1E1E1E1E1E1E1E1BEE1E1E1E1E1E1BEBEE1E1E1E1E1E1E1E1E1E1E1E1E1E1E1E1E1E1E1E1E1E1E1E1E1E1E1E1E1E1E1E1E1E1E1E1E1E1E1E1E1E1E1E1E1E1E1E1E1E1E1E1E1E1E1E1E1E1E1E1E1E1E1E1E1E1E1E1E1E1E1E1E1E1E1E1E1E1E1E1
310
E1E1E1E1E1E1E1E1E1E1E1E1E1E1E1E1E1E1E1E1E1E1E1E1E1E1E1E1E1E1E1E1E1E1E1E1E1E1E1E1E1E1E1E1E1E1E1E1E1E1E1E1E10FE1E1E1E1E1E1E1E1E1E1E1E1E1E1E1E1E1E1E1E1E1E1E1E1E1E1E1E1E1E1E1E1E1E1E1E1E1E1E10F0F0F0F0F0F28BEE1E1E1E1E1E1E1E1E1E1E1E1E1E1E1E1E1E1E1E1E1E1E1E1E1E1
310
E1E1E1E1E1E1E1E1E1E1E1E1E1E1E1E1E1E1E1E1E1E1E1E1E1E1E1E1E1E1E1E1E1E1E1E1E1E1E1E1BEE1E1E1E1E1E1BEBEE1E1E1E1E1E1E1E1E1E1E1E1E1E1E1E1E1E1E1E1E1E1E1E1E1E1E1E1E1E1E1E1E1E1E1E1E1E1E1E1E1E1E1E1E1E1E1E1E1E1E1E1E1E1E1E1E1E1E1E1E1E1E1E1E1E1E1E1E1E1E1E1E1E1E1E1E1E1
310
E1E1E1E1E1E1E1E1E1E1E1E1E1E1E1E1E1E1E1E1E1E1E1E1E1E1E1E1E1E1E1E1E1E1E1E1E1BEE1E1E1E1E1E1E1E1E1E1E1E1E1E1E1E1E10FE1BEBEBEBEBEBEE1E1E1E1E1E1E1E1E1E1E1E1E1E1E1E1E1E1E1E1E1E1E1E1E1E1E1E1E1E10F0FBEBEBEBEBEBEBEBEE1E1E1E1E1E1E1E1E1E1E1E1E1E1E1E1E1E1E1E1E1E1E1E1
310
E1E1E1E1E1E1E1E1E1E1E1E1E1E1E1E1E1E1E1E1E1E1E1E1E1E1E1E1E1E1E1E1E1E1E1E1E1E1E1E1E1E1BEE1E1E1E1E1E1BEBEE1E1E1E1E1E1E1E1E1E1E1E1E1E1E1E1E1E1E1E1E1E1E1E1E1E1E1E1E1E1E1E1E1E1E1E1E1E1E1E1E1E1E1E1E1E1E1E1E1E1E1E1E1E1E1E1E1E1E1E1E1E1E1E1E1E1E1E1E1E1E1E1E1E1E1E1
310
E1E1E1E1E1E1E1E1E1E1E1E1E1E1E1E1E1E1E1E1E1E1E1E1E1E1E1E1E1E1E1E1E1E1E1E1E1E1E1BEE1E1E1E1E1E1E1E1E1E1E1E1E1E1E1E1E10FE1BEBEBEBEBEBEBEBEE1E1E2E2E1E1E1E1E1E1E1E1E1E1E1E1E1E1E1E1E1E1E1E1E1E1E1E10F0FE10F0F0F0F0F28BEE1E1E1E1E1E1E1E1E1E1E1E1E1E1E1E1E1E1E1E1E1E1
310
E1E1E1E1E1E1E1E1E1E1E1E1E1E1E1E1E1E1E1E1E1E1E1E1E1E1E1E1E1E1E1E1E1E1E1E1E1E1E1E1E1E1E1E1BEE1E1E1E1E1E1BEBEE1E1E1E1E1E1E1E1E1E1E1E1E1E1E1E1E1E1E1E1E1E1E1E1E1E1E1E1E1E1E1E1E1E1E1E1E1E1E1E1E1E1E1E1E1E1E1E1E1E1E1E1E1E1E1E1E1E1E1E1E1E1E1E1E1E1E1E1E1E1E1E1E1E1
310
E1E1E1E1E1E1E1E1E1E1E1E1E1E1E1E1E1E1E1E1E1E1E1E1E1E1E1E1E1E1E1E1E1E1E1E1E1E1E1E1E1BEE1E1E1E1E1E1E1E1E1E1E1E1E1E1E1E1E10FE1BEBEBEBEBEBEBEBEBEE1E1E1E1E1E1E1E1E1E1E1E1E1E1E1E1E1E1E1E1E1E1E1E1E1E1E1E1E10F0FE10F0FE128BEE1E1E1E1E1E1E1E1E1E1E1E1E1E1E1E1E1E1E1E1
310
E1E1E1E1E1E1E1E1E1E1E1E1E1E1E1E1E1E1E1E1E1E1E1E1E1E1E1E1E1E1E1E1E1E1E1E1E1E1E1E1E1E1E1E1E1E1BEE1E1E1E1E1E1BEBEE1E1E1E1E1E1E1E1E1E1E1E1E1E1E1E1E1E1E1E1E1E1E1E1E1E1E1E1E1E1E1E1E1E1E1E1E1E1E1E1E1E1E1E1E1E1E1E1E1E1E1E1E1E1E1E1E1E1E1E1E1E1E1E1E1E1E1E1E1E1E1E1
310
E1E1E1E1E1E1E1E1E1E1E1E1E1E1E1E1E1E1E1E1E1E1E1E1E1E1E1E1E1E1E1E1E1E1E1E1E1E1E1E1E1E1BEBEE1E1E1E1E1E1E1E1E1E1E1E1E1E1E1E1E10F0F0F0F0F0F0F0F0F0F0F0F0F0F0F0F0F0F0F0F0F0F0F0F0F0F0F0F0F0F0F0F0F0F0F0F0F0F0F0F0F0F0F0F0F0F0FBEE1E1E1E1E1E1E1E1E1E1E1E1E1E1E1E1E1E1
310
E1E1E1E1E1E1E1E1E1E1E1E1E1E1E1E1E1E1E1E1E1E1E1E1E1E1E1E1E1E1E1E1E1E1E1E1E1E1E1E1E1E1E1E1E1E1E1E1BEE1E1E1E1E1E1BEBEE1E1E1E1E1E1E1E1E1E1E1E1E1E1E1E1E1E1E1E1E1E1E1E1E1E1E1E1E1E1E1E1E1E1E1E1E1E1E1E1E1E1E1E1E1E1E1E1E1E1E1E1E1E1E1E1E1E1E1E1E1E1E1E1E1E1E1E1E1E1
310
E1E1E1E1E1E1E1E1E1E1E1E1E1E1E1E1E1E1E1E1E1E1E1E1E1E1E1E1E1E1E1E1E1E1E1E1E1E1E1E1E1E1E1E1BEBEE1E1E1E1E1E1E1E1E1E1E1E1E1E1E1E1E1E1E1E1E1E1E1E1E1E1E1E1E1E1E1E1E1E1E1E1E1E1E1E1E1E1E1E1E1E1E1E1E1E1E1E1E1E1E1E1E1E1E1E1E1E1E128BEE1E1E1E1E1E1E1E1E1E1E1E1E1E1E1E1
310
E1E1E1E1E1E1E1E1E1E1E1E1E1E1E1E1E1E1E1E1E1E1E1E1E1E1E1E1E1E1E1E1E1E1E1E1E1E1E1E1E1E1E1E1E1E1E1E1E1E1BEE1E1E1E1E1E1BEBEE1E1E1E1E1E1E1E1E1E1E1E1E1E1E1E1E1E1E1E1E1E1E1E1E1E1E1E1E1E1E1E1E1E1E1E1E1E1E1E1E1E1E1E1E1E1E1E1E1E1E1E1E1E1E1E1E1E1E1E1E1E1E1E1E1E1E1E1
310
E1E1E1E1E1E1E1E1E1E1E1E1E1E1E1E1E1E1E1E1E1E1E1E1E1E1E1E1E1E1E1E1E1E1E1E1E1E1E1E1E1E1E1E1E1E1E1BEE1E1E1E1E1E1E1E1E1E1E1E1E1E1E1E1E1E1E1E1E1E1E1E1E1E1E1E1E1E1E1E1E1E1E1E1E1E1E1E1E1E1E1E1E1E1E1E1E1E1E1E1E1E1E1E1E1E1E1E1E1E1E128BEE1E1E1E1E1E1E1E1E1E1E1E1E1E1
310
E1E1E1E1E1E1E1E1E1E1E1E1E1E1E1E1E1E1E1E1E1E1E1E1E1E1E1E1E1E1E1E1E1E1E1E1E1E1E1E1E1E1E1E1E1E1E1E1E1E1E1E1BEE1E1E1E1E1E1BEBEE1E1E1E1E1E1E1E1E1E1E1E1E1E1E1E1E1E1E1E1E1E1E1E1E1E1E1E1E1E1E1E1E1E1E1E1E1E1E1E1E1E1E1E1E1E1E1E1E1E1E1E1E1E1E1E1E1E1E1E1E1E1E1E1E1E1
310
E1E1E1E1E1E1E1E1E1E1E1E1E1E1E1E1E1E1E1E1E1E1E1E1E1E1E1E1E1E1E1E1E1E1E1E1E1E1E1E1E1E1E1E1E1E1E1E1E1BEE1E1E1E1E1E1E1E1E1E1E1E1E1E1E1E1E1E1E1E1E1E1E1E1E1E1E1E1E1E1E1E1E1E1E1E1E1E1E1E1E1E1E1E1E1E1E1E1E1E1E1E1E1E1E1E1E1E1E1E1E1E1E128BEE1E1E1E1E1E1E1E1E1E1E1E1
310
E1E1E1E1E1E1E1E1E1E1E1E1E1E1E1E1E1E1E1E1E1E1E1E1E1E1E1E1E1E1E1E1E1E1E1E1E1E1E1E1E1E1E1E1E1E1E1E1E1E1E1E1E1E1BEE1E1E1E1E1E1BEBEE1E1E1E1E1E1E1E1E1E1E1E1E1E1E1E1E1E1E1E1E1E1E1E1E1E1E1E1E1E1E1E1E1E1E1E1E2E2E2E2E2E2E2E2E2E2E2E2E2E2E2E2E2E2E2E2E2E2E2E2E2E2E2E2
310
E2E2E2E2E2E2E2E2E2E2E2E2E2E2E2E2E2E2E2E2E2E2E2E2E2E2E2E2E2E2E2E2E2E2E2E2E2E2E2E2E2E2E2E2BEBEBEBEBEBEBEBEBEE1E1E1E1E1E1E1E1E1E1E1E1E1E1E1E1E1E1E1E1E1E1E1E1E1E1E1E1E1E1E1E1E1E1E1E1E1E1E1E1E1E1E1E1E1E1E1E1E1E1E1E1E1E1E1E1E1E1E1E1E1E128BEE1E1E1E1E1E1E1E1E1E1
310
E1E1E1E1E1E1E1E1E1E1E1E1E1E1E1E1E1E1E1E1E1E1E1E1E1E1E1E1E1E1E1E1E1E1E1E1E1E1E1E1E1E1E1E1E1E1E1E1E1E1E1E1E1E1E1E1BEE1E1E1E1E1E1BEBEE1E1E1E1E1E1E1E1E1E1E1E1E1E1E1E1E1E1E1E1E1E1E1E1E1E1E1E1E1E1E1E1E1E1E1E1E1E1E1E1E1E1E1E1E1E1E1E1E1E1E1E1E1E1E1E1E1E1E1E1E1E1
310
E1E1E1E1E1E1E1E1E1E1E1E1E1E1E1E1E1E1E1E1E1E1E1E1E1E1E1E1E1E1E1E1E1E1E1E1E1E1E1E1E1E1E1E1E1E1E1E1E1E1E1E1E1BEE1E1E1E1E1E1E1E1E1E1E1E1E1E1E1E1E1E1E1E1E1E1E1E1E1E1E1E1E1E1E1E1E1E1E1E1E1E1E1E1E1E1E1E1E1E1E1E1E1E1E1E1E1E1E1E1E1E1E1E1E1E1E128BEE1E1E1E1E1E1E1E1
310
E1E1E1E1E1E1E1E1E1E1E1E1E1E1E1E1E1E1E1E1E1E1E1E1E1E1E1E1E1E1E1E1E1E1E1E1E1E1E1E1E1E1E1E1E1E1E1E1E1E1E1E1E1E1E1E1E1E1BEE1E1E1E1E1E1BEBEE1E1E1E1E1E1E1E1E1E1E1E1E1E1E1E1E1E1E1E1E1E1E1E1E1E1E1E1E1E1E1E1E1E1E1E1E1E1E1E1E1E1E1E1E1E1E1E1E1E1E1E1E1E1E1E1E1E1E1E1
310
E1E1E1E1E1E1E1E1E1E1E1E1E1E1E1E1E1E1E1E1E1E1E1E1E1E1E1E1E1E1E1E1E1E1E1E1E1E1E1E1E1E1E1E1E1E1E1E1E1E1E1E1E1E1BEBEE1E1E1E1E1E1E1E1E1E1E1E1E1E1E1E1E1E1E1E1E1E1E1E1E1E1E1E1E1E1E1E1E1E1E1E1E1E1E1E1E1E1E1E1E1E1E1E1E1E1E1E1E1E1E1E1E1E1E1E1E1E1E128BEE1E1E1E1E1E1
310
E1E1E1E1E1E1E1E1E1E1E1E1E1E1E1E1E1E1E1E1E1E1E1E1E1E1E1E1E1E1E1E1E1E1E1E1E1E1E1E1E1E1E1E1E1E1E1E1E1E1E1E1E1E1E1E1E1E1E1E1BEE1E1E1E1E1E1BEBEE1E1E1E1E1E1E1E1E1E1E1E1E1E1E1E1E1E1E1E1E1E1E1E1E1E1E1E1E1E1E1E1E1E1E1E1E1E1E1E1E1E1E1E1E1E1E1E1E1E1E1E1E1E1E1E1E1E1
310
E1E1E1E1E1E1E1E1E1E1E1E1E1E1E1E1E1E1E1E1E1E1E1E1E1E1E1E1E1E1E1E1E1E1E1E1E1E1E1E1E1E1E1E1E1E1E1E1E1E1E1E1E1E1E1E1BEBEE1E1E1E1E1E1E1E1E1E1E1E1E1E1E1E1E1E1E1E1E1E1E1E1E1E1E1E1E1E1E1E1E1E1E1E1E1E1E1E1E1E1E1E1E1E1E1E1E1E1E1E1E1E1E1E1E1E1E1E1E1E1E128BEE1E1E1E1
310
E1E1E1E1E1E1E1E1E1E1E1E1E1E1E1E1E1E1E1E1E1E1E1E1E1E1E1E1E1E1E1E1E1E1E1E1E1E1E1E1E1E1E1E1E1E1E1E1E1E1E1E1E1E1E1E1E1E1E1E1E1E1BEE1E1E1E1E1E1BEBEE1E1E1E1E1E1E1E1E1E1E1E1E1E1E1E1E1E1E1E1E1E1E1E1E1E1E1E1E1E1E1E1E1E1E1E1E1E1E1E1E1E1E1E1E1E1E1E1E1E1E1E1E1E1E1E1
310
E1E1E1E1E1E1E1E1E1E1E1E1E1E1E1E1E1E1E1E1E1E1E1E1E1E1E1E1E1E1E1E1E1E1E1E1E1E1E1E1E1E1E1E1E1E1E1E1E1E1E1E1E1E1E1E1E1E1E1BEE1E1E1E1E1E1E1E1E1E1E1E1E1E1E1E1E1E1E1E1E1E1E1E1E1E1E1E1E1E1E1E1E1E1E1E1E1E1E1E1E1E1E1E1E1E1E1E1E1E1E1E1E1E1E1E1E1E1E1E1E1E1E128BEE1E1
310
E1E1E1E1E1E1E1E1E1E1E1E1E1E1E1E1E1E1E1E1E1E1E1E1E1E1E1E1E1E1E1E1E1E1E1E1E1E1E1E1E1E1E1E1E1E1E1E1E1E1E1E1E1E1E1E1E1E1E1E1E1E1E1E1BEE1E1E1E1E1E1BEBEE1E1E1E1E1E1E1E1E1E1E1E1E1E1E1E1E1E1E1E1E1E1E1E1E1E1E1E1E1E1E1E1E1E1E1E1E1E1E1E1E1E1E1E1E1E1E1E1E1E1E1E1E1E1
310
E1BEBEBEBEBEBEBEBEBEBEBEBEE1E1E1E1E1E1E1E1E1E1E1E1E1E1E1E1E1E1BEBEBEBEBEBEBEBEE1E1E1E1E1E1E1E1E1E1E1E1E1E1E1E1E1E10FE1E10FBEE1E1E1E1E1E1E1E1E1E1E1E1E1E1E1E1E1E1E1E1E1E1E1E1E1E1E1E1E1E1E1E1E1E1E1E1E1E1E1E1E1E1E1E1E1E1E1E1E1E1E1E1E1E1E1E1E1E1E1E1E1E1E128BE
310
E1E1E1E1E1E1E1E1E1E1E1E1E1E1E1E1E1E1E1E1E1E1E1E1E1E1E1E1E1E1E1E1E1E1E1E1E1E1E1E1E1E1E1E1E1E1E1E1E1E1E1E1E1E1E1E1E1E1E1E1E1E1E1E1E1E1BEE1E1E1E1E1E1BEBEE1E1E1E1E1E1E1E1E1E1E1E1E1E1E1E1E1E1E1E1E1E1E1E1E1E1E1E1E1E1E1E1E1E1E1E1E1E1E1E1E1E1E1E1E1E1E1E1E1E1E1E1
310
E1E1BEE1E1E10F0FE1E10F0F0F0F0FE1E1E1E1E1E1E1E1E1E1E1E1E1E1E1E1E1BEE10F0F0FE10F0FE1E1E1E1E1E1E1E1E1E1E1E1E1E1E1E1E1E1E10F0F0F0FBEE1E1E1E1E1E1E1E1E1E1E1E1E1E1E1E1E1E1E1E1E1E1E1E1E1E1E1E1E1E1E1E1E1E1E1E1E1E1E1E1E1E1E1E1E1E1E1E1E1E1E1E1E1E1E1E1E1E1E1E1E1E1E1
310
28BEE1E1E1E1E1E1E1E1E1E1E1E1E1E1E1E1E1E1E1E1E1E1E1E1E1E1E1E1E1E1E1E1E1E1E1E1E1E1E1E1E1E1E1E1E1E1E1E1E1E1E1E1E1E1E1E1E1E1E1E1E1E1E1E1E1E1BEE1E1E1E1E1E1BE28E1E1E1E1E1E1E1E1E1E1E1E1E1E1E1E1E1E1E1E1E1E1E1E1E1E1E1E1E1E1E1E1E1E1E1E1E1E1E1E1E1E1E1E1E1E1E1E1E1E1
310
E1E1E1E1BEE1E1E10F0FE1E10F0FE10F0FE1E1E1E1E1E1E1E1E1E1E1E1E1E1E1E1E1BEE10FE10FE10F0FE1E1E1E1E1E1E1E1E1E1E1E1E1E1E1E1E1E1E1E1E1E1E1BEE1E1E1E1E1E1E1E1E1E1E1E1E1E1E1E1E1E1E1E1E1E1E1E1E1E1E1E1E1E1E1E1E1E1E1E1E1E1E1E1E1E1E1E1E1E1E1E1E1E1E1E1E1E1E1E1E1E1E1E1E1
310
E1E128BEE1E1E1E1E1E1E1E1E1E1E1E1E1E1E1E1E1E1E1E1E1E1E1E1E1E1E1E1E1E1E1E1E1E1E1E1E1E1E1E1E1E1E1E1E1E1E1E1E1E1E1E1E1E1E1E1E1E1E1E1E1E1E1E1E1E1BEE1E1E1E1E1E1BE28E1E1E1E1E1E1E1E1E1E1E1E1E1E1E1E1E1E1E1E1E1E1E1E1E1E1E1E1E1E1E1E1E1E1E1E1E1E1E1E1E1E1E1E1E1E1E1E1
310
E1E1E1E1E1BEE1E1E1E1E10F0FE10FE1E1E10FE1E1E1E1E1E1E1E1E1E1E1E1E1E1E1E1BEE1E10F0F0FE1E10FE1E1E1E1E1E1E1E1E1E1E1E1E1E1E1E1E1E1E1E1E1E1E1BEE1E1E1E1E1E1E1E1E1E1E1E1E1E1E1E1E1E1E1E1E1E1E1E1E1E1E1E1E1E1E1E1E1E1E1E1E1E1E1E1E1E1E1E1E1E1E1E1E1E1E1E1E1E1E1E1E1E1E1
310
E1E1E1E128BEE1E1E1E1E1E1E1E1E1E1E1E1E1E1E1E1E1E1E1E1E1E1E1E1E1E1E1E1E1E1E1E1E1E1E1E1E1E1E1E1E1E1E1E1E1E1E1E1E1E1E1E1E1E1E1E1E1E1E1E1E1E1E1E1E1E1BEE1E1E1E1E1E1BEBEE1E1E1E1E1E1E1E1E1E1E1E1E1E1E1E1E1E1E1E1E1E1E1E1E1E1E1E1E1E1E1E1E1E1E1E1E1E1E1E1E1E1E1E1E1E1
310
E1E1E1E1E1E1BEE1E1E1E1E1E1E1E1E10FE1E1E10FE1E1E1E1E1E1E1E1E1E1E1E1E1E1E1BEE1E1E1E1E1E1E1E10FE1E1E1E1E1E1E1E1E1E1E1E1E1E1E1E1E1E1E1E1E1E1E1E1E1E1E1E1E1E1E1E1E1E1E1E1E1E1E1E1E1E1E1E1E1E1E1E1E1E1E1E1E1E1E1E1E1E1E1E1E1E1E1E1E1E1E1E1E1E1E1E1E1E1E1E1E1E1E1E1E1
310
E1E1E1E1E1E128BEE1E1E1E1E1E1E1E1E1E1E1E1E1E1E1E1E1E1E1E1E1E1E1E1E1E1E1E1E1E1E1E1E1E1E1E1E1E1E1E1E1E1E1E1E1E1E1E1E1E1E1E1E1E1E1E1E1E1E1E1E1E1E1E1E1E1BEE1E1E1E1E1E1BEBEE1E1E1E1E1E1E1E1E1E1E1E1E1E1E1E1E1E1E1E1E1E1E1E1E1E1E1E1E1E1E1E1E1E1E1E1E1E1E1E1E1E1E1E1
310
E1E1E1E1E1E1E1E1BEE1E1E1E1E1E1E1E1E1E1E1E1E1E1E1E1E1E1E1E1E1E1E1E1E1E1E1E1E1BEE1E1E1E1E1E1E1E1E1E1E1E1E1E1E1E1E1E1E1E1E1E1E1E1E1E1E1E1E1E1E1E1E1E1E1E1E1E1E1E1E1E1E1E1E1E1E1E1E1E1E1E1E1E1E1E1E1E1E1E1E1E1E1E1E1E1E1E1E1E1E1E1E1E1E1E1E1E1E1E1E1E1E1E1E1E1E1E1
310
E1E1E1E1E1E1E1E128BEE1E1E1E1E1E1E1E1E1E1E1E1E1E1E1E1E1E1E1E1E1E1E1E1E1E1E1E1E1E1E1E1E1E1E1E1E1E1E1E1E1E1E1E1E1E1E1E1E1E1E1E1E1E1E1E1E1E1E1E1E1E1E1E1E1E1BEE1E1E1E1E1E1BEBEE1E1E1E1E1E1E1E1E1E1E1E1E1E1E1E1E1E1E1E1E1E1E1E1E1E1E1E1E1E1E1E1E1E1E1E1E1E1E1E1E1E1
310
E1E1E1E1E1E1E1E1E1BEE1E1E1E1E1E1E1E1E1E1E1E1E1E1E1E1E1E1E1E1E1E1E1E1E1E1E1E1E1BEE1E1E1E1E1E1E1E1E1E1E1E1E1E1E1E1E1E1E1E1E1E1E1E1E1E1E1E1E1E1E1E1E1E1E1E1E1E1E1E1E1E1E1E1E1E1E1E1E1E1E1E1E1E1E1E1E1E1E1E1E1E1E1E1E1E1E1E1E1E1E1E1E1E1E1E1E1E1E1E1E1E1E1E1E1E1E1
310
E1E1E1E1E1E1E1E1E1E128BEE1E1E1E1E1E1E1E1E1E1E1E1E1E1E1E1E1E1E1E1E1E1E1E1E1E1E1E1E1E1E1E1E1E1E1E1E1E1E1E1E1E1E1E1E1E1E1E1E1E1E1E1E1E1E1E1E1E1E1E1E1E1E1E1E1E1BEE1E1E1E1E1E1BEBEE1E1E1E1E1E1E1E1E1E1E1E1E1E1E1E1E1E1E1BEBEBEBEBEBEBEBEBEBEBEBEBEBEBEBEBEE2E2E2E2
310
E2E2E2E2E2E2E2E2E2E2E2E2E2E2E2E2E2E2E2E2E2E2E2E2E2E2E2E2E2E2E2E2E2E2E2E2E2E2E2E2E2E2E2E2E2E2E2E2E2E2E2E2E2E2E2E2E2E2E2E2E2E2E2E2E2E2E2E2E1E1E1E1E1E1E1E1E1E1E1E1E1E1E1E1E1E1E1E1E1E1E1E1E1E1E1E1E1E1E1E1E1E1E1E1E1E1E1E1E1E1E1E1E1E1E1E1E1E1E1E1E1E1E1E1E1E1E1
310
E1E1E1E1E1E1E1E1E1E1E1E128BEE1E1E1E1E1E1E1E1E1E1E1E1E1E1E1E1E1E1E1E1E1E1E1E1E1E1E1E1E1E1E1E1E1E1E1E1E1E1E1E1E1E1E1E1E1E1E1E1E1E1E1E1E1E1E1E1E1E1E1E1E1E1E1E1E1E1BEE1E1E1E1E1E1BEBEE1E1E1E1E1E1E1E1E1E1E1E1E1E1E1E1E1E1E1E1E1BEE1E1E1E1E1E1E1E1E1E1E1E1E1E1E2E1
310
E1E2E2E1E1E1E2E2E1E1E2E2BEE1E1E2E2E1E1E2E2E1E1E1E2E2E1E1E2E2E1E1E1E2E2E1E1E1E2E2E1E1E2E2E1E1E1E2E2E1E1E2E2E1E1E1E2E2E1E1E2E2E1E1E1E2E2E1E1E2E1E1E1E1E1E1E1E1E1E1E1E1E1E1E1E1E1E1E1E1E1E1E1E1E1E1E1E1E1E1E1E1E1E1E1E1E1E1E1E1E1E1E1E1E1E1E1E1E1E1E1E1E1E1E1E1E1
310
E1E1E1E1E1E1E1E1E1E1E1E1E1E128BEE1E1E1E1E1E1E1E1E1E1E1E1E1E1E1E1E1E1E1E1E1E1E1E1E1E1E1E1E1E1E1E1E1E1E1E1E1E1E1E1E1E1E1E1E1E1E1E1E1E1E1E1E1E1E1E1E1E1E1E1E1E1E1E1E1E1BEE1E1E1E1E1E1BEBEE1E1E1E1E1E1E1E1E1E1E1E1E1E1E1E1E1E1E1E1BEBEE1E1E1E1E1BEBEBEBEBEBEBEBEBE
310
E2BEBEE2E2E1E1E1E2E2E1E1E2E2E1E1E1E2E2E1E1E2E2E2E1E1E2E2E1E1E2E2E2E1E1E2E2E1E1E2E2E2E1BEE2E2E1E1E2E2E2E1E1E2E2E1E1E2E2E2E1E1E2E2E1E1E1E2E2E1E1E2E1E1E1E1E1E1E1E1E1E1E1E1E1E1E1E1E1E1E1E1E1E1E1E1E1E1E1E1E1E1E1E1E1E1E1E1E1E1E1E1E1E1E1E1E1E1E1E1E1E1E1E1E1E1E1
310
E1E1E1E1E1E1E1E1E1E1E1E1E1E1E1E128BEE1E1E1E1E1E1E1E1E1E1E1E1E1E1E1E1E1E1E1E1E1E1E1E1E1E1E1E1E1E1E1E1E1E1E1E1E1E1E1E1E1E1E1E1E1E1E1E1E1E1E1E1E1E1E1E1E1E1E1E1E1E1E1E1E1E1BEE1E1E1E1E1E1BEBEE1E1E1E1E1E1E1E1E1E1E1E1E1E1E1E1E1E1E1E1BEBEE1E1E1E1E1E1BEE1E1E1E1E1
310
E1E1E2E2E2E1E2E2E2E2E2E1E2E2E1E2E2E2E2E2E1E2E2E1E2E2E2E2E2E1E2E2E1E2E2E2E2E2E1E2E2E2E2E1E2E2E1E2E2E2E2E2E1E2E2E1E2E2E2E2E2E1E2E2E1E2E2E2E2E2E1E2E2E2E1E1E1E1E1E1E1E1E1E1E1E1E1E1E1E1E1E1E1E1E1E1E1E1E1E1E1E1E1E1E1E1E1E1E1E1E1E1E1E1E1E1E1E1E1E1E1E1E1E1E1E1E1
310
E1E1E1E1E1E1E1E1E1E1E1E1E1E1E1E1E1E128BEE1E1E1E1E1E1E1E1E1E1E1E1E1E1E1E1E1E1E1E1E1E1E1E1E1E1E1E1E1E1E1E1E1E1E1E1E1E1E1E1E1E1E1E1E1E1E1E1E1E1E1E1E1E1E1E1E1E1E1E1E1E1E1E1E1E1BEE1E1E1E1E1E1BEBEE1E1E1E1E1E1E1E1E1E1E1E1E1E1E1E1E1E1E1E1E1BEE1E1E1E1E1E1BEBEE1E1
310
E1E1E1E1E2E2E2E1E1E2E1E2E1E1E2E2E1E1E2E1E2E1E1E2E2E1E1E2E1E2E1E1E2E2E1E1E2E1E2E1E1E2E1E2E1E1E2E2E1E1E2E1E2E1E1E2E2E1E1E2E1E2E1E1E2E2E1E1E2E1E2E1E1E2E2E2E1E1E1E1E1E1E1E1E1E1E1E1E1E1E1E1E1E1E1E1E1E1E1E1E1E1E1E1E1E1E1E1E1E1E1E1E1E1E1E1E1E1E1E1E1E1E1E1E1E1E1
310
E1E1E1E1E1E1E1E1E1E1E1E1E1E1E1E1E1E1E1E128BEE1E1E1E1E1E1E1E1E1E1E1E1E1E1E1E1E1E1E1E1E1E1E1E1E1E1E1E1E1E1E1E1E1E1E1E1E1E1E1E1E1E1E1E1E1E1E1E1E1E1E1E1E1E1E1E1E1E1E1E1E1E1E1E1E1E1BEE1E1E1E1E1E1BEBEE1E1E1E1E1E1E1E1E1E1E1E1E1E1E1E1E1E1E1E1E1BEE1E1E1E1E1E1BEBE
310
E1E1E1E1E1E1E2E1E1E1E1E1E1E1E1E1E1E1E1E1E1E1E1E1E1E1E1E1E1E1E1E1E1E1E1E1E1E1E1E1E1E1E1E1E1E1E1BEE1E1E1E1E1E1E1E1E1E1E1E1E1E1E1E1E1E1E1E1E1E1E1E1E1E1E1E1E1E2E1E1E1E1E1E1E1E1E1E1E1E1E1E1E1E1E1E1E1E1E1E1E1E1E1E1E1E1E1E1E1E1E1E1E1E1E1E1E1E1E1E1E1E1E1E1E1E1E1
310
E1E1E1E1E1E1E1E1E1E1E1E1E1E1E1E1E1E1E1E1E1E128BEE1E1E1E1E1E1E1E1E1E1E1E1E1E1E1E1E1E1E1E1E1E1E1E1E1E1E1E1E1E1E1E1E1E1E1E1E1E1E1E1E1E1E1E1E1E1E1E1E1E1E1E1E1E1E1E1E1E1E1E1E1E1E1E1E1E1BEE1E1E1E1E1E1BEBEE1E1E1E1E1E1E1E1E1E1E1E1E1E1E1E1E1E1E1E1E1BEE1E1E1E1E1E1
310
BEE1E1E1E1E1E1E1E2E1E1E2E2E2E1E1E1E1E1E1E2E2E2E1E1E1E1E1E1E2E2E2E1E1E1E1E1E1E2E2E2E1E1E1E1E1E1E2E2E2E1E1E1E1E1E1E2E2E2E1E1E1E1E1E1E2E2E2E1E1E1E1E1E1E2E2E2E1E1E2E1E1E1E1E1E1E1E1E1E1E1E1E1E1E1E1E1E1E1E1E1E1E1E1E1E1E1E1E1E1E1E1E1E1E1E1E1E1E1E1E1E1E1E1E1E1E1
310
E1E1E1E1E1E1E1E1E1E1E1E1E1E1E1E1E1E1E1E1E1E1E1E128BEE1E1E1E1E1E1E1E1E1E1E1E1E1E1E1E1E1E1E1E1E1E1E1E1E1E1E1E1E1E1E1E1E1E1E1E1E1E1E1E1E1E1E1E1E1E1E1E1E1E1E1E1E1E1E1E1E1E1E1E1E1E1E1E1E1E1BEE1E1E1E1E1E1BEBEE1E1E1E1E1E1E1E1E1E1E1E1E1E1E1E1E1E1E1E1E1BEE1E1E1E1
310
E1E1BEE1E1E1E1E1E1E1E2E1E1E2E1E2E1E1E1E1E1E1E2E1E2E1E1E1E1E1E1E2E1E2E1E1E1E1E1E1E2E1E2E1E1E1E1E1E1E2BEE2E1E1E1E1E1E1E2E1E2E1E1E1E1E1E1E2E1E2E1E1E1E1E1E1E2BEE2BEBEE2BEBEBEBEBEBEBEBEBEBEBEBEBEBEBEBEBEE1E1E1E1E1E1E1E1E1E1E1E1E1E1E1E1E1E1E1E1E1E1E1E1E1E1E1E1
310
E1E1E1E1E1E1E1E1E1E1E1E1E1E1E1E1E1E1E1E1E1E1E1E1E1E128BEE1E1E1E1E1E1E1E1E1E1E1E1E1E1E1E1E1E1E1E1E1E1E1E1E1E1E1E1E1E1E1E1E1E1E1E1E1E1E1E1E1E1E1E1E1E1E1E1E1E1E1E1E1E1E1E1E1E1E1E1E1E1E1E1E1E1BEE1E1E1E1E1E1BEBEE1E1E1E1E1E1E1E1E1E1E1E1E1E1E1E1E1E1E1E1E1BEE1E1
310
E1E1E1E1BEE1E1E1E1E1E1E1E2E1E1E2E2E2E1E1E1E1E1E1E2E2E2E1E1E1E1E1E1E2E2E2E1E1E1E1E1E1E2E2E2E1E1E1E1E1E1E2E2E2E1E1E1E1E1E1E2E2E2E1E1E1E1E1E1E2E2E2E1E1E1E1E1E1E2E2E2E1E1E2E1E1E1E1E10FE1BEE1E1E1E1E1E1BEE1E1E1E1E1E1E1E1E1E1E1E1E1E1E1E1E1E1E1E1E1E1E1E1E1E1E1E1
310
E1E1E1E1E1E1E1E1E1E1E1E1E1E1E1E1E1E1E1E1E1E1E1E1E1E1E1E128BEE1E1E1E1E1E1E1E1E1E1E1E1E1E1E1E1E1E1E1E1E1E1E1E1E1E1E1E1E1E1E1E1E1E1E1E1E1E1E1E1E1E1E1E1E1E1E1E1E1E1E1E1E1E1E1E1E1E1E1E1E1E1E1E1E1E1BEE1E1E1E1E1E1BEBEE1E1E1E1E1E1E1E1E1E1E1E1E1E1E1E1E1E1E1E1E1BE
310
E1E1E1E1E1E1BEE1E1E1E1E1E1E1E2E1E1E1E1E1E1E1E1E1E1E1E1E1E1E1E1E1E1E1E1E1E1E1E1E1E1E1E1E1E1E1E1E1E1E1E1E1E1E1E1E1E1E1E1E1E1E1E1E1E1E1E1E1E1E1E1E1E1E1E1E1E1E1E1E1E1E1E1E1E1E2E1E1E10F0F0FBEBEE1E1E1E1E1E1BEBEE1E1E1E1E1E1E1E1E1E1E1E1E1E1E1E1E1E1E1E1E1E1E1E1E1
310
E1E1E1E1E1E1E1E1E1E1E1E1E1E1E1E1E1E1E1E1E1E1E1E1E1E1E1E1E1E128BEE1E1E1E1E1E1E1E1E1E1E1E1E1E1E1E1E1E1E1E1E1E1E1E1E1E1E1E1E1E1E1E1E1E1E1E1E1E1E1E1E1E1E1E1E1E1E1E1E1E1E1E1E1E1E1E1E1E1E1E1E1E1E1E1E1E1BEE1E1E1E1E1E1BEBEE1E1E1E1E1E1E1E1E1E1E1E1E1E1E1E1E1E1E1E1
310
E1BEE1E1E1E1E1E1BEE1E1E1E1E1E1E1E2E1E1E1E1E1E1E1E1E1E1E1E1E1E1E1E1E1E1E1E1E1E1E1E1E1E1E1E1E1E1E1E1E1E1E1E1E1E1E1E1E1E1E1E1E1E1E1E1E1E1E1E1E1E1E1E1E1E1E1E1E1E1E1E1E1E1E1E1E1E1E2E1E1E1E10F0F0FBEE1E1E1E1E1E1BEBEE1E1E1E1E1E1E1E1E1E1E1E1E1E1E1E1E1E1E1E1E1E1E1
310
E1E1E1E1E1E1E1E1E1E1E1E1E1E1E1E1E1E1E1E1E1E1E1E1E1E1E1E1E1E1E1E128BEE1E1E1E1E1E1E1E1E1E1E1E1E1E1E1E1E1E1E1E1E1E1E1E1E1E1E1E1E1E1E1E1E1E1E1E1E1E1E1E1E1E1E1E1E1E1E1E1E1E1E1E1E1E1E1E1E1E1E1E1E1E1E1E1E1E1BEE1E1E1E1E1E1BEBEE1E1E1E1E1E1E1E1E1E1E1E1E1E1E1E1E1E1
310
E1E1E1BEE1E1E1E1E1E1BEE1E1E1E1E1E1E1E2E1E1E1E1E1E1E1E1E1E1E1E1E1E1E1E1E1E1E1E1E1E1E1E1E1E1E1E1E1E1E1E1E1E1E1E1E1E1E1E1E1E1E1E1E1E1E1E1E1E1E1E1E1E1E1E1E1E1E1E1E1E1E1E1E1E1E1E1E1E1E2E1E1E1E1E10FE1BEE1E1E1E1E1E1BEE1E1E1E1E1E1E1E1E1E1E1E1E1E1E1E1E1E1E1E1E1E1
310
E1E1E1E1E1E1E1E1E1E1E1E1E1E1E1E1E1E1E1E1E1E1E1E1E1E1E1E1E1E1E1E1E1E128BEE1E1E1E1E1E1E1E1E1E1E1E1E1E1E1E1E1E1E1E1E1E1E1E1E1E1E1E1E1E1E1E1E1E1E1E1E1E1E1E1E1E1E1E1E1E1E1E1E1E1E1E1E1E1E1E1E1E1E1E1E1E1E1E1E1E1BEE1E1E1E1E1E1BEBEE1E1E1E1E1E1E1E1E1E1E1E1E1E1E1E1
310
E1E1E1E1E1BEE1E1E1E1E1E1BEE1E1E1E1E1E1E1E2E1E1E1E1E1E1E1E1E1E1E1E1E1E1E1E1E1E1E1E1E1E1E1E1E1E1E1E1E1E1E1E1E1E1E1E1E1E1E1E1E1E1E1E1E1E1E1E1E1E1E1E1E1E1E1E1E1E1E1E1E1E1E1E1E1E1E1E1E1E1E2E1E1E10F0F0F0FBEE1E1E1E1E1E1BEE1E1E1E1E1E1E1E1E1E1E1E1E1E1E1E1E1E1E1E1
310
E1E1E1E1E1E1E1E1E1E1E1E1E1E1E1E1E1E1E1E1E1E1E1E1E1E1E1E1E1E1E1E1E1E1E1E128BEE1E1E1E1E1E1E1E1E1E1E1E1E1E1E1E1E1E1E1E1E1E1E1E1E1E1E1E1E1E1E1E1E1E1E1E1E1E1E1E1E1E1E1E1E1E1E1E1E1E1E1E1E1E1E1E1E1E1E1E1E1E1E1E1E1E1BEE1E1E1E1E1E1BEBEE1E1E1E1E1E1E1E1E1E1E1E1E1E1
310
E1E1E1E1E1E1E1BEE1E1E1E1E1E1BEE1E1E1E1E1E1E1E2E1E1E1E1E1E1E1E1E1E1E1E1E1E1E1E1E1E1E1E1E1E1E1E1E1E1E1E1E1E1E1E1E1E1E1E1E1E1E1E1E1E1E1E1E1E1E1E1E1E1E1E1E1E1E1E1E1E1E1E1E1E1E1E1E1E1E1E1E1E1E2E1E1E1E1E10FE1BEE1E1E1E1E1E1BEE1E1E1E1E1E1E1E1E1E1E1E1E1E1E1E1E1E1
310
E1E1E1E1E1E1E1E1E1E1E1E1E1E1E1E1E1E1E1E1E1E1E1E1E1E1E1E1E1E1E1E1E1E1E1E1E1E128BEE1E1E1E1E1E1E1E1E1E1E1E1E1E1E1E1E1E1E1E1E1E1E1E1E1E1E1E1E1E1E1E1E1E1E1E1E1E1E1E1E1E1E1E1E1E1E1E1E1E1E1E1E1E1E1E1E1E1E1E1E1E1E1E1E1E1BEE1E1E1E1E1E1BEBEE1E1E1E1E1E1E1E1E1E1E1E1
310
E1E1E1E1E1E1E1E1E1BEE1E1E1E1E1E1BEE1E1E1E1E1E1E1E2E1E1E1E1E1E1E1E1E1E1E1E1E1E1E1E1E1E1E1E1E1E1E1E1E1E1E1E1E1E1E1E1E1E1E1E1E1E1E1E1E1E1E1E1E1E1E1E1E1E1E1E1E1E1E1E1E1E1E1E1E1E1E1E1E1E1E1E1E1E1E2E1E1E1E1E10F0FBEE1E1E1E1E1E1BEE1E1E1E1E1E1E1E1E1E1E1E1E1E1E1E1
310
E1E1E1E1E1E1E1E1E1E1E1E1E1E1E1E1E1E1E1E1E1E1E1E1E1E1E1E1E1E1E1E1E1E1E1E1E1E1E1E128BEE1E1E1E1E1E1E1E1E1E1E1E1E1E1E1E1E1E1E1E1E1E1E1E1E1E1E1E1E1E1E1E1E1E1E1E1E1E1E1E1E1E1E1E1E1E1E1E1E1E1E1E1E1E1E1E1E1E1E1E1E1E1E1E1E1E1BEE1E1E1E1E1E1BEBEE1E1E1E1E1E1E1E1E1E1
310
E1E1E1E1E1E1E1E1E1E1E1BEE1E1E1E1E1E1BEE1E1E1E1E1E1E1E2E1E1E1E1E1E1E1E1E1E1E1E1E1E1E1E1E1E1E1E1E1E1E1E1E1E1E1E1E1E1E1E1E1E1E1E1E1E1E1E1E1E1E1E1E1E1E1E1E1E1E1E1E1E1E1E1E1E1E1E1E1E1E1E1E1E1E1E1E1E1E2E1E1E10F0F0FE1BEE1E1E1E1E1E1BEE1E1E1E1E1E1E1E1E1E1E1E1E1E1
310
E1E1E1E1E1E1E1E1E1E1E1E1E1E1E1E1E1E1E1E1E1E1E1E1E1E1E1E1E1E1E1E1E1E1E1E1E1E1E1E1E1E128BEE1E1E1E1E1E1E1E1E1E1E1E1E1E1E1E1E1E1E1E1E1E1E1E1E1E1E1E1E1E1E1E1E1E1E1E1E1E1E1E1E1E1E1E1E1E1E1E1E1E1E1E1E1E1E1E1E1E1E1E1E1E1E1E1E1E1BEE1E1E1E1E1E1BEBEE1E1E1E1E1E1E1E1
310
E1E1E1E1E1E1E1E1E1E10FE1E1BEE1E1E10FE1E1BEE1E1E1E1E1E1E1E2E1E1E1E1E1E1E1E1E1E1E1E1E1E1E1E1E1E1E1E1E1E1E1E1E1E1E1E1E1E1E1E1E1E1E1E1E1E1E1E1E1E1E1E1E1E1E1E1E1E1E1E1E1E1E1E1E1E1E1E1E1E1E1E1E1E1E1E1E1E1E2E1E1E1E10F0F0FBEE1E1E1E1E1E1BEE1E1E1E1E1E1E1E1E1E1E1E1
310
E1E1E1E1E1E1E1E1E1E1E1E1E1E1E1E1E1E1E1E1E1E1E1E1E1E1E1E1E1E1E1E1E1E1E1E1E1E1E1E1E1E1E1E128BEE1E1E1E1E1E1E1E1E1E1E1E1E1E1E1E1E1E1E1E1E1E1E1E1E1E1E1E1E1E1E1E1E1E1E1E1E1E1E1E1E1E1E1E1E1E1E1E1E1E1E1E1E1E1E1E1E1E1E1E1E1E1E1E1E1E1BEE1E1E1E1E1E1BEBEE1E1E1E1E1E1
310
E1E1E1E1E1E1E1E1E1E1E10F0F0F0FBEE1E10F0F0F0FBEE1E1E1E1E1E1E1E2E1E1E1E1E1E1E1E1E1E1E1E1E1E1E1E1E1E1E1E1E1E1E1E1E1E1E1E1E1E1E1E1E1E1E1E1E1E1E1E1E1E1E1E1E1E1E1E1E1E1E1E1E1E1E1E1E1E1E1E1E1E1E1E1E1E1E1E1E1E1E2E1E1E10F0FE10FBEE1E10F0F0F0FBEE1E1E1E1E1E1E1E1E1E1
310
E1E1E1E1E1E1E1E1E1E1E1E1E1E1E1E1E1E1E1E1E1E1E1E1E1E1E1E1E1E1E1E1E1E1E1E1E1E1E1E1E1E1E1E1E1E128BEE1E1E1E1E1E1E1E1E1E1E1E1E1E1E1E1E1E1E1E1E1E1E1E1E1E1E1E1E1E1E1E1E1E1E1E1E1E1E1E1E1E1E1E1E1E1E1E1E1E1E1E1E1E1E1E1E1E1E1E1E1E1E1E1E1E1BEE1E1E1E1E1E1BEBEE1E1E1E1
310
E1E1E1E1E1E1E1E1E1E1E1E1E10F0FE10FBEE1E10F0FE10FBEE1E1E1E1E1E1E1E2E1E1E1E1E1E1E1E1E1E1E1E1E1E1E1E1E1E1E1E1E1E1E1E1E1E1E1E1E1E1E1E1E1E1E1E1E1E1E1E1E1E1E1E1E1E1E1E1E1E1E1E1E1E1E1E1E1E1E1E1E1E1E1E1E1E1E1E1E1E1E2E1E1E10F0F0F0FBEE1E10F0F0F0FBEE1E1E1E1E1E1E1E1
310
E1E1E1E1E1E1E1E1E1E1E1E1E1E1E1E1E1E1E1E1E1E1E1E1E1E1E1E1E1E1E1E1E1E1E1E1E1E1E1E1E1E1E1E1E1E1E1E128BEE1E1E1E1E1E1E1E1E1E1E1E1E1E1E1E1E1E1E1E1E1E1E1E1E1E1E1E1E1E1E1E1E1E1E1E1E1E1E1E1E1E1E1E1E1E1E1E1E1E1E1E1E1E1E1E1E1E1E1E1E1E1E1E1E1E1BEE1E1E1E1E1E1BEBEE1E1
310
E1E1E1E1E1E1E1E1E1E1E1E1E1E1E10F0F0F0FBEE1E1E10F0F0FBEE1E1E1E1E1E1E1E2E1E1E2E2E2E1E1E1E1E1E1E2E2E2E1E1E1E1E1E1E2E2E2E1E1E1E1E1E1E2E2E2E1E1E1E1E1E1E2E2E2E1E1E1E1E1E1E2E2E2E1E1E1E1E1E1E2E2E2E1E1E1E1E1E1E2E2E2E1E1E2E1E1E1E1E1E1E1BEE1E10F0F0F0FBEE1E1E1E1E1E1
310
E1E1E1E1E1E1E1E1E1E1E1E1E1E1E1E1E1E1E1E1E1E1E1E1E1E1E1E1E1E1E1E1E1E1E1E1E1E1E1E1E1E1E1E1E1E1E1E1E1E128BEE1E1E1E1E1E1E1E1E1E1E1E1E1E1E1E1E1E1E1E1E1E1E1E1E1E1E1E1E1E1E1E1E1E1E1E1E1E1E1E1E1E1E1E1E1E1E1E1E1E1E1E1E1E1E1E1E1E1E1E1E1E1E1E1E1E1BEE1E1E1E1E1E1BEBE
310
E1E1E1E1E1E1E1E1E1E1E1E1E1E1E1E1E10FE1E10FBEE1E1E10FE1E1BEE1E1E1E1E1E1E1E2E1E1E2E1E2E1E1E1E1E1E1E2E1E2E1E1E1E1E1E1E2E1E2E1E1E1E1E1E1E2E1E2E1E1E1E1E1E1E2E1E2E1E1E1E1E1E1E2E1E2E1E1E1E1E1E1E2E1E2E1E1E1E1E1E1E2BEE2BEBEE2BEBEBEBEBEBEBEBEBEE10F0F0F0FBEE1E1E1E1
310
E1E1E1E1E1E1E1E1E1E1E1E1E1E1E1E1E1E1E1E1E1E1E1E1E1E1E1E1E1E1E1E1E1E1E1E1E1E1E1E1E1E1E1E1E1E1E1E1E1E1E1E128BEE1E1E1E1E1E1E1E1E1E1E1E1E1E1E1E1E1E1E1E1E1E1E1E1E1E1E1E1E1E1E1E1E1E1E1E1E1E1E1E1E1E1E1E1E1E1E1E1E1E1E1E1E1E1E1E1E1E1E1E1E1E1E1E1E1E1BEE1E1E1E1E1E1
310
BEBEE1E1E1E1E1E1E1E1E1E1E1E1E1E1E1E1E10F0F0F0FBEE1E10F0F0F0FBEE1E1E1E1E1E1E1E2E1E1E2E2E2E1E1E1E1E1E1E2E2E2E1E1E1E1E1E1E2E2E2E1E1E1E1E1E1E2E2E2E1E1E1E1E1E1E2E2E2E1E1E1E1E1E1E2E2E2E1E1E1E1E1E1E2E2E2E1E1E1E1E1E1E2E2E2E1E1E2E1E1E1E1E1E1E1E1E1E1E1E1E10FBEE1E1
310
E1E1E1E1E1E1E1E1E1E1E1E1E1E1E1E1E1E1E1E1E1E1E1E1E1E1E1E1E1E1E1E1E1E1E1E1E1E1E1E1E1E1E1E1E1E1E1E1E1E1E1E1E1E128BEE1E1E1E1E1E1E1E1E1E1E1E1E1E1E1E1E1E1E1E1E1E1E1E1E1E1E1E1E1E1E1E1E1E1E1E1E1E1E1E1E1E1E1E1E1E1E1E1E1E1E1E1E1E1E1E1E1E1E1E1E1E1E1E1E1E1BEE1E1E1E1
310
E1E1BEBEE1E1E1E1E1E1E1E1E1E1E1E1E1E1E1E1E1E1E1E10FBEE1E1E1E1E10FBEE1E1E1E1E1E1E1E2E1E1E1E1E1E1E1E1E1E1E1E1E1E1E1E1E1E1E1E1E1E1E1E1E1E1E1E1E1E1E1E1E1E1E1E1E1E1E1E1E1E1E1E1E1E1E1E1E1E1E1E1E1E1E1E1E1E1E1E1E1E1E1E1E1E1E1E1E1E1E2E1E1E1E1E1E1E1E1E1E10F0F0F0FBE
310
E1E1E1E1E1E1E1E1E1E1E1E1E1E1E1E1E1E1E1E1E1E1E1E1E1E1E1E1E1E1E1E1E1E1E1E1E1E1E1E1E1E1E1E1E1E1E1E1E1E1E1E1E1E1E1E128BEE1E1E1E1E1E1E1E1E1E1E1E1E1E1E1E1E1E1E1E1E1E1E1E1E1E1E1E1E1E1E1E1E1E1E1E1E1E1E1E1E1E1E1E1E1E1E1E1E1E1E1E1E1E1E1E1E1E1E1E1E1E1E1E1E1E1BEE1E1
310
E1E1E1E1BEBEE1E1E1E1E1E1E1E1E1E1E1E1E1E1E1E1E1E10F0F0FBEE1E1E1E10F0FBEE1E1E1E1E1E1E1E2E1E1E1E1E1E1E1E1E1E1E1E1E1E1E1E1E1E1E1E1E1E1E1E1E1E1E1E1E1E1E1E1E1E1E1E1E1E1E1E1E1E1E1E1E1E1E1E1E1E1E1E1E1E1E1E1E1E1E1E1E1E1E1E1E1E1E1E1E1E1E2E1E1E1E1E1E1E1E1E1E10F0F0F
310
0FBEE1E1E1E1E1E1E1E1E1E1E1E1E1E1E1E1E1E1E1E1E1E1E1E1E1E1E1E1E1E1E1E1E1E1E1E1E1E1E1E1E1E1E1E1E1E1E1E1E1E1E1E1E1E1E1E128BEE1E1E1E1E1E1E1E1E1E1E1E1E1E1E1E1E1E1E1E1E1E1E1E1E1E1E1E1E1E1E1E1E1E1E1E1E1E1E1E1E1E1E1E1E1E1E1E1E1E1E1E1E1E1E1E1E1E1E1E1E1E1E1E1E1E1BE
310
E1E1E1E1E1E1BEBEE1E1E1E1E1E1E1E1E1E1E1E1E1E1E1E1E10F0F0F0FBEE1E10F0F0F0FBEE1E1E1E1E1E1E1E2E1E1E1E1E1E1E1E1E1E1E1E1E1E1E1E1E1E1E1E1E1E1E1E1E1E1E1E1E1E1E1E1E1E1E1E1E1E1E1E1E1E1E1E1E1E1E1E1E1E1E1E1E1E1E1E1E1E1E1E1E1E1E1E1E1E1E1E1E1E1E2E1E1E1E1E1E1E1E1E1E1E1
310
E1E1E1BEE1E1E1E1E1E1E1E1E1E1E1E1E1E1E1E1E1E1E1E1E1E1E1E1E1E1E1E1E1E1E1E1E1E1E1E1E1E1E1E1E1E1E1E1E1E1E1E1E1E1E1E1E1E1E1E128BEE1E1E1E1E1E1E1E1E1E1E1E1E1E1E1E1E1E1E1E1E1E1E1E1E1E1E1E1E1E1E1E1E1E1E1E1E1E1E1E1E1E1E1E1E1E1E1E1E1E1E1E1E1E1E1E1E1E1E1E1E1E1E1E1E1
310
E1BEE1E1E1E1E1E1BEBEE1E1E1E1E1E1E1E1E1E1E1E1E1E1E1E1E1E1E1E1E1BEE1E1E1E1E1E1BEE1E1E1E1E1E1E1E2E1E1E1E1E1E1E1E1E1E1E1E1E1E1E1E1E1E1E1E1E1E1E1E1E1E1E1E1E1E1E1E1E1E1E1E1E1E1E1E1E1E1E1E1E1E1E1E1E1E1E1E1E1E1E1E1E1E1E1E1E1E1E1E1E1E1E1E1E1E1E2E1E1E1E1E1E1E1E1E1
310
E1E1E1E1E1BEE1E1E1E1E1E1E1E1E1E1E1E1E1E1E1E1E1E1E1E1E1E1E1E1E1E1E1E1E1E1E1E1E1E1E1E1E1E1E1E1E1E1E1E1E1E1E1E1E1E1E1E1E1E1E1E128BEE1E1E1E1E1E1E1E1E1E1E1E1E1E1E1E1E1E1E1E1E1E1E1E1E1E1E1E1E1E1E1E1E1E1E1E1E1E1E1E1E1E1E1E1E1E1E1E1E1E1E1E1E1E1E1E1E1E1E1E1E1E1E1
310
E1E1E1BEE1E1E1E1E1E1BEBEE1E1E1E1E1E1E1E1E1E1E1E1E1E1E1E1E1E1E1E1E1BEE1E1E1E1E1E1BEE1E1E1E1E1E1E1E2E1E1E1E1E1E1E1E1E1E1E1E1E1E1E1E1E1E1E1E1E1E1E1E1E1E1E1E1E1E1E1E1E1E1E1E1E1E1E1E1E1E1E1E1E1E1E1E1E1E1E1E1E1E1E1E1E1E1E1E1E1E1E1E1E1E1E1E1E1E1E2E1E1E1E1E1E1E1
310
E1E1E1E1E1E1E1BEE1E1E1E1E1E1E1E1E1E1E1E1E1E1E1E1E1E1E1E1E1E1E1E1E1E1E1E1E1E1E1E1E1E1E1E1E1E1E1E1E1E1E1E1E1E1E1E1E1E1E1E1E1E1E1E128BEE1E1E1E1E1E1E1E1E1E1E1E1E1E1E1E1E1E1E1E1E1E1E1E1E1E1E1E1E1E1E1E1E1E1E1E1E1E1E1E1E1E1E1E1E1E1E1E1E1E1E1E1E1E1E1E1E1E1E1E1E1
310
E1E1E1E1E1BEE1E1E1E1E1E1BEBEE1E1E1E1E1E1E1E1E1E1E1E1E1E1E1E1E1E1E1E1E1BEE1E1E1E1E1E1BEE1E1E1E1E1E1E1E2E1E1E1E1E1E1E1E1E1E1E1E1E1E1E1E1E1E1E1E1E1E1E1E1E1E1E1E1E1E1E1E1E1E1E1E1E1E1E1E1E1E1E1E1E1E1E1E1E1E1E1E1E1E1E1E1E1E1E1E1E1E1E1E1E1E1E1E1E1E1E2E1E1E1E1E1
310
E1E1E1E1E1E1E1E1E1BEE1E1E1E1E1E1E1E1E1E1E1E1E1E1E1E1E1E1E1E1E1E1E1E1E1E1E1E1E1E1E1E1E1E1E1E1E1E1E1E1E1E1E1E1E1E1E1E1E1E1E1E1E1E1E1E128BEE1E1E1E1E1E1E1E1E1E1E1E1E1E1E1E1E1E1E1E1E1E1E1E1E1E1E1E1E1E1E1E1E1E1E1E1E1E1E1E1E1E1E1E1E1E1E1E1E1E1E1E1E1E1E1E1E1E1E1
310
E1E1E1E1E1E1E1BEE1E1E1E1E1E1BEBEE1E1E1E1E1E1E1E1E1E1E1E1E1E1E1E1E1E1E1E1E1BEE1E1E1E1E1E1BEE1E1E1E1E1E1E1E2E1E1E1E1E1E1E1E1E1E1E1E1E1E1E1E1E1E1E1E1E1E1E1E1E1E1E1E1E1E1E1E1E1E1E1E1E1E1E1E1E1E1E1E1E1E1E1E1E1E1E1E1E1E1E1E1E1E1E1E1E1E1E1E1E1E1E1E1E1E1E2E1E1E1
310
E1E1E1E1E1E1E1E1E1E1E1BEE1E1E1E1E1E1E1E1E1E1E1E1E1E1E1E1E1E1E1E1E1E1E1E1E1E1E1E1E1E1E1E1E1E1E1E1E1E1E1E1E1E1E1E1E1E1E1E1E1E1E1E1E1E1E1E128BEE1E1E1E1E1E1E1E1E1E1E1E1E1E1E1E1E1E1E1E1E1E1E1E1E1E1E1E1E1E1E1E1E1E1E1E1E1E1E1E1E1E1E1E1E1E1E1E1E1E1E1E1E1E1E1E1E1
310
E1E1E1E1E1E1E1E1E1BEE1E1E1E1E1E1BEBEE1E1E1E1E1E1E1E1E1E1E1E1E1E1E1E1E1E1E1E1E1BEE1E1E1E1E1E1BEE1E1E1E1E1E1E1E2E1E1E1E1E1E1E1E1E1E1E1E1E1E1E1E1E1E1E1E1E1E1E1E1E1E1E1E1E1E1E1E1E1E1E1E1E1E1E1E1E1E1E1E1E1E1E1E1E1E1E1E1E1E1E1E1E1E1E1E1E1E1E1E1E1E1E1E1E1E1E2E1
310
E1E1E1E1E1E1E1E1E1E1E1E1E1BEE1E1E1E1E1E1E1E1E1E1E1E1E1E1E1E1E1E1E1E1E1E1E1E1E1E1E1E1E1E1E1E1E1E1E1E1E1E1E1E1E1E1E1E1E1E1E1E1E1E1E1E1E1E1E1E128BEE1E1E1E1E1E1E1E1E1E1E1E1E1E1E1E1E1E1E1E1E1E1E1E1E1E1E1E1E1E1E1E1E1E1E1E1E1E1E1E1E1E1E1E1E1E1E1E1E1E1E1E1E1E1E1
310
E1E1E1E1E1E1E1E1E1E1E1BEE1E1E1E1E1E1BE28E1E1E1E1E1E1E1E1E1E1E1E1E1E1E1E1E1E1E1E1E1BEE1E1E1E1E1E1BEE1E1E1E1E1E1E1E2E1E1E1BEE1E1E1E1E1E1E1E1BEE1E1E1E1E1E1E1E1E1E1E1E1E1E1E1E1E1E1E1E1E1E1E1E1E1E1E1E1E1E1E1E1E1E1E1E1E1E1E1E1E1E1E1E1E1E1E1E1E1E1E1E1E1BEE1E1E1
310
E2E1E1E1E1E1E1E1E1E1E1E1E1E1E1BEBEE1E1E1E1E1E1E1E1E1E1E1E1E1E1E1E1E1E1E1E1E1E1E1E1E1E1E1E1E1E1E1E1E1E1E1E1E1E1E1E1E1E1E1E1E1E1E1E1E1E1E1E1E1E1E128BEE1E1E1E1E1E1E1E1E1E1E1E1E1E1E1E1E1E1E1E1E1E1E1E1E1E1E1E1E1E1E1E1E1E1E1E1E1E1E1E1E1E1E1E1E1E1E1E1E1E1E1E1E1
310
E1E1E1E1E1E1E1E1E1E1E1E1E1BEE1E1E1E1E1E1BEBEE1E1E1E1E1E1E1E1E1E1E1E1E1E1E1E1E1E1E1E1E1BEE1E1E1E1E1E1BEE1E1E1E1E1E1E1E2E1E1E1BEE1E1E1E1E1E1E1E1BEE1E1E1E1E1E1E1E1E1E1E1E1E1E1E1E1E1E1E1E1E1E1E1E1E1E1E1E1E1E1E1E1E1E1E1E1E1E1E1E1E1E1E1E1E1E1E1E1E1E1E1E1E1BEE1
310
E1E1E2E1E1E1E1E1E1E1E1E1E1E1E1E1E1BEBEE1E1E1E1E1E1E1E1E1E1E1E1E1E1E1E1E1E1E1E1E1E1E1E1E1E1E1E1E1E1E1E1E1E1E1E1E1E1E1E1E1E1E1E1E1E1E1E1E1E1E1E1E1E1E128BEE1E1E1E1E1E1E1E1E1E1E1E1E1E1E1E1E1E1E1E1E1E1E1E1E1E1E1E1E1E1E1E1E1E1E1E1E1E1E1E1E1E1E1E1E1E1E1E1E1E1E1
310
E1E1E1E1E1E1E1E1E1E1E1E1E1E1E1BEE1E1E1E1E1E1BEBEE1E1E1E1E1E1E1E1E1E1E1E1E1E1E1E1E1E1E1E1E1BEE1E1E1E1E1E1BEE1E1E1E1E1E1E1E2E1E1E1BEE1E1E1E1E1E1E1E1BEE1E1E1E1E1E1E1E1E1E1E1E1E1E1E1E1E1E1E1E1E1E1E1E1E1E1E1E1E1E1E1E1E1E1E1E1E1E1E1E1E1E1E1E1E1E1E1E1E1E1E1E1E1
310
BEE1E1E1E2E1E1E1E1E1E1E1E1E1E1E1E1E1E1BEE1E1E1E1E1E1E1E1E1E1E1E1E1E1E1E1E1E1E1E1E1E1E1E1E1E1E1E1E1E1E1E1E1E1E1E1E1E1E1E1E1E1E1E1E1E1E1E1E1E1E1E1E1E1E1E128BEE1E1E1E1E1E1E1E1E1E1E1E1E1E1E1E1E1E1E1E1E1E1E1E1E1E1E1E1E1E1E1E1E1E1E1E1E1E1E1E1E1E1E1E1E1E1E1E1E1
310
E1E1E1E1E1E1E1E1E1E1E1E1E1E1E1E1E1BEE1E1E1E1E1E1BEBEE1E1E1E1E1E1E1E1E1E1E1E1E1E1E1E1E1E1E1E1E1BEE1E1E1E1E1E1BEE1E1E1E1E1E1E1E2E1E1E2E2E2E1E1E1E1E1E1E2E2E2E1E1E1E1E1E1E2E2E2E1E1E1E1E1E1E2E2E2E1E1E1E1E1E1E2E2E2E1E1E1E1E1E1E2E2E2E1E1E1E1E1E1E2E2E2E1E1E1E1E1
310
E1E2E2E2BEBEE2BEBEBEBEBEBEBEBEBEBEBEBEBEBEBEBEBEE1E1E1E1E1E1E1E1E1E1E1E1E1E1E1E1E1E1E1E1E1E1E1E1E1E1E1E1E1E1E1E1E1E1E1E1E1E1E1E1E1E1E1E1E1E1E1E1E1E1E1E1E1E128BEE1E1E1E1E1E1E1E1E1E1E1E1E1E1E1E1E1E1E1E1E1E1E1E1E1E1E1E1E1E1E1E1E1E1E1E1E1E1E1E1E1E1E1E1E1E1E1
310
E1E1E1E1E1E1E1E1E1E1E1E1E1E1E1E1E1E1E1BEE1E1E1E1E1E1BEBEE1E1E1E1E1E1E1E1E1E1E1E1E1E1E1E1E1E1E1E1E1BEE1E1E1E1E1E1BEE1E1E1E1E1E1E1E2E1E1E2E2E2E1E1E1E1E1E1E2E2E2E1E1E1E1E1E1E2E2E2E1E1E1E1E1E1E2E2E2E1E1E1E1E1E1E2E2E2E1E1E1E1E1E1E2E2E2E1E1E1E1E1E1E2E2E2E1E1E1
310
E1E1E1E2E2E2E1E1E2E1E1E1E1E1E1E1E1E1E1E1E1E1E1E1E1E1E1E1E1E1E1E1E1E1E1E1E1E1E1E1E1E1E1E1E1E1E1E1E1E1E1E1E1E1E1E1E1E1E1E1E1E1E1E1E1E1E1E1E1E1E1E1E1E1E1E1E1E1E1E128BEE1E1E1E1E1E1E1E1E1E1E1E1E1E1E1E1E1E1E1E1E1E1E1E1E1E1E1E1E1E1E1E1E1E1E1E1E1E1E1E1E1E1E1E1E1
310
E1E1E1E1E1E1E1E1E1E1E1E1E1E1E1E1E1E1E1E1E1BEE1E1E1E1E1E1BE28E1E1E1E1E1E1E1E1E1E1E1E1E1E1E1E1E1E1E1E1E1BEE1E1E1E1E1E1BEBEE1E1E1E1E1E1E2E1E1E1BEE1E1E1E1E1E1E1E1BEE1E1E1E1E1E1E1E1E1E1E1E1E1E1E1E1E1E1E1E1E1E1E1E1E1E1E1E1E1E1E1E1E1E1E1E1E1E1E1E1E1E1E1E1E1E1E1
310
E1E1E1E1E1E1BEE1E1E1E2E1E1E1E1E1E1E1E1E1E1E1E1E1E1E1E1E1E1E1E1E1E1E1E1E1E1E1E1E1E1E1E1E1E1E1E1E1E1E1E1E1E1E1E1E1E1E1E1E1E1E1E1E1E1E1E1E1E1E1E1E1E1E1E1E1E1E1E1E1E1E128BEE1E1E1E1E1E1E1E1E1E1E1E1E1E1E1E1E1E1E1E1E1E1E1E1E1E1E1E1E1E1E1E1E1E1E1E1E1E1E1E1E1E1E1
310
E1E1E1E1E1E1E1E1E1E1E1E1E1E1E1E1E1E1E1E1E1E1E1BEE1E1E1E1E1E1E128E1E1E1E1E1E1E1E1E1E1E1E1E1E1E1E1E1E1E1E1E1BEE1E1E1E1E1E1BEBEE1E1E1E1E1E1E2E2E2E1BEE2E1E2BEE1E2E2E1BEE2E1E2BEE1E2E2E1E1E2E1E2E1E1E2E2E1E1E2E1E2E1E1E2E1E2E1E1E2E2E1E1E2E1E2E1E1E2E2E1E1E2E1E2E1
310
E1E2E2E1E1E2E1E2BEE1E2E2E2E1E1E1E1E1E1E1E1E1E1E1E1E1E1E1E1E1E1E1E1E1E1E1E1E1E1E1E1E1E1E1E1E1E1E1E1E1E1E1E1E1E1E1E1E1E1E1E1E1E1E1E1E1E1E1E1E1E1E1E1E1E1E1E1E1E1E1E1E1E1E128BEE1E1E1E1E1E1E1E1E1E1E1E1E1E1E1E1E1E1E1E1E1E1E1E1E1E1E1E1E1E1E1E1E1E1E1E1E1E1E1E1E1
310
E1E1E1E1E1E1E1E1E1E1E1E1E1E1E1E1E1E1E1E1E1E1E1E1E1BEE1E1E1E1E1E1E128E1E1E1E1E1E1E1E1E1E1E1E1E1E1E1E1E1E1E1E1BEBEE1E1E1E1E1E1BEE1E1E1E1E1E1E1E2E2E2E1BEE2E2E2BEE1E2E2E1BEE2E2E2BEE1E2E2E1E1E2E2E2E1E1E2E2E1E1E2E2E2E1E1E2E2E2E1E1E2E2E1E1E2E2E2E1E1E2E2E1E1E2E2
310
E2E1E1E2E2E1E1E2E2E2BEE1E2E2E2E1E1E1E1E1E1E1E1E1E1E1E1E1E1E1E1E1E1E1E1E1E1E1E1E1E1E1E1E1E1E1E1E1E1E1E1E1E1E1E1E1E1E1E1E1E1E1E1E1E1E1E1E1E1E1E1E1E1E1E1E1E1E1E1E1E1E1E1E1E1E128BEE1E1E1E1E1E1E1E1E1E1E1E1E1E1E1E1E1E1E1E1E1E1E1E1E1E1E1E1E1E1E1E1E1E1E1E1E1E1E1
310
E1E1E1E1E1E1E1E1E1E1E1E1E1E1E1E1E1E1E1E1E1E1E1E1E1E1E1BEE1E1E1E1E1E1E128E1E1E1E1E1E1E1E1E1E1E1E1E1E1E1E1E1E1E1E1BEBEE1E1E1E1E1BEBEBEBEBEBEBEBEBEE2BEBEE2E2E1E1E1E2E2E1E1E2E2E1E1E1E2E2E1E1E2E2E2E1E1E2E2E1E1E2E2E2E1E1E2E2E1E1E2E2E2E1E1E2E2E1E1E2E2E2E1E1E2E2
310
E1E1E2E2E2E1E1E2E2E1E1E1E2E2E1E1E2E1E1E1E1E1E1E1E1E1E1E1E1E1E1E1E1E1E1E1E1E1E1E1E1E1E1E1E1E1E1E1E1E1E1E1E1E1E1E1E1E1E1E1E1E1E1E1E1E1E1E1E1E1E1E1E1E1E1E1E1E1E1E1E1E1E1E1E1E1E1E128BEE1E1E1E1E1E1E1E1E1E1E1E1E1E1E1E1E1E1E1E1E1E1E1E1E1E1E1E1E1E1E1E1E1E1E1E1E1
310
E1E1E1E1E1E1E1E1E1E1E1E1E1E1E1E1E1E1E1E1E1E1E1E1E1E1E1E1E1BEE1E1E1E1E1E1E128E1E1E1E1E1E1E1E1E1E1E1E1E1E1E1E1E1E1E1E1E1BEE1E1E1E1E1E1E1E1E1E1E1E1E1E1E2E1E1E2E2E1E1E1E2E2E1E1E2E2E1E1E1E2E2E1E1E2E2E1E1E1E2E2E1E1E2E2E1E1E1E2E2E1E1E1E2E2E1E1E2E2E1E1E1E2E2E1E1
310
E2E2E1E1E1E2E2E1E1E2E2E1E1E1E2E2E1E1E2E1E1E1E1E1E1E1E1E1E1E1E1E1E1E1E1E1E1E1E1E1E1E1E1E1E1E1E1E1E1E1E1E1E1E1E1E1E1E1E1E1E1E1E1E1E1E1E1E1E1E1E1E1E1E1E1E1E1E1E1E1E1E1E1E1E1E1E1E1E1E128BEE1E1E1E1E1E1E1E1E1E1E1E1E1E1E1E1E1E1E1E1E1E1E1E1E1E1E1E1E1E1E1E1E1E1E1
310
E1E1E1E1E1E1E1E1E1E1E1E1E1E1E1E1E1E1E1E1E1E1E1E1E1E1E1E1E1E1E1BEE1E1E1E1E1E1E128E1E1E1E1E1E1E1E1E1E1E1E1E1E1E1E1E1E1E1BEBEBEBEBEBEBEBEBEBEBEBEBEBEBEBEBEE2E2E2E2E2E2E2E2E2E2E2E2E2E2E2E2E2E2E2E2E2E2E2E2E2E2E2E2E2E2E2E2E2E2E2E2E2E2E2E2E2E2E2E2E2E2E2E2E2E2E2
310
E2E2E2E2E2E2E2E2E2E2E2E2E2E2E2E2E2E2E2E2E2E1E1E1E1E1E1E1E1E1E1E1E1E1E1E1E1E1E1E1E1E1E1E1E1E1E1E1E1E1E1E1E1E1E1E1E1E1E1E1E1E1E1E1E1E1E1E1E1E1E1E1E1E1E1E1E1E1E1E1E1E1E1E1E1E1E1E1E1E1E1E128BEE1E1E1E1E1E1E1E1E1E1E1E1E1E1E1E1E1E1E1E1E1E1E1E1E1E1E1E1E1E1E1E1E1
310
E1E1E1E1E1E1E1E1E1E1E1E1E1E1E1E1E1E1E1E1E1E1E1E1E1E1E1E1E1E1E1E1E1BEE1E1E1E1E1E1E128E1E1E1E1E1E1E1E1E1E1E1E1E1E1E1E1E1E1E1E1E1E1E1E1E1E1E1E1E1E1E1E1E1E1E1E1BEE1E1E1BEE1E1E1BEE1E1E1E1BEE1E1E1BEE1E1E1E1E1E1E1E1E1E1E1E1E1E1E1E1E1E1E1E1E1E1E1E1E1E1E1E1E1E1E1
310
E1E1E1E1E1E1E1E1E1E1E1E1E1E1E1E1E1E1BEE1E1E1BEE1E1E1E1E1E1E1E1E1E1E1E1E1E1E1E1E1E1E1E1E1E1E1E1E1E1E1E1E1E1E1E1E1E1E1E1E1E1E1E1E1E1E1E1E1E1E1E1E1E1E1E1E1E1E1E1E1E1E1E1E1E1E1E1E1E1E1E1E1E1E128BEE1E1E1E1E1E1E1E1E1E1E1E1E1E1E1E1E1E1E1E1E1E1E1E1E1E1E1E1E1E1E1
310
E1E1E1E1E1E1E1E1E1E1E1E1E1E1E1E1E1E1E1E1E1E1E1E1E1E1E1E1E1E1E1E1E1E1E1BEE1E1E1E1E1E1E128E1E1E1E1E1E1E1E1E1E1E1E1E1E1E1E1E1E1E1E1E1E1E1E1E1E1E1E1E1E1E1E1E1E1E1E1BEE1E1E1BEE1E1E1BEE1E1E1E1BEE1E1E1BEE1E1E1E1E1E1E1E1E1E1E1E1E1E1E1E1E1E1E1E1E1E1E1E1E1E1E1E1E1
310
E1E1E1E1E1E1E1E1E1E1E1E1E1E1E1E1E1E1E1E1BEE1E1E1BEE1E1E1E1E1E1E1E1E1E1E1E1E1E1E1E1E1E1E1E1E1E1E1E1E1E1E1E1E1E1E1E1E1E1E1E1E1E1E1E1E1E1E1E1E1E1E1E1E1E1E1E1E1E1E1E1E1E1E1E1E1E1E1E1E1E1E1E1E1E1E128BEE1E1E1E1E1E1E1E1E1E1E1E1E1E1E1E1E1E1E1E1E1E1E1E1E1E1E1E1E1
310
E1E1E1E1E1E1E1E1E1E1E1E1E1E1E1E1E1E1E1E1E1E1E1E1E1E1E1E1E1E1E1E1E1E1E1E1E1BEE1E1E1E1E1E1E128E1E1E1E1E1E1E1E1E1E1E1E1E1E1E1E1E1E1E1E1E1E1E1E1E1E1E1E1E1E1E1E1E1E1E1E1BEE1E1E1BEE1E1E1E1E1E1E1E1E1E1E1E1E1E1E1E1E1E1E1E1E1E1E1E1E1E1E1E1E1E1E1E1E1E1E1E1E1E1E1E1
310
E1E1E1E1E1E1E1E1E1E1E1E1E1E1E1E1E1E1E1E1E1E1BEE1E1E1BEE1E1E1E1E1E1E1E1E1E1E1E1E1E1E1E1E1E1E1E1E1E1E1E1E1E1E1E1E1E1E1E1E1E1E1E1E1E1E1E1E1E1E1E1E1E1E1E1E1E1E1E1E1E1E1E1E1E1E1E1E1E1E1E1E1E1E1E1E1E1E128BEE1E1E1E1E1E1E1E1E1E1E1E1E1E1E1E1E1E1E1E1E1E1E1E1E1E1E1
310
E1E1E1E1E1E1E1E1E1E1E1E1E1E1E1E1E1E1E1E1E1E1E1E1E1E1E1E1E1E1E1E1E1E1E1E1E1E1E1BEE1E1E1E1E1E1E128E1E1E1E1E1E1E1E1E1E1E1E1E1E1E1E1E1E1E1E1E1E1E1E1E1E1E1E1E1E1E1E1E1E1E1E1BEE1E1E1BEE1E1E1E1E1E1E1E1E1E1E1E1E1E1E1E1E1E1E1E1E1E1E1E1E1E1E1E1E1E1E1E1E1E1E1E1E1E1
310
E1E1E1E1E1E1E1E1E1E1E1E1E1E1E1E1E1E1E1E1E1E1E1E1BEE1E1E1BEE1E1E1E1E1E1E1E1E1E1E1E1E1E1E1E1E1E1E1E1E1E1E1E1E1E1E1E1E1E1E1E1E1E1E1E1E1E1E1E1E1E1E1E1E1E1E1E1E1E1E1E1E1E1E1E1E1E1E1E1E1E1E1E1E1E1E1E1E1E1E128BEE1E1E1E1E1E1E1E1E1E1E1E1E1E1E1E1E1E1E1E1E1E1E1E1E1
310
E1E1E1E1E1E1E1E1E1E1E1E1E1E1E1E1E1E1E1E1E1E1E1E1E1E1E1E1E1E1E1E1E1E1E1E1E1E1E1E1E1BEE1E1E1E1E1E1E128E1E1E1E1E1E1E1E1E1E1E1E1E1E1E1E1E1E1E1E1E1E1E1E1E1E1E1E1E1E1E1E1E1E1E1E1BEE1E1E1BEE1E1E1E1E1E1E1E1E1E1E1E1E1E1E1E1E1E1E1E1E1E1E1E1E1E1E1E1E1E1E1E1E1E1E1E1
310
E1E1E1E1E1E1E1E1E1E1E1E1E1E1E1E1E1E1E1E1E1E1E1E1E1E1BEE1E1E1BEE1E1E1E1E1E1E1E1E1E1E1E1E1E1E1E1E1E1E1E1E1E1E1E1E1E1E1E1E1E1E1E1E1E1E1E1E1E1E1E1E1E1E1E1E1E1E1E1E1E1E1E1E1E1E1E1E1E1E1E1E1E1E1E1E1E1E1E1E1E1E128BEE1E1E1E1E1E1E1E1E1E1E1E1E1E1E1E1E1E1E1E1E1E1E1
310
E1E1E1E1E1E1E1E1E1E1E1E1E1E1E1E1E1E1E1E1E1E1E1E1E1E1E1E1E1E1E1E1E1E1E1E1E1E1E1E1E1E1E1BEE1E1E1E1E1E1E128E1E1E1E1E1E1E1E1E1E1E1E1E1E1E1E1E1E1E1E1E1E1E1E1E1E1E1E1E1E1E1E1E1E1E1E1BEE1E1E1BEE1E1E1E1E1E1E1E1E1E1E1E1E1E1E1E1E1E1E1E1E1E1E1E1E1E1E1E1E1E1E1E1E1E1
310
E1E1E1E1E1E1E1E1E1E1E1E1E1E1E1E1E1E1E1E1E1E1E1E1E1E1E1E1BEE1E1E1BEE1E1E1E1E1E1E1E1E1E1E1E1E1E1E1E1E1E1E1E1E1E1E1E1E1E1E1E1E1E1E1E1E1E1E1E1E1E1E1E1E1E1E1E1E1E1E1E1E1E1E1E1E1E1E1E1E1E1E1E1E1E1E1E1E1E1E1E1E1E1E128BEE1E1E1E1E1E1E1E1E1E1E1E1E1E1E1E1E1E1E1E1E1
310
E1E1E1E1E1E1E1E1E1E1E1E1E1E1E1E1E1E1E1E1E1E1E1E1E1E1E1E1E1E1E1E1E1E1E1E1E1E1E1E1E1E1E1E1E1BEE1E1E1E1E1E1E128E1E1E1E1E1E1E1E1E1E1E1E1E1E1E1E1E1E1E1E1E1E1E1E1E1E1E1E1E1E1E1E1E1BEBEE1BEE1E1E1BEE1BEBEE1E1E1E1E1E1E1E1E1E1E1E1E1E1E1E1E1E1E1E1E1E1E1E1E1E1E1E1E1
310
E1E1E1E1E1E1E1E1E1E1E1E1E1E1E1E1E1E1E1E1E1E1E1E1E1E1E1BEBEE1BEE1E1E1BEE1BEBEE1E1E1E1E1E1E1E1E1E1E1E1E1E1E1E1E1E1E1E1E1E1E1E1E1E1E1E1E1E1E1E1E1E1E1E1E1E1E1E1E1E1E1E1E1E1E1E1E1E1E1E1E1E1E1E1E1E1E1E1E1E1E1E1E1E1E1E128BEE1E1E1E1E1E1E1E1E1E1E1E1E1E1E1E1E1E1E1
310
E1E1E1E1E1E1E1E1E1E1E1E1E1E1E1E1E1E1E1E1E1E1E1E1E1E1E1E1E1E1E1E1E1E1E1E1E1E1E1E1E1E1E1E1E1E1E1BEE1E1E1E1E1E1E128E1E1E1E1E1E1E1E1E1E1E1E1E1E1E1E1E1E1E1E1E1E1E1E1E1BEBEBEBEBEBEBEBEBEBEBEBEBEBEBEBEBEBEBEBEBEBEBEBEBEBEBEBEBEBEBEBEBEBEBEBEBEBEBEBEBEBEBEBEBEBE
310
BEBEBEBEBEBEBEBEBEBEBEBEBEBEBEBEBEBEBEBEBEBEBEBEBEBEBEBEBEBEBEBEBEBEBEBEBEBEBEBEBEBEBEBEBEBEBEBEE1E1E1E1E1E1E1E1E1E1E1E1E1E1E1E1E1E1E1E1E1E1E1E1E1E1E1E1E1E1E1E1E1E1E1E1E1E1E1E1E1E1E1E1E1E1E1E1E1E1E1E1E1E1E1E1E1E1E1E128BEE1E1E1E1E1E1E1E1E1E1E1E1E1E1E1E1E1
310
E1E1E1E1E1E1E1E1E1E1E1E1E1E1E1E1E1E1E1E1E1E1E1E1E1E1E1E1E1E1E1E1E1E1E1E1E1E1E1E1E1E1E1E1E1E1E1E1E1BEE1E1E1E1E1E1E128E1E1E1E1E1E1E1E1E1E1E1E1E1E1E1E1E1E1E1E1E1E1E1E1E1E1E10F0F0F0F0F0F0FE1E1BEE1E1E1BEE1E1E1E1E1E1E1E1E1E1E1E1E1E1E1E1E1E1E1E1E1E1E1E1E10FE10F
310
E10F0FE1E10F0F0FE1E1E1E1E1E1E1E1E1E1E1E1E1E1E1E1E1E1E1E1E1E1E1E1E1E1BEE1E1E1BEE1E1E1E1E10F0F0F0F0F0FE1E1E1E1E1E1E1E1E1E1E1E1E1E1E1E1E1E1E1E1E1E1E1E1E1E1E1E1E1E1E1E1E1E1E1E1E1E1E1E1E1E1E1E1E1E1E1E1E1E1E1E1E1E1E1E1E1E1E1E128BEE1E1E1E1E1E1E1E1E1E1E1E1E1E1E1
310
E1E1E1E1E1E1E1E1E1E1E1E1E1E1E1E1E1E1E1E1E1E1E1E1E1E1E1E1E1E1E1E1E1E1E1E1E1E1E1E1E1E1E1E1E1E1E1E1E1E1E1BEE1E1E1E1E1E1E128E1E1E1E1E1E1E1E1E1E1E1E1E1E1E1E1E1E1E1E1E1E1E1E1E1E1E10FE10FE10F0F0FE1E1BEE1E1E1E1E1E1E1E1E1E1E1E1E1E1E1E1E1E1E1E1E1E1E1E1E1E1E1E1E10F
310
E10FE1E10FE1E10F0F0FE1E1E1E1E1E1E1E1E1E1E1E1E1E1E1E1E1E1E1E1E1E1E1E1E1E1E1E1E1E1BEE1E1E1E1E10FE10FE10F0FE1E1E1E1E1E1E1E1E1E1E1E1E1E1E1E1E1E1E1E1E1E1E1E1E1E1E1E1E1E1E1E1E1E1E1E1E1E1E1E1E1E1E1E1E1E1E1E1E1E1E1E1E1E1E1E1E1E1E1E128BEE1E1E1E1E1E1E1E1E1E1E1E1E1
310
E1E1E1E1E1E1E1E1E1E1E1E1E1E1E1E1E1E1E1E1E1E1E1E1E1E1E1E1E1E1E1E1E1E1E1E1E1E1E1E1E1E1E1E1E1E1E1E1E1E1E1E1E1BEE1E1E1E1E1E1E128E1E1E1E1E1E1E1E1E1E1E1E1E1E1E1E1E1E1E1E1E1E1E1E1E1E1E10F0F0FE10F0FE1E1E1BEE1E1E1E1E1E1E1E1E1E1E1E1E1E1E1E1E1E1E1E1E1E1E1E1E1E1E1E1
310
E10F0FE1E10F0FE10F0F0F0FE1E1E1E1E1E1E1E1E1E1E1E1E1E1E1E1E1E1E1E1E1E1E1E1E1E1E1E1E1E1BEE1E1E1E10F0F0F0FE10F0FE1E1E1E1E1E1E1E1E1E1E1E1E1E1E1E1E1E1E1E1E1E1E1E1E1E1E1E1E1E1E1E1E1E1E1E1E1E1E1E1E1E1E1E1E1E1E1E1E1E1E1E1E1E1E1E1E1E1E1E128BEE1E1E1E1E1E1E1E1E1E1E1
310
E1E1E1E1E1E1E1E1E1E1E1E1E1E1E1E1E1E1E1E1E1E1E1E1E1E1E1E1E1E1E1E1E1E1E1E1E1E1E1E1E1E1E1E1E1E1E1E1E1E1E1E1E1E1E1BEE1E1E1E1E1E1E128E1E1E1E1E1E1E1E1E1E1E1E1E1E1E1E1E1E1E1E1E1E1E1E1E1E1E1E1E1E1E1E1E1E1E1E1BEE1E1E1E1E1E1E1E1E1E1E1E1E1E1E1E1E1E1E1E1E1E1E1E1E1E1
310
E1E1E1E1E1E1E1E1E1E1E1E1E1E1E1E1E1E1E1E1E1E1E1E1E1E1E1E1E1E1E1E1E1E1E1E1E1E1E1E1E1E1E1E1BEE1E1E1E1E1E1E1E1E1E1E1E1E1E1E1E1E1E1E1E1E1E1E1E1E1E1E1E1E1E1E1E1E1E1E1E1E1E1E1E1E1E1E1E1E1E1E1E1E1E1E1E1E1E1E1E1E1E1E1E1E1E1E1E1E1E1E1E1E1E1E128BEE1E1E1E1E1E1E1E1E1
310
E1E1E1E1E1E1E1E1E1E1E1E1E1E1E1E1E1E1E1E1E1E1E1E1E1E1E1E1E1E1E1E1E1E1E1E1E1E1E1E1E1E1E1E1E1E1E1E1E1E1E1E1E1E1E1E1E1BEE1E1E1E1E1E1E128E1E1E1E1E1E1E1E1E1E1E1E1E1E1E1E1E1E1E1E1E1E1E1E1E1E1E1E1E1E1E1E1E1E1E1E1BEE1E1E1E1E1E1E1E1E1E1E1E1E1E1E1E1E1E1E1E1E1E1E1E1
310
E1E1E1E1E1E1E1E1E1E1E1E1E1E1E1E1E1E1E1E1E1E1E1E1E1E1E1E1E1E1E1E1E1E1E1E1E1E1E1E1E1E1E1E1E1E1BEE1E1E1E1E1E1E1E1E1E1E1E1E1E1E1E1E1E1E1E1E1E1E1E1E1E1E1E1E1E1E1E1E1E1E1E1E1E1E1E1E1E1E1E1E1E1E1E1E1E1E1E1E1E1E1E1E1E1E1E1E1E1E1E1E1E1E1E1E1E1E128BEE1E1E1E1E1E1E1
310
E1E1E1E1E1E1E1E1E1E1E1E1E1E1E1E1E1E1E1E1E1E1E1E1E1E1E1E1E1E1E1E1E1E1E1E1E1E1E1E1E1E1E1E1E1E1E1E1E1E1E1E1E1E1E1E1E1E1E1BEE1E1E1E1E1E1E128E1E1E1E1E1E1E1E1E1E1E1E1E1E1E1E1E1E1E1E1E1E1E1E1E1E1E1E1E1E1E1E1E1E1E1E1BEE1E1E1E1E1E1E1E1E1E1E1E1E1E1E1E1E1E1E1E1E1E1
310
E1E1E1E1E1E1E1E1E1E1E1E1E1E1E1E1E1E1E1E1E1E1E1E1E1E1E1E1E1E1E1E1E1E1E1E1E1E1E1E1E1E1E1E1E1E1E1E1BEE1E1E1E1E1E1E1E1E1E1E1E1E1E1E1E1E1E1E1E1E1E1E1E1E1E1E1E1E1E1E1E1E1E1E1E1E1E1E1E1E1E1E1E1E1E1E1E1E1E1E1E1E1E1E1E1E1E1E1E1E1E1E1E1E1E1E1E1E1E1E128BEE1E1E1E1E1
310
E1E1E1E1E1E1E1E1E1E1E1E1E1E1E1E1E1E1E1E1E1E1E1E1E1E1E1E1E1E1E1E1E1E1E1E1E1E1E1E1E1E1E1E1E1E1E1E1E1E1E1E1E1E1E1E1E1E1E1E1E1BEE1E1E1E1E1E1E128E1E1E1E1E1E1E1E1E1E1E1E1E1E1E1E1E1E1E1E1E1E1E1E1E1E1E1E1E1E1E1E1E1E1E1E1BEBEBEBEBEBEBEBEBEBEBEBEBEBEBEBEBEBEBEBEBE
310
BEBEBEBEBEBEBEBEBEBEBEBEBEBEBEBEBEBEBEBEBEBEBEBEBEBEBEBEBEBEBEBEBEBEBEBEBEBEBEBEBEBEBEBEBEBEBEBEBEBEBEE1E1E1E1E1E1E1E1E1E1E1E1E1E1E1E1E1E1E1E1E1E1E1E1E1E1E1E1E1E1E1E1E1E1E1E1E1E1E1E1E1E1E1E1E1E1E1E1E1E1E1E1E1E1E1E1E1E1E1E1E1E1E1E1E1E1E1E1E1E1E128BEE1E1E1
310
E1E1E1E1E1E1E1E1E1E1E1E1E1E1E1E1E1E1E1E1E1E1E1E1E1E1E1E1E1E1E1E1E1E1E1E1E1E1E1E1E1E1E1E1E1E1E1E1E1E1E1E1E1E1E1E1E1E1E1E1E1E1E1BEE1E1E1E1E1E1E128E1E1E1E1E1E1E1E1E1E1E1E1E1E1E1E1E1E1E1E1E1E1E1E1E1E1E1E1E1E1E1E1E1E1E1E1BEE1E1E1E1E1E1E1E1E1E1E1E1E1E1E1E1E1E1
310
E1E1E1E1E1E1E1E1E1E1E1E1E1E1E1E10FE1E1E1E1E1E1E1E1E1E1E1E1E1E1E1E1E1E1E1E1E1E1E1E1E1E1E1E1E1E1E1E1E1E1E1BEE1E1E1E1E1E1E1E1E1E1E1E1E1E1E1E1E1E1E1E1E1E1E1E1E1E1E1E1E1E1E1E1E1E1E1E1E1E1E1E1E1E1E1E1E1E1E1E1E1E1E1E1E1E1E1E1E1E1E1E1E1E1E1E1E1E1E1E1E1E1E128BEE1
310
E1E1E1E1E1E1E1E1E1E1E1E1E1E1E1E1E1E1E1E1E1E1E1E1E1E1E1E1E1E1E1E1E1E1E1E1E1E1E1E1E1E1E1E1E1E1E1E1E1E1E1E1E1E1E1E1E1E1E1E1E1E1E1E1E1BEE1E1E1E1E1E1E128E1E1E1E1E1E1E1E1E1E1E1E1E1E1E1E1E1E1E1E1E1E1E1E1E1E1E1E1E1E1E1E1E1E1E1E1BEE1E1E1E1E1E1E1E1E1E1E1E1E1E1E1E1
310
E1E1E1E1E1E1E1E1E1E1E1E1E1E1E1E1E1E10FE1E1E1E1E1E1E1E1E1E1E1E1E1E1E1E1E1E1E1E1E1E1E1E1E1E1E1E1E1E1E1E1E1E1E1BEE1E1E1E1E1E1E1E1E1E1E1E1E1E1E1E1E1E1E1E1E1E1E1E1E1E1E1E1E1E1E1E1E1E1E1E1E1E1E1E1E1E1E1E1E1E1E1E1E1E1E1E1E1E1E1E1E1E1E1E1E1E1E1E1E1E1E1E1E1E1E128
310
BEE1E1E1E1E1E1E1E1E1E1E1E1E1E1E1E1E1E1E1E1E1E1E1E1E1E1E1E1E1E1E1E1E1E1E1E1E1E1E1E1E1E1E1E1E1E1E1E1E1E1E1E1E1E1E1E1E1E1E1E1E1E1E1E1E1E1BEE1E1E1E1E1E1E128E1E1E1E1E1E1E1E1E1E1E1E1E1E1E1E1E1E1E1E1E1E1E1E1E1E1E1E1E1E1E1E1E1E1E1E1E1E1E1E1E1E1E1E1E1E1E1E1E1E1E1
310
E1E1E1E1E1E1E1E1E1E1E1E1E1E1E1E1E1E1E1E10FE1E1E1E1E1E1E1E1E1E1E1E1E1E1E1E1E1E1E1E1E1E1E1E1E1E1E1E1E1E1E1E1E1E1E1E1E1E1E1E1E1E1E1E1E1E1E1E1E1E1E1E1E1E1E1E1E1E1E1E1E1E1E1E1E1E1E1E1E1E1E1E1E1E1E1E1E1E1E1E1E1E1E1E1E1E1E1E1E1E1E1E1E1E1E1E1E1E1E1E1E1E1E1E1E1E1
310
E128BEE1E1E1E1E1E1E1E1E1E1E1E1E1E1E1E1E1E1E1E1E1E1E1E1E1E1E1E1E1E1E1E1E1E1E1E1E1E1E1E1E1E1E1E1E1E1E1E1E1E1E1E1E1E1E1E1E1E1E1E1E1E1E1E1E1E1BEE1E1E1E1E1E1E128E1E1E1E1E1E1E1E1E1E1E1E1E1E1E1E1E1E1E1E1E1E1E1E1E1E1E1E1E1E1E1E1E1E1E1E1E1E1E1E1E1E1E1E1E1E1E1E1E1
310
E1E1E1E1E1E1E1E1E1E1E1E1E1E1E1E1E1E1E1E1E1E10F0FE1E1E1E1E1E1E1E1E1E1E1E1E1E1E1E1E1E1E1E1E1E1E1E1E1E1E1E1E1E1E1E1E1E1E1E1E1E1E1E1E1E1E1E1E1E1E1E1E1E1E1E1E1E1E1E1E1E1E1E1E1E1E1E1E1E1E1E1E1E1E1E1E1E1E1E1E1E1E1E1E1E1E1E1E1E1E1E1E1E1E1E1E1E1E1E1E1E1E1E1E1E1E1
310
E1E1E128BEE1E1E1E1E1E1E1E1E1E1E1E1E1E1E1E1E1E1E1E1E1E1E1E1E1E1E1E1E1E1E1E1E1E1E1E1E1E1E1E1E1E1E1E1E1E1E1E1E1E1E1E1E1E1E1E1E1E1E1E1E1E1E1E1E1E1BEE1E1E1E1E1E1E128E1E1E1E1E1E1E1E1E1E1E1E1E1E1E1E1E1E1E1E1E1E1E1E1E1E1E1E1E1E1E1E1E1E1E1E1E1E1E1E1E1E1E1E1E1E1E1
310
E1E1E1E1E1E1E1E1E1E1E1E1E1E1E1E1E1E1E1E1E1E1E1E1E1E1E1E1E1E1E1E1E1E1E1E1E1E1E1E1E1E1E1E1E1E1E1E1E1E1E1E1E1E1E1E1E1E1E1E1E1E1E1E1E1E1E1E1E1E1E1E1E1E1E1E1E1E1E1E1E1E1E1E1E1E1E1E1E1E1E1E1E1E1E1E1E1E1E1E1E1E1E1E1E1E1E1E1E1E1E1E1E1E1E1E1E1E1E1E1E1E1E1E1E1E1E1
310
E1E1E1E1E128BEE1E1E1E1E1E1E1E1E1E1E1E1E1E1E1E1E1E1E1E1E1E1E1E1E1E1E1E1E1E1E1E1E1E1E1E1E1E1E1E1E1E1E1E1E1E1E1E1E1E1E1E1E1E1E1E1E1E1E1E1E1E1E1E1E1E1BEE1E1E1E1E1E1E128E1E1E1E1E1E1E1E1E1E1E1E1E1E1E1E1E1E1E1E1E1E1E1E1E1E1E1E1E1E1E1E1E1E1E1E1E1E1E1E1E1E1E1E1E1
310
E1E1E1E1E1E1E1E1E1E1E1E1E1E1E1E1E1E1E1E1E1E1E1E1E1E1E1E1E1E1E1E1E1E1E1E1E1E1E1E1E1E1E1E1E1E1E1E1E1E1E1E1E1E1E1E1E1E1E1E1E1E1E1E1E1E1E1E1E1E1E1E1E1E1E1E1E1E1E1E1E1E1E1E1E1E1E1E1E1E1E1E1E1E1E1E1E1E1E1E1E1E1E1E1E1E1E1E1E1E1E1E1E1E1E1E1E1E1E1E1E1E1E1E1E1E1E1
310
E1E1E1E1E1E1E128BEE1E1E1E1E1E1E1E1E1E1E1E1E1E1E1E1E1E1E1E1E1E1E1E1E1E1E1E1E1E1E1E1E1E1E1E1E1E1E1E1E1E1E1E1E1E1E1E1E1E1E1E1E1E1E1E1E1E1E1E1E1E1E1E1E1E1BEE1E1E1E1E1E1E128E1E1E1E1E1E1E1E1E1E1E1E1E1E1E1E1E1E1E1E1E1E1E1E1E1E1E1E1E1E1E1E1E1E1E1E1E1E1E1E1E1E1E1
310
E1E1E1E1E1E1E1E1E1E1E1E1E1E1E1E1E1E1E1E1E1E1E1E1E1E1E1E1E1E1E1E1E1E1E1E1E1E1E1E1E1E1E1E1E1E1E1E1E1E1E1E1E1E1E1E1E1E1E1E1E1E1E1E1E1E1E1E1E1E1E1E1E1E1E1E1E1E1E1E1E1E1E1E1E1E1E1E1E1E1E1E1E1E1E1E1E1E1E1E1E1E1E1E1E1E1E1E1E1E1E1E1E1E1E1E1E1E1E1E1E1E1E1E1E1E1E1
310
E1E1E1E1E1E1E1E1E128BEE1E1E1E1E1E1E1E1E1E1E1E1E1E1E1E1E1E1E1E1E1E1E1E1E1E1E1E1E1E1E1E1E1E1E1E1E1E1E1E1E1E1E1E1E1E1E1E1E1E1E1E1E1E1E1E1E1E1E1E1E1E1E1E1E1E1BEE1E1E1E1E1E1E128E1E1E1E1E1E1E1E1E1E1E1E1E1E1E1E1E1E1E1E1E1E1E1E1E1E1E1E1E1E1E1E1E1E1E1E1E1E1E1E1E1
310
E1E1E1E1E1E1E1E1E1E1E1E1E1E1E1E1E1E1E1E1E1E1E1E1E1E1E1E1E1E1E1E1E1E1E1E1E1E1E1E1E1E1E1E1E1E1E1E1E1E1E1E1E1E1E1E1E1E1E1E1E1E1E1E1E1E1E1E1E1E1E1E1E1E1E1E1E1E1E1E1E1E1E1E1E1E1E1E1E1E1E1E1E1E1E1E1E1E1E1E1E1E1E1E1E1E1E1E1E1E1E1E1E1E1E1E1E1E1E1E1E1E1E1E1E1E1E1
310
E1E1E1E1E1E1E1E1E1E1E128BEE1E1E1E1E1E1E1E1E1E1E1E1E1E1E1E1E1E1E1E1E1E1E1E1E1E1E1E1E1E1E1E1E1E1E1E1E1E1E1E1E1E1E1E1E1E1E1E1E1E1E1E1E1E1E1E1E1E1E1E1E1E1E1E1E1E1BEE1E1E1E1E1E1E128E1E1E1E1E1E1E1E1E1E1E1E1E1E1E1E1E1E1E1E1E1E1E1E1E1E1E1E1E1E1E1E1E1E1E1E1E1E1E1
310
E1E1E1E1E1E1E1E1E1E1E1E1E1E1E1E1E1E1E1E1E1E1E1E1E1E1E1E1E1E1E1E1E1E1E1E1E1E1E1E1E1E1E1E1E1E1E1E1E1E1E1E1E1E1E1E1E1E1E1E1E1E1E1E1E1E1E1E1E1E1E1E1E1E1E1E1E1E1E1E1E1E1E1E1E1E1E1E1E1E1E1E1E1E1E1E1E1E1E1E1E1E1E1E1E1E1E1E1E1E1E1E1E1E1E1E1E1E1E1E1E1E1E1E1E1E1E1
310
E1E1E1E1E1E1E1E1E1E1E1E1E128BEE1E1E1E1E1E1E1E1E1E1E1E1E1E1E1E1E1E1E1E1E1E1E1E1E1E1E1E1E1E1E1E1E1E1E1E1E1E1E1E1E1E1E1E1E1E1E1E1E1E1E1E1E1E1E1E1E1E1E1E1E1E1E1E1E1E1BEE1E1E1E1E1E1E128E1E1E1E1E1E1E1E1E1E1E1E1E1E1E1E1E1E1E1E1E1E1E1E1E1E1E1E1E1E1E1E1E1E1E1E1E1
310
E1E1E1E1E1E1E1E1E1E1E1E1E1E1E1E1E1E1E1E1E1E1E1E1E1E1E1E1E1E1E1E1E1E1E1E1E1E1E1E1E1E1E1E1E1E1E1E1E1E1E1E1E1E1E1E1E1E1E1E1E1E1E1E1E1E1E1E1E1E1E1E1E1E1E1E1E1E1E1E1E1E1E1E1E1E1E1E1E1E1E1E1E1E1E1E1E1E1E1E1E1E1E1E1E1E1E1E1E1E1E1E1E1E1E1E1E1E1E1E1E1E1E1E1E1E1E1
310
E1E1E1E1E1E1E1E1E1E1E1E1E1E1E128BEE1E1E1E1E1E1E1E1E1E1E1E1E1E1E1E1E1E1E1E1E1E1E1E1E1E1E1E1E1E1E1E1E1E1E1E1E1E1E1E1E1E1E1E1E1E1E1E1E1E1E1E1E1E1E1E1E1E1E1E1E1E1E1E1E1E1BEE1E1E1E1E1E1E128E1E1E1E1E1E1E1E1E1E1E1E1E1E1E1E1E1E1E1E1E1E1E1E1E1E1E1E1E1E1E1E1E1E1E1
310
E1E1E1E1E1E1E1E1E1E1E1E1E1E1E1E1E1E1E1E1E1E1E1E1E1E1E1E1E1E1E1E1E1E1E1E1E1E1E1E1E1E1E1E1E1E1E1E1E1E1E1E1E1E1E1E1E1E1E1E1E1E1E1E1E1E1E1E1E1E1E1E1E1E1E1E1E1E1E1E1E1E1E1E1E1E1E1E1E1E1E1E1E1E1E1E1E1E1E1E1E1E1E1E1E1E1E1E1E1E1E1E1E1E1E1E1E1E1E1E1E1E1E1E1E1E1E1
310
E1E1E1E1E1E1E1E1E1E1E1E1E1E1E1E1E128BEE1E1E1E1E1E1E1E1E1E1E1E1E1E1E1E1E1E1E1E1E1E1E1E1E1E1E1E1E1E1E1E1E1E1E1E1E1E1E1E1E1E1E1E1E1E1E1E1E1E1E1E1E1E1E1E1E1E1E1E1E1E1E1E1E1E1BEE1E1E1E1E1E1E128E1E1E1E1E1E1E1E1E1E1E1E1E1E1E1E1E1E1E1E1E1E1E1E1E1E1E1E1E1E1E1E1E1
310
E1E1E1E1E1E1E1E1E1E1E1E1E1E1E1E1E1E1E1E1E1E1E1E1E1E1E1E1E1E1E1E1E1E1E1E1E1E1E1E1E1E1E1E1E1E1E1E1E1E1E1E1E1E1E1E1E1E1E1E1E1E1E1E1E1E1E1E1E1E1E1E1E1E1E1E1E1E1E1E1E1E1E1E1E1E1E1E1E1E1E1E1E1E1E1E1E1E1E1E1E1E1E1E1E1E1E1E1E1E1E1E1E1E1E1E1E1E1E1E1E1E1E1E1E1E1E1
310
E1E1E1E1E1E1E1E1E1E1E1E1E1E1E1E1E1E1E128BEE1E1E1E1E1E1E1E1E1E1E1E1E1E1E1E1E1E1E1E1E1E1E1E1E1E1E1E1E1E1E1E1E1E1E1E1E1E1E1E1E1E1E1E1E1E1E1E1E1E1E1E1E1E1E1E1E1E1E1E1E1E1E1E1E1E1BEE1E1E1E1E1E1E128E1E1E1E1E1E1E1E1E1E1E1E1E1E1E1E1E1E1E1E1E1E1E1E1E1E1E1E1E1E1E1
310
E1E1E1E1E1E1E1E1E1E1E1E1E1E1E1E1E1E1E1E1E1E1E1E1E1E1E1E1E1E1E1E1E1E1E1E1E1E1E1E1E1E1E1E1E1E1E1E1E1E1E1E1E1E1E1E1E1E1E1E1E1E1E1E1E1E1E1E1E1E1E1E1E1E1E1E1E1E1E1E1E1E1E1E1E1E1E1E1E1E1E1E1E1E1E1E1E1E1E1E1E1E1E1E1E1E1E1E1E1E1E1E1E1E1E1E1E1E1E1E1E1E1E1E1E1E1E1
310
E1E1E1E1E1E1E1E1E1E1E1E1E1E1E1E1E1E1E1E1E128BEE1E1E1E1E1E1E1E1E1E1E1E1E1E1E1E1E1E1E1E1E1E1E1E1E1E1E1E1E1E1E1E1E1E1E1E1E1E1E1E1E1E1E1E1E1E1E1E1E1E1E1E1E1E1E1E1E1E1E1E1E1E1E1E1E1E1BEE1E1E1E1E1E1E128E1E1E1E1E1E1E1E1E1E1E1E1E1E1E1E1E1E1E1E1E1E1E1E1E1E1E1E1E1
310
E1E1E1E1E1E1E1E1E1E1E1E1E1E1E1E1E1E1E1E1E1E1E1E1E1E1E1E1E1E1E1E1E1E1E1E1E1E1E1E1E1E1E1E1E1E1E1E1E1E1E1E1E1E1E1E1E1E1E1E1E1E1E1E1E1E1E1E1E1E1E1E1E1E1E1E1E1E1E1E1E1E1E1E1E1E1E1E1E1E1E1E1E1E1E1E1E1E1E1E1E1E1E1E1E1E1E1E1E1E1E1E1E1E1E1E1E1E1E1E1E1E1E1E1E1E1E1
310
E1E1E1E1E1E1E1E1E1E1E1E1E1E1E1E1E1E1E1E1E1E1E128BEE1E1E1E1E1E1E1E1E1E1E1E1E1E1E1E1E1E1E1E1E1E1E1E1E1E1E1E1E1E1E1E1E1E1E1E1E1E1E1E1E1E1E1E1E1E1E1E1E1E1E1E1E1E1E1E1E1E1E1E1E1E1E1E1E1E1BEE1E1E1E1E1E1E128282828282828282828282828282828282828282828282828282828
310
28282828282828282828282828282828282828282828282828282828282828282828282828282828282828282828282828282828282828282828282828282828282828282828282828282828282828282828282828282828282828282828282828282828282828282828282828282828282828282828282828282828282828
310
2828282828282828282828282828282828282828282828282828BEE1E1E1E1E1E1E1E1E1E1E1E1E1E1E1E1E1E1E1E1E1E1E1E1E1E1E1E1E1E1E1E1E1E1E1E1E1E1E1E1E1E1E1E1E1E1E1E1E1E1E1E1E1E1E1E1E1E1E1E1E1E1E1E1E1E1BEE1E1E1E1E1E1E1E1E1E1E1E1E1E1E1E1E1E1E1E1E1E1E1E1E1E1E1E1E1E1E1E1E1
310
E1E1E1E1E1E1E1E1E1E1E1E1E1E1E1E1E1E1E1E1E1E1BEE1E1E1E1E1E1E1E1E1E1E1E1E1E1E1E1E1E1E1E1E1E1E1E1E1E1E1E1E1E1E1E1E1E1E1E1E1E1E1E1E1E1E1E1E1E1E1BEE1E1E1E1E1E1E1E1E1E1E1E1E1E1E1E1E1E1E1E1E1E1E1E1E1E1E1E1E1E1E1E1E1E1E1E1E1E1E1E1E1E1E1E1E1E1E1E1E1E1E1E1E1E1E1E1
310
E1E1E1E1E1E1E1E1E1E1E1E1E1E1E1E1E1E1E1E1E1E1E1E1E1E1E1E1BEE1E1E1E1E1E1E1E1E1E1E1E1E1E1E1E1E1E1E1E1E1E1E1E1E1E1E1E1E1E1E1E1E1E1E1E1E1E1E1E1E1E1E1E1E1E1E1E1E1E1E1E1E1E1E1E1E1E1E1E1E1E1E1E1E1E1BEBEBEBEBEBEBEBEBEBEBEBEBEBEBEBEBEBEBEBEBEBEBEBEBEBEBEBEBEBEBEBE
310
BEBEBEBEBEBEBEBEBEBEBEBEBEBEBEBEBEBEBEBEBEBEBEBEBEBEBEBEBEBEBEBEBEBEBEBEBEBEBEBEBEBEBEBEBEBEBEBEBEBEBEBEBEBEBEBEBEBEBEBEBEBEBEBEBEBEBEBEBEBEBEBEBEBEBEBEBEBEBEBEBEBEBEBEBEBEBEBEBEBEBEBEBEBEBEBEBEBEBEBEBEBEBEBEBEBEBEBEBEBEBEBEBEBEBEBEBEBEBEBEBEBEBEBEBEBEBE
310
BEBEBEBEBEBEBEBEBEBEBEBEBEBEBEBEBEBEBEBEBEBEBEBEBEBEBEBEBEBEBEE1E1E1E1E1E1E1E1E1E1E1E1E1E1E1E1E1E1E1E1E1E1E1E1E1E1E1E1E1E1E1E1E1
  0
XRECORD
  5
55A
102
{ACAD_REACTORS
330
3E8
102
}
330
3E8
100
AcDbXrecord
280
     1
102
MATERIAL
148
0.0
149
0.0
149
0.0
 93
        0
 94
      127
282
     0
 72
     0
 77
     0
171
     0
175
     0
179
     0
273
     0
  0
XRECORD
  5
3EA
102
{ACAD_REACTORS
330
3E8
102
}
330
3E8
100
AcDbXrecord
280
     1
270
     1
271
     1
  0
XRECORD
  5
3E9
102
{ACAD_REACTORS
330
3E8
102
}
330
3E8
100
AcDbXrecord
280
     1
270
     1
271
     1
  0
XRECORD
  5
3ED
102
{ACAD_REACTORS
330
3E8
102
}
330
3E8
100
AcDbXrecord
280
     1
270
     1
271
     1
  0
XRECORD
  5
3EC
102
{ACAD_REACTORS
330
3E8
102
}
330
3E8
100
AcDbXrecord
280
     1
270
     1
271
     1
  0
XRECORD
  5
3EE
102
{ACAD_REACTORS
330
3E8
102
}
330
3E8
100
AcDbXrecord
280
     1
270
     1
271
     1
  0
XRECORD
  5
3EB
102
{ACAD_REACTORS
330
3E8
102
}
330
3E8
100
AcDbXrecord
280
     1
270
     1
271
     1
  0
XRECORD
  5
559
102
{ACAD_REACTORS
330
3E0
102
}
330
3E0
100
AcDbXrecord
280
     1
102
MATERIAL
148
0.0
149
0.0
149
0.0
 93
        0
 94
      127
282
     0
 72
     0
 77
     0
171
     0
175
     0
179
     0
273
     0
  0
XRECORD
  5
3E2
102
{ACAD_REACTORS
330
3E0
102
}
330
3E0
100
AcDbXrecord
280
     1
270
     1
271
     1
  0
XRECORD
  5
3E1
102
{ACAD_REACTORS
330
3E0
102
}
330
3E0
100
AcDbXrecord
280
     1
270
     1
271
     1
  0
XRECORD
  5
3E5
102
{ACAD_REACTORS
330
3E0
102
}
330
3E0
100
AcDbXrecord
280
     1
270
     1
271
     1
  0
XRECORD
  5
3E4
102
{ACAD_REACTORS
330
3E0
102
}
330
3E0
100
AcDbXrecord
280
     1
270
     1
271
     1
  0
XRECORD
  5
3E6
102
{ACAD_REACTORS
330
3E0
102
}
330
3E0
100
AcDbXrecord
280
     1
270
     1
271
     1
  0
XRECORD
  5
3E3
102
{ACAD_REACTORS
330
3E0
102
}
330
3E0
100
AcDbXrecord
280
     1
270
     1
271
     1
  0
XRECORD
  5
55B
102
{ACAD_REACTORS
330
3F0
102
}
330
3F0
100
AcDbXrecord
280
     1
102
MATERIAL
148
0.0
149
0.0
149
0.0
 93
        0
 94
      127
282
     0
 72
     0
 77
     0
171
     0
175
     0
179
     0
273
     0
  0
XRECORD
  5
3F2
102
{ACAD_REACTORS
330
3F0
102
}
330
3F0
100
AcDbXrecord
280
     1
270
     1
271
     1
  0
XRECORD
  5
3F1
102
{ACAD_REACTORS
330
3F0
102
}
330
3F0
100
AcDbXrecord
280
     1
270
     1
271
     1
  0
XRECORD
  5
3F5
102
{ACAD_REACTORS
330
3F0
102
}
330
3F0
100
AcDbXrecord
280
     1
270
     1
271
     1
  0
XRECORD
  5
3F4
102
{ACAD_REACTORS
330
3F0
102
}
330
3F0
100
AcDbXrecord
280
     1
270
     1
271
     1
  0
XRECORD
  5
3F6
102
{ACAD_REACTORS
330
3F0
102
}
330
3F0
100
AcDbXrecord
280
     1
270
     1
271
     1
  0
XRECORD
  5
3F3
102
{ACAD_REACTORS
330
3F0
102
}
330
3F0
100
AcDbXrecord
280
     1
270
     1
271
     1
  0
CELLSTYLEMAP
  5
554
102
{ACAD_REACTORS
330
553
102
}
330
553
100
AcDbCellStyleMap
 90
        3
300
CELLSTYLE
  1
TABLEFORMAT_BEGIN
 90
        5
170
     1
 91
        0
 92
    32768
 62
   257
 93
        1
300
CONTENTFORMAT
  1
CONTENTFORMAT_BEGIN
 90
        0
 91
        0
 92
      512
 93
        0
300

 40
0.0
140
1.0
 94
        5
 62
     0
340
F
144
6.0
309
CONTENTFORMAT_END
171
     1
301
MARGIN
  1
CELLMARGIN_BEGIN
 40
1.5
 40
1.5
 40
1.5
 40
1.5
 40
4.5
 40
4.5
309
CELLMARGIN_END
 94
        6
 95
        1
302
GRIDFORMAT
  1
GRIDFORMAT_BEGIN
 90
        0
 91
        1
 62
     0
 92
       -2
340
0
 93
        0
 40
1.125
309
GRIDFORMAT_END
 95
        2
302
GRIDFORMAT
  1
GRIDFORMAT_BEGIN
 90
        0
 91
        1
 62
     0
 92
       -2
340
0
 93
        0
 40
1.125
309
GRIDFORMAT_END
 95
        4
302
GRIDFORMAT
  1
GRIDFORMAT_BEGIN
 90
        0
 91
        1
 62
     0
 92
       -2
340
0
 93
        0
 40
1.125
309
GRIDFORMAT_END
 95
        8
302
GRIDFORMAT
  1
GRIDFORMAT_BEGIN
 90
        0
 91
        1
 62
     0
 92
       -2
340
0
 93
        0
 40
1.125
309
GRIDFORMAT_END
 95
       16
302
GRIDFORMAT
  1
GRIDFORMAT_BEGIN
 90
        0
 91
        1
 62
     0
 92
       -2
340
0
 93
        0
 40
1.125
309
GRIDFORMAT_END
 95
       32
302
GRIDFORMAT
  1
GRIDFORMAT_BEGIN
 90
        0
 91
        1
 62
     0
 92
       -2
340
0
 93
        0
 40
1.125
309
GRIDFORMAT_END
309
TABLEFORMAT_END
  1
CELLSTYLE_BEGIN
 90
        1
 91
        1
300
_TITLE
309
CELLSTYLE_END
300
CELLSTYLE
  1
TABLEFORMAT_BEGIN
 90
        5
170
     1
 91
        0
 92
        0
 62
   257
 93
        1
300
CONTENTFORMAT
  1
CONTENTFORMAT_BEGIN
 90
        0
 91
        0
 92
      512
 93
        0
300

 40
0.0
140
1.0
 94
        5
 62
     0
340
F
144
4.5
309
CONTENTFORMAT_END
171
     1
301
MARGIN
  1
CELLMARGIN_BEGIN
 40
1.5
 40
1.5
 40
1.5
 40
1.5
 40
4.5
 40
4.5
309
CELLMARGIN_END
 94
        6
 95
        1
302
GRIDFORMAT
  1
GRIDFORMAT_BEGIN
 90
        0
 91
        1
 62
     0
 92
       -2
340
0
 93
        0
 40
1.125
309
GRIDFORMAT_END
 95
        2
302
GRIDFORMAT
  1
GRIDFORMAT_BEGIN
 90
        0
 91
        1
 62
     0
 92
       -2
340
0
 93
        0
 40
1.125
309
GRIDFORMAT_END
 95
        4
302
GRIDFORMAT
  1
GRIDFORMAT_BEGIN
 90
        0
 91
        1
 62
     0
 92
       -2
340
0
 93
        0
 40
1.125
309
GRIDFORMAT_END
 95
        8
302
GRIDFORMAT
  1
GRIDFORMAT_BEGIN
 90
        0
 91
        1
 62
     0
 92
       -2
340
0
 93
        0
 40
1.125
309
GRIDFORMAT_END
 95
       16
302
GRIDFORMAT
  1
GRIDFORMAT_BEGIN
 90
        0
 91
        1
 62
     0
 92
       -2
340
0
 93
        0
 40
1.125
309
GRIDFORMAT_END
 95
       32
302
GRIDFORMAT
  1
GRIDFORMAT_BEGIN
 90
        0
 91
        1
 62
     0
 92
       -2
340
0
 93
        0
 40
1.125
309
GRIDFORMAT_END
309
TABLEFORMAT_END
  1
CELLSTYLE_BEGIN
 90
        2
 91
        1
300
_HEADER
309
CELLSTYLE_END
300
CELLSTYLE
  1
TABLEFORMAT_BEGIN
 90
        5
170
     1
 91
        0
 92
        0
 62
   257
 93
        1
300
CONTENTFORMAT
  1
CONTENTFORMAT_BEGIN
 90
        0
 91
        0
 92
      512
 93
        0
300

 40
0.0
140
1.0
 94
        2
 62
     0
340
F
144
4.5
309
CONTENTFORMAT_END
171
     1
301
MARGIN
  1
CELLMARGIN_BEGIN
 40
1.5
 40
1.5
 40
1.5
 40
1.5
 40
4.5
 40
4.5
309
CELLMARGIN_END
 94
        6
 95
        1
302
GRIDFORMAT
  1
GRIDFORMAT_BEGIN
 90
        0
 91
        1
 62
     0
 92
       -2
340
0
 93
        0
 40
1.125
309
GRIDFORMAT_END
 95
        2
302
GRIDFORMAT
  1
GRIDFORMAT_BEGIN
 90
        0
 91
        1
 62
     0
 92
       -2
340
0
 93
        0
 40
1.125
309
GRIDFORMAT_END
 95
        4
302
GRIDFORMAT
  1
GRIDFORMAT_BEGIN
 90
        0
 91
        1
 62
     0
 92
       -2
340
0
 93
        0
 40
1.125
309
GRIDFORMAT_END
 95
        8
302
GRIDFORMAT
  1
GRIDFORMAT_BEGIN
 90
        0
 91
        1
 62
     0
 92
       -2
340
0
 93
        0
 40
1.125
309
GRIDFORMAT_END
 95
       16
302
GRIDFORMAT
  1
GRIDFORMAT_BEGIN
 90
        0
 91
        1
 62
     0
 92
       -2
340
0
 93
        0
 40
1.125
309
GRIDFORMAT_END
 95
       32
302
GRIDFORMAT
  1
GRIDFORMAT_BEGIN
 90
        0
 91
        1
 62
     0
 92
       -2
340
0
 93
        0
 40
1.125
309
GRIDFORMAT_END
309
TABLEFORMAT_END
  1
CELLSTYLE_BEGIN
 90
        3
 91
        2
300
_DATA
309
CELLSTYLE_END
  0
XRECORD
  5
582
102
{ACAD_REACTORS
330
553
102
}
330
553
100
AcDbXrecord
280
     1
102
ACAD_ROUNDTRIP_PRE2007_TABLESTYLE
 90
      512
 91
        0
  1

 92
      512
 93
        0
  2

 94
      512
 95
        0
  3

  0
XRECORD
  5
567
102
{ACAD_REACTORS
330
566
102
}
330
566
100
AcDbXrecord
280
     1
102
RTVSPropertyOp0
 70
     1
102
RTVSPropertyOp1
 70
     1
102
RTVSPropertyOp2
 70
     1
102
RTVSPropertyOp3
 70
     1
102
RTVSPropertyOp4
 70
     1
102
RTVSPropertyOp5
 70
     1
102
RTVSPropertyOp6
 70
     1
102
RTVSPropertyOp7
 70
     1
102
RTVSPropertyOp8
 70
     1
102
RTVSPropertyOp9
 70
     1
102
RTVSPropertyOp10
 70
     1
102
RTVSPropertyOp11
 70
     1
102
RTVSPropertyOp12
 70
     1
102
RTVSPropertyOp13
 70
     1
102
RTVSPropertyOp14
 70
     1
102
RTVSPropertyOp15
 70
     1
102
RTVSPropertyOp16
 70
     1
102
RTVSPropertyOp17
 70
     1
102
RTVSPropertyOp18
 70
     1
102
RTVSPropertyOp19
 70
     1
102
RTVSPropertyOp20
 70
     1
102
RTVSPropertyOp21
 70
     1
102
RTVSPropertyOp22
 70
     1
102
RTVSPropertyOp23
 70
     1
102
RTVSPropertyOp24
 70
     1
102
RTVSPropertyOp25
 70
     1
102
RTVSPropertyOp26
 70
     1
102
RTVSPropertyOp27
 70
     1
  0
XRECORD
  5
56B
102
{ACAD_REACTORS
330
56A
102
}
330
56A
100
AcDbXrecord
280
     1
102
RTVSPropertyOp0
 70
     1
102
RTVSPropertyOp1
 70
     1
102
RTVSPropertyOp2
 70
     1
102
RTVSPropertyOp3
 70
     1
102
RTVSPropertyOp4
 70
     1
102
RTVSPropertyOp5
 70
     1
102
RTVSPropertyOp6
 70
     1
102
RTVSPropertyOp7
 70
     1
102
RTVSPropertyOp8
 70
     1
102
RTVSPropertyOp9
 70
     1
102
RTVSPropertyOp10
 70
     1
102
RTVSPropertyOp11
 70
     1
102
RTVSPropertyOp12
 70
     1
102
RTVSPropertyOp13
 70
     1
102
RTVSPropertyOp14
 70
     1
102
RTVSPropertyOp15
 70
     1
102
RTVSPropertyOp16
 70
     1
102
RTVSPropertyOp17
 70
     1
102
RTVSPropertyOp18
 70
     1
102
RTVSPropertyOp19
 70
     1
102
RTVSPropertyOp20
 70
     1
102
RTVSPropertyOp21
 70
     1
102
RTVSPropertyOp22
 70
     1
102
RTVSPropertyOp23
 70
     1
102
RTVSPropertyOp24
 70
     1
102
RTVSPropertyOp25
 70
     1
102
RTVSPropertyOp26
 70
     1
102
RTVSPropertyOp27
 70
     1
  0
XRECORD
  5
569
102
{ACAD_REACTORS
330
568
102
}
330
568
100
AcDbXrecord
280
     1
102
RTVSPropertyOp0
 70
     1
102
RTVSPropertyOp1
 70
     1
102
RTVSPropertyOp2
 70
     1
102
RTVSPropertyOp3
 70
     1
102
RTVSPropertyOp4
 70
     1
102
RTVSPropertyOp5
 70
     1
102
RTVSPropertyOp6
 70
     1
102
RTVSPropertyOp7
 70
     1
102
RTVSPropertyOp8
 70
     1
102
RTVSPropertyOp9
 70
     1
102
RTVSPropertyOp10
 70
     1
102
RTVSPropertyOp11
 70
     1
102
RTVSPropertyOp12
 70
     1
102
RTVSPropertyOp13
 70
     1
102
RTVSPropertyOp14
 70
     1
102
RTVSPropertyOp15
 70
     1
102
RTVSPropertyOp16
 70
     1
102
RTVSPropertyOp17
 70
     1
102
RTVSPropertyOp18
 70
     1
102
RTVSPropertyOp19
 70
     1
102
RTVSPropertyOp20
 70
     1
102
RTVSPropertyOp21
 70
     1
102
RTVSPropertyOp22
 70
     1
102
RTVSPropertyOp23
 70
     1
102
RTVSPropertyOp24
 70
     1
102
RTVSPropertyOp25
 70
     1
102
RTVSPropertyOp26
 70
     1
102
RTVSPropertyOp27
 70
     1
  0
XRECORD
  5
565
102
{ACAD_REACTORS
330
564
102
}
330
564
100
AcDbXrecord
280
     1
102
RTVSPropertyOp0
 70
     1
102
RTVSPropertyOp1
 70
     1
102
RTVSPropertyOp2
 70
     1
102
RTVSPropertyOp3
 70
     1
102
RTVSPropertyOp4
 70
     1
102
RTVSPropertyOp5
 70
     1
102
RTVSPropertyOp6
 70
     1
102
RTVSPropertyOp7
 70
     1
102
RTVSPropertyOp8
 70
     1
102
RTVSPropertyOp9
 70
     1
102
RTVSPropertyOp10
 70
     1
102
RTVSPropertyOp11
 70
     1
102
RTVSPropertyOp12
 70
     1
102
RTVSPropertyOp13
 70
     1
102
RTVSPropertyOp14
 70
     1
102
RTVSPropertyOp15
 70
     1
102
RTVSPropertyOp16
 70
     1
102
RTVSPropertyOp17
 70
     1
102
RTVSPropertyOp18
 70
     1
102
RTVSPropertyOp19
 70
     1
102
RTVSPropertyOp20
 70
     1
102
RTVSPropertyOp21
 70
     1
102
RTVSPropertyOp22
 70
     1
102
RTVSPropertyOp23
 70
     1
102
RTVSPropertyOp24
 70
     1
102
RTVSPropertyOp25
 70
     1
102
RTVSPropertyOp26
 70
     1
102
RTVSPropertyOp27
 70
     1
  0
XRECORD
  5
573
102
{ACAD_REACTORS
330
572
102
}
330
572
100
AcDbXrecord
280
     1
102
RTVSPropertyOp0
 70
     1
102
RTVSPropertyOp1
 70
     1
102
RTVSPropertyOp2
 70
     1
102
RTVSPropertyOp3
 70
     1
102
RTVSPropertyOp4
 70
     1
102
RTVSPropertyOp5
 70
     1
102
RTVSPropertyOp6
 70
     1
102
RTVSPropertyOp7
 70
     1
102
RTVSPropertyOp8
 70
     1
102
RTVSPropertyOp9
 70
     1
102
RTVSPropertyOp10
 70
     1
102
RTVSPropertyOp11
 70
     1
102
RTVSPropertyOp12
 70
     1
102
RTVSPropertyOp13
 70
     1
102
RTVSPropertyOp14
 70
     1
102
RTVSPropertyOp15
 70
     1
102
RTVSPropertyOp16
 70
     1
102
RTVSPropertyOp17
 70
     1
102
RTVSPropertyOp18
 70
     1
102
RTVSPropertyOp19
 70
     1
102
RTVSPropertyOp20
 70
     1
102
RTVSPropertyOp21
 70
     1
102
RTVSPropertyOp22
 70
     1
102
RTVSPropertyOp23
 70
     1
102
RTVSPropertyOp24
 70
     1
102
RTVSPropertyOp25
 70
     1
102
RTVSPropertyOp26
 70
     1
102
RTVSPropertyOp27
 70
     1
  0
XRECORD
  5
57B
102
{ACAD_REACTORS
330
57A
102
}
330
57A
100
AcDbXrecord
280
     1
102
RTVSPropertyOp0
 70
     1
102
RTVSPropertyOp1
 70
     1
102
RTVSPropertyOp2
 70
     1
102
RTVSPropertyOp3
 70
     1
102
RTVSPropertyOp4
 70
     1
102
RTVSPropertyOp5
 70
     1
102
RTVSPropertyOp6
 70
     1
102
RTVSPropertyOp7
 70
     1
102
RTVSPropertyOp8
 70
     1
102
RTVSPropertyOp9
 70
     1
102
RTVSPropertyOp10
 70
     1
102
RTVSPropertyOp11
 70
     1
102
RTVSPropertyOp12
 70
     1
102
RTVSPropertyOp13
 70
     1
102
RTVSPropertyOp14
 70
     1
102
RTVSPropertyOp15
 70
     1
102
RTVSPropertyOp16
 70
     1
102
RTVSPropertyOp17
 70
     1
102
RTVSPropertyOp18
 70
     1
102
RTVSPropertyOp19
 70
     1
102
RTVSPropertyOp20
 70
     1
102
RTVSPropertyOp21
 70
     1
102
RTVSPropertyOp22
 70
     1
102
RTVSPropertyOp23
 70
     1
102
RTVSPropertyOp24
 70
     1
102
RTVSPropertyOp25
 70
     1
102
RTVSPropertyOp26
 70
     1
102
RTVSPropertyOp27
 70
     1
  0
XRECORD
  5
56D
102
{ACAD_REACTORS
330
56C
102
}
330
56C
100
AcDbXrecord
280
     1
102
RTVSPropertyOp0
 70
     1
102
RTVSPropertyOp1
 70
     1
102
RTVSPropertyOp2
 70
     1
102
RTVSPropertyOp3
 70
     1
102
RTVSPropertyOp4
 70
     1
102
RTVSPropertyOp5
 70
     1
102
RTVSPropertyOp6
 70
     1
102
RTVSPropertyOp7
 70
     1
102
RTVSPropertyOp8
 70
     1
102
RTVSPropertyOp9
 70
     1
102
RTVSPropertyOp10
 70
     1
102
RTVSPropertyOp11
 70
     1
102
RTVSPropertyOp12
 70
     1
102
RTVSPropertyOp13
 70
     1
102
RTVSPropertyOp14
 70
     1
102
RTVSPropertyOp15
 70
     1
102
RTVSPropertyOp16
 70
     1
102
RTVSPropertyOp17
 70
     1
102
RTVSPropertyOp18
 70
     1
102
RTVSPropertyOp19
 70
     1
102
RTVSPropertyOp20
 70
     1
102
RTVSPropertyOp21
 70
     1
102
RTVSPropertyOp22
 70
     1
102
RTVSPropertyOp23
 70
     1
102
RTVSPropertyOp24
 70
     1
102
RTVSPropertyOp25
 70
     1
102
RTVSPropertyOp26
 70
     1
102
RTVSPropertyOp27
 70
     1
  0
XRECORD
  5
571
102
{ACAD_REACTORS
330
570
102
}
330
570
100
AcDbXrecord
280
     1
102
RTVSPropertyOp0
 70
     1
102
RTVSPropertyOp1
 70
     1
102
RTVSPropertyOp2
 70
     1
102
RTVSPropertyOp3
 70
     1
102
RTVSPropertyOp4
 70
     1
102
RTVSPropertyOp5
 70
     1
102
RTVSPropertyOp6
 70
     1
102
RTVSPropertyOp7
 70
     1
102
RTVSPropertyOp8
 70
     1
102
RTVSPropertyOp9
 70
     1
102
RTVSPropertyOp10
 70
     1
102
RTVSPropertyOp11
 70
     1
102
RTVSPropertyOp12
 70
     1
102
RTVSPropertyOp13
 70
     1
102
RTVSPropertyOp14
 70
     1
102
RTVSPropertyOp15
 70
     1
102
RTVSPropertyOp16
 70
     1
102
RTVSPropertyOp17
 70
     1
102
RTVSPropertyOp18
 70
     1
102
RTVSPropertyOp19
 70
     1
102
RTVSPropertyOp20
 70
     1
102
RTVSPropertyOp21
 70
     1
102
RTVSPropertyOp22
 70
     1
102
RTVSPropertyOp23
 70
     1
102
RTVSPropertyOp24
 70
     1
102
RTVSPropertyOp25
 70
     1
102
RTVSPropertyOp26
 70
     1
102
RTVSPropertyOp27
 70
     1
  0
XRECORD
  5
581
102
{ACAD_REACTORS
330
580
102
}
330
580
100
AcDbXrecord
280
     1
102
RTVSPropertyOp0
 70
     0
102
RTVSPropertyOp1
 70
     0
102
RTVSPropertyOp2
 70
     0
102
RTVSPropertyOp3
 70
     0
102
RTVSPropertyOp4
 70
     0
102
RTVSPropertyOp5
 70
     0
102
RTVSPropertyOp6
 70
     0
102
RTVSPropertyOp7
 70
     0
102
RTVSPropertyOp8
 70
     0
102
RTVSPropertyOp9
 70
     0
102
RTVSPropertyOp10
 70
     0
102
RTVSPropertyOp11
 70
     0
102
RTVSPropertyOp12
 70
     0
102
RTVSPropertyOp13
 70
     0
102
RTVSPropertyOp14
 70
     2
102
RTVSPropertyOp15
 70
     0
102
RTVSPropertyOp16
 70
     0
102
RTVSPropertyOp17
 70
     0
102
RTVSPropertyOp18
 70
     0
102
RTVSPropertyOp19
 70
     0
102
RTVSPropertyOp20
 70
     0
102
RTVSPropertyOp21
 70
     0
102
RTVSPropertyOp22
 70
     0
102
RTVSPropertyOp23
 70
     0
102
RTVSPropertyOp24
 70
     0
102
RTVSPropertyOp25
 70
     0
102
RTVSPropertyOp26
 70
     0
102
RTVSPropertyOp27
 70
     0
  0
XRECORD
  5
579
102
{ACAD_REACTORS
330
578
102
}
330
578
100
AcDbXrecord
280
     1
102
RTVSPropertyOp0
 70
     1
102
RTVSPropertyOp1
 70
     1
102
RTVSPropertyOp2
 70
     1
102
RTVSPropertyOp3
 70
     1
102
RTVSPropertyOp4
 70
     1
102
RTVSPropertyOp5
 70
     1
102
RTVSPropertyOp6
 70
     1
102
RTVSPropertyOp7
 70
     1
102
RTVSPropertyOp8
 70
     1
102
RTVSPropertyOp9
 70
     1
102
RTVSPropertyOp10
 70
     1
102
RTVSPropertyOp11
 70
     1
102
RTVSPropertyOp12
 70
     1
102
RTVSPropertyOp13
 70
     1
102
RTVSPropertyOp14
 70
     1
102
RTVSPropertyOp15
 70
     1
102
RTVSPropertyOp16
 70
     1
102
RTVSPropertyOp17
 70
     1
102
RTVSPropertyOp18
 70
     1
102
RTVSPropertyOp19
 70
     1
102
RTVSPropertyOp20
 70
     1
102
RTVSPropertyOp21
 70
     1
102
RTVSPropertyOp22
 70
     1
102
RTVSPropertyOp23
 70
     1
102
RTVSPropertyOp24
 70
     1
102
RTVSPropertyOp25
 70
     1
102
RTVSPropertyOp26
 70
     1
102
RTVSPropertyOp27
 70
     1
  0
XRECORD
  5
55D
102
{ACAD_REACTORS
330
55C
102
}
330
55C
100
AcDbXrecord
280
     1
102
RTVSPropertyOp0
 70
     1
102
RTVSPropertyOp1
 70
     1
102
RTVSPropertyOp2
 70
     1
102
RTVSPropertyOp3
 70
     1
102
RTVSPropertyOp4
 70
     1
102
RTVSPropertyOp5
 70
     1
102
RTVSPropertyOp6
 70
     1
102
RTVSPropertyOp7
 70
     1
102
RTVSPropertyOp8
 70
     1
102
RTVSPropertyOp9
 70
     1
102
RTVSPropertyOp10
 70
     1
102
RTVSPropertyOp11
 70
     1
102
RTVSPropertyOp12
 70
     1
102
RTVSPropertyOp13
 70
     1
102
RTVSPropertyOp14
 70
     1
102
RTVSPropertyOp15
 70
     1
102
RTVSPropertyOp16
 70
     1
102
RTVSPropertyOp17
 70
     1
102
RTVSPropertyOp18
 70
     1
102
RTVSPropertyOp19
 70
     1
102
RTVSPropertyOp20
 70
     1
102
RTVSPropertyOp21
 70
     1
102
RTVSPropertyOp22
 70
     1
102
RTVSPropertyOp23
 70
     1
102
RTVSPropertyOp24
 70
     1
102
RTVSPropertyOp25
 70
     1
102
RTVSPropertyOp26
 70
     1
102
RTVSPropertyOp27
 70
     1
  0
XRECORD
  5
55F
102
{ACAD_REACTORS
330
55E
102
}
330
55E
100
AcDbXrecord
280
     1
102
RTVSPropertyOp0
 70
     1
102
RTVSPropertyOp1
 70
     1
102
RTVSPropertyOp2
 70
     1
102
RTVSPropertyOp3
 70
     1
102
RTVSPropertyOp4
 70
     1
102
RTVSPropertyOp5
 70
     1
102
RTVSPropertyOp6
 70
     1
102
RTVSPropertyOp7
 70
     1
102
RTVSPropertyOp8
 70
     1
102
RTVSPropertyOp9
 70
     1
102
RTVSPropertyOp10
 70
     1
102
RTVSPropertyOp11
 70
     1
102
RTVSPropertyOp12
 70
     1
102
RTVSPropertyOp13
 70
     1
102
RTVSPropertyOp14
 70
     1
102
RTVSPropertyOp15
 70
     1
102
RTVSPropertyOp16
 70
     1
102
RTVSPropertyOp17
 70
     1
102
RTVSPropertyOp18
 70
     1
102
RTVSPropertyOp19
 70
     1
102
RTVSPropertyOp20
 70
     1
102
RTVSPropertyOp21
 70
     1
102
RTVSPropertyOp22
 70
     1
102
RTVSPropertyOp23
 70
     1
102
RTVSPropertyOp24
 70
     1
102
RTVSPropertyOp25
 70
     1
102
RTVSPropertyOp26
 70
     1
102
RTVSPropertyOp27
 70
     1
  0
XRECORD
  5
561
102
{ACAD_REACTORS
330
560
102
}
330
560
100
AcDbXrecord
280
     1
102
RTVSPropertyOp0
 70
     1
102
RTVSPropertyOp1
 70
     1
102
RTVSPropertyOp2
 70
     1
102
RTVSPropertyOp3
 70
     1
102
RTVSPropertyOp4
 70
     1
102
RTVSPropertyOp5
 70
     1
102
RTVSPropertyOp6
 70
     1
102
RTVSPropertyOp7
 70
     1
102
RTVSPropertyOp8
 70
     1
102
RTVSPropertyOp9
 70
     1
102
RTVSPropertyOp10
 70
     1
102
RTVSPropertyOp11
 70
     1
102
RTVSPropertyOp12
 70
     1
102
RTVSPropertyOp13
 70
     1
102
RTVSPropertyOp14
 70
     1
102
RTVSPropertyOp15
 70
     1
102
RTVSPropertyOp16
 70
     1
102
RTVSPropertyOp17
 70
     1
102
RTVSPropertyOp18
 70
     1
102
RTVSPropertyOp19
 70
     1
102
RTVSPropertyOp20
 70
     1
102
RTVSPropertyOp21
 70
     1
102
RTVSPropertyOp22
 70
     1
102
RTVSPropertyOp23
 70
     1
102
RTVSPropertyOp24
 70
     1
102
RTVSPropertyOp25
 70
     1
102
RTVSPropertyOp26
 70
     1
102
RTVSPropertyOp27
 70
     1
  0
XRECORD
  5
563
102
{ACAD_REACTORS
330
562
102
}
330
562
100
AcDbXrecord
280
     1
102
RTVSPropertyOp0
 70
     1
102
RTVSPropertyOp1
 70
     1
102
RTVSPropertyOp2
 70
     1
102
RTVSPropertyOp3
 70
     1
102
RTVSPropertyOp4
 70
     1
102
RTVSPropertyOp5
 70
     1
102
RTVSPropertyOp6
 70
     1
102
RTVSPropertyOp7
 70
     1
102
RTVSPropertyOp8
 70
     1
102
RTVSPropertyOp9
 70
     1
102
RTVSPropertyOp10
 70
     1
102
RTVSPropertyOp11
 70
     1
102
RTVSPropertyOp12
 70
     1
102
RTVSPropertyOp13
 70
     1
102
RTVSPropertyOp14
 70
     1
102
RTVSPropertyOp15
 70
     1
102
RTVSPropertyOp16
 70
     1
102
RTVSPropertyOp17
 70
     1
102
RTVSPropertyOp18
 70
     1
102
RTVSPropertyOp19
 70
     1
102
RTVSPropertyOp20
 70
     1
102
RTVSPropertyOp21
 70
     1
102
RTVSPropertyOp22
 70
     1
102
RTVSPropertyOp23
 70
     1
102
RTVSPropertyOp24
 70
     1
102
RTVSPropertyOp25
 70
     1
102
RTVSPropertyOp26
 70
     1
102
RTVSPropertyOp27
 70
     1
  0
XRECORD
  5
57D
102
{ACAD_REACTORS
330
57C
102
}
330
57C
100
AcDbXrecord
280
     1
102
RTVSPropertyOp0
 70
     0
102
RTVSPropertyOp1
 70
     0
102
RTVSPropertyOp2
 70
     0
102
RTVSPropertyOp3
 70
     0
102
RTVSPropertyOp4
 70
     0
102
RTVSPropertyOp5
 70
     0
102
RTVSPropertyOp6
 70
     0
102
RTVSPropertyOp7
 70
     0
102
RTVSPropertyOp8
 70
     0
102
RTVSPropertyOp9
 70
     0
102
RTVSPropertyOp10
 70
     0
102
RTVSPropertyOp11
 70
     0
102
RTVSPropertyOp12
 70
     0
102
RTVSPropertyOp13
 70
     0
102
RTVSPropertyOp14
 70
     2
102
RTVSPropertyOp15
 70
     0
102
RTVSPropertyOp16
 70
     0
102
RTVSPropertyOp17
 70
     0
102
RTVSPropertyOp18
 70
     0
102
RTVSPropertyOp19
 70
     0
102
RTVSPropertyOp20
 70
     0
102
RTVSPropertyOp21
 70
     0
102
RTVSPropertyOp22
 70
     0
102
RTVSPropertyOp23
 70
     0
102
RTVSPropertyOp24
 70
     0
102
RTVSPropertyOp25
 70
     0
102
RTVSPropertyOp26
 70
     0
102
RTVSPropertyOp27
 70
     0
  0
XRECORD
  5
577
102
{ACAD_REACTORS
330
576
102
}
330
576
100
AcDbXrecord
280
     1
102
RTVSPropertyOp0
 70
     1
102
RTVSPropertyOp1
 70
     1
102
RTVSPropertyOp2
 70
     1
102
RTVSPropertyOp3
 70
     1
102
RTVSPropertyOp4
 70
     1
102
RTVSPropertyOp5
 70
     1
102
RTVSPropertyOp6
 70
     1
102
RTVSPropertyOp7
 70
     1
102
RTVSPropertyOp8
 70
     1
102
RTVSPropertyOp9
 70
     1
102
RTVSPropertyOp10
 70
     1
102
RTVSPropertyOp11
 70
     1
102
RTVSPropertyOp12
 70
     1
102
RTVSPropertyOp13
 70
     1
102
RTVSPropertyOp14
 70
     1
102
RTVSPropertyOp15
 70
     1
102
RTVSPropertyOp16
 70
     1
102
RTVSPropertyOp17
 70
     1
102
RTVSPropertyOp18
 70
     1
102
RTVSPropertyOp19
 70
     1
102
RTVSPropertyOp20
 70
     1
102
RTVSPropertyOp21
 70
     1
102
RTVSPropertyOp22
 70
     1
102
RTVSPropertyOp23
 70
     1
102
RTVSPropertyOp24
 70
     1
102
RTVSPropertyOp25
 70
     1
102
RTVSPropertyOp26
 70
     1
102
RTVSPropertyOp27
 70
     1
  0
XRECORD
  5
57F
102
{ACAD_REACTORS
330
57E
102
}
330
57E
100
AcDbXrecord
280
     1
102
RTVSPropertyOp0
 70
     0
102
RTVSPropertyOp1
 70
     0
102
RTVSPropertyOp2
 70
     0
102
RTVSPropertyOp3
 70
     0
102
RTVSPropertyOp4
 70
     0
102
RTVSPropertyOp5
 70
     0
102
RTVSPropertyOp6
 70
     0
102
RTVSPropertyOp7
 70
     0
102
RTVSPropertyOp8
 70
     0
102
RTVSPropertyOp9
 70
     0
102
RTVSPropertyOp10
 70
     0
102
RTVSPropertyOp11
 70
     0
102
RTVSPropertyOp12
 70
     0
102
RTVSPropertyOp13
 70
     0
102
RTVSPropertyOp14
 70
     2
102
RTVSPropertyOp15
 70
     0
102
RTVSPropertyOp16
 70
     0
102
RTVSPropertyOp17
 70
     0
102
RTVSPropertyOp18
 70
     0
102
RTVSPropertyOp19
 70
     0
102
RTVSPropertyOp20
 70
     0
102
RTVSPropertyOp21
 70
     0
102
RTVSPropertyOp22
 70
     0
102
RTVSPropertyOp23
 70
     0
102
RTVSPropertyOp24
 70
     0
102
RTVSPropertyOp25
 70
     0
102
RTVSPropertyOp26
 70
     0
102
RTVSPropertyOp27
 70
     0
  0
XRECORD
  5
56F
102
{ACAD_REACTORS
330
56E
102
}
330
56E
100
AcDbXrecord
280
     1
102
RTVSPropertyOp0
 70
     1
102
RTVSPropertyOp1
 70
     1
102
RTVSPropertyOp2
 70
     1
102
RTVSPropertyOp3
 70
     1
102
RTVSPropertyOp4
 70
     1
102
RTVSPropertyOp5
 70
     1
102
RTVSPropertyOp6
 70
     1
102
RTVSPropertyOp7
 70
     1
102
RTVSPropertyOp8
 70
     1
102
RTVSPropertyOp9
 70
     1
102
RTVSPropertyOp10
 70
     1
102
RTVSPropertyOp11
 70
     1
102
RTVSPropertyOp12
 70
     1
102
RTVSPropertyOp13
 70
     1
102
RTVSPropertyOp14
 70
     1
102
RTVSPropertyOp15
 70
     1
102
RTVSPropertyOp16
 70
     1
102
RTVSPropertyOp17
 70
     1
102
RTVSPropertyOp18
 70
     1
102
RTVSPropertyOp19
 70
     1
102
RTVSPropertyOp20
 70
     1
102
RTVSPropertyOp21
 70
     1
102
RTVSPropertyOp22
 70
     1
102
RTVSPropertyOp23
 70
     1
102
RTVSPropertyOp24
 70
     1
102
RTVSPropertyOp25
 70
     1
102
RTVSPropertyOp26
 70
     1
102
RTVSPropertyOp27
 70
     1
  0
XRECORD
  5
575
102
{ACAD_REACTORS
330
574
102
}
330
574
100
AcDbXrecord
280
     1
102
RTVSPropertyOp0
 70
     1
102
RTVSPropertyOp1
 70
     1
102
RTVSPropertyOp2
 70
     1
102
RTVSPropertyOp3
 70
     1
102
RTVSPropertyOp4
 70
     1
102
RTVSPropertyOp5
 70
     1
102
RTVSPropertyOp6
 70
     1
102
RTVSPropertyOp7
 70
     1
102
RTVSPropertyOp8
 70
     1
102
RTVSPropertyOp9
 70
     1
102
RTVSPropertyOp10
 70
     1
102
RTVSPropertyOp11
 70
     1
102
RTVSPropertyOp12
 70
     1
102
RTVSPropertyOp13
 70
     1
102
RTVSPropertyOp14
 70
     1
102
RTVSPropertyOp15
 70
     1
102
RTVSPropertyOp16
 70
     1
102
RTVSPropertyOp17
 70
     1
102
RTVSPropertyOp18
 70
     1
102
RTVSPropertyOp19
 70
     1
102
RTVSPropertyOp20
 70
     1
102
RTVSPropertyOp21
 70
     1
102
RTVSPropertyOp22
 70
     1
102
RTVSPropertyOp23
 70
     1
102
RTVSPropertyOp24
 70
     1
102
RTVSPropertyOp25
 70
     1
102
RTVSPropertyOp26
 70
     1
102
RTVSPropertyOp27
 70
     1
  0
DICTIONARY
  5
504
102
{ACAD_REACTORS
330
503
102
}
330
503
100
AcDbDictionary
280
     1
281
     1
  3
PH_GRPMEMBERS
360
505
  0
PH_GROUP
  5
506
102
{ACAD_REACTORS
330
503
102
}
330
503
  0
PH_GROUP
  5
505
102
{ACAD_REACTORS
330
504
102
}
330
504
  0
ENDSEC
  0
EOF
