  0
SECTION
  2
HEADER
  9
$ACADVER
  1
AC1015
  9
$ACADMAINTVER
 70
    20
  9
$DWGCODEPAGE
  3
ANSI_1252
  9
$INSBASE
 10
0.0
 20
0.0
 30
0.0
  9
$EXTMIN
 10
0.9805307641864828
 20
0.9879462492978063
 30
-0.0015258207003583
  9
$EXTMAX
 10
419.019471191591
 20
296.0120551337162
 30
0.0000000349246037
  9
$LIMMIN
 10
0.0
 20
0.0
  9
$LIMMAX
 10
420.0
 20
297.0
  9
$ORTHOMODE
 70
     1
  9
$REGENMODE
 70
     1
  9
$FILLMODE
 70
     1
  9
$QTEXTMODE
 70
     0
  9
$MIRRTEXT
 70
     1
  9
$LTSCALE
 40
1.0
  9
$ATTMODE
 70
     1
  9
$TEXTSIZE
 40
0.2
  9
$TRACEWID
 40
0.05
  9
$TEXTSTYLE
  7
STANDARD
  9
$CLAYER
  8
0
  9
$CELTYPE
  6
ACAD_ISO05W100
  9
$CECOLOR
 62
     3
  9
$CELTSCALE
 40
1.0
  9
$DISPSILH
 70
     0
  9
$DIMSCALE
 40
1.0
  9
$DIMASZ
 40
0.18
  9
$DIMEXO
 40
0.0625
  9
$DIMDLI
 40
0.38
  9
$DIMRND
 40
0.0
  9
$DIMDLE
 40
0.0
  9
$DIMEXE
 40
0.18
  9
$DIMTP
 40
0.0
  9
$DIMTM
 40
0.0
  9
$DIMTXT
 40
0.18
  9
$DIMCEN
 40
0.09
  9
$DIMTSZ
 40
0.0
  9
$DIMTOL
 70
     0
  9
$DIMLIM
 70
     0
  9
$DIMTIH
 70
     1
  9
$DIMTOH
 70
     1
  9
$DIMSE1
 70
     0
  9
$DIMSE2
 70
     0
  9
$DIMTAD
 70
     0
  9
$DIMZIN
 70
     0
  9
$DIMBLK
  1

  9
$DIMASO
 70
     1
  9
$DIMSHO
 70
     1
  9
$DIMPOST
  1

  9
$DIMAPOST
  1

  9
$DIMALT
 70
     0
  9
$DIMALTD
 70
     2
  9
$DIMALTF
 40
25.4
  9
$DIMLFAC
 40
1.0
  9
$DIMTOFL
 70
     0
  9
$DIMTVP
 40
0.0
  9
$DIMTIX
 70
     0
  9
$DIMSOXD
 70
     0
  9
$DIMSAH
 70
     0
  9
$DIMBLK1
  1

  9
$DIMBLK2
  1

  9
$DIMSTYLE
  2
STANDARD
  9
$DIMCLRD
 70
     0
  9
$DIMCLRE
 70
     0
  9
$DIMCLRT
 70
     0
  9
$DIMTFAC
 40
1.0
  9
$DIMGAP
 40
0.09
  9
$DIMJUST
 70
     0
  9
$DIMSD1
 70
     0
  9
$DIMSD2
 70
     0
  9
$DIMTOLJ
 70
     1
  9
$DIMTZIN
 70
     0
  9
$DIMALTZ
 70
     0
  9
$DIMALTTZ
 70
     0
  9
$DIMUPT
 70
     0
  9
$DIMDEC
 70
     4
  9
$DIMTDEC
 70
     4
  9
$DIMALTU
 70
     2
  9
$DIMALTTD
 70
     2
  9
$DIMTXSTY
  7
STANDARD
  9
$DIMAUNIT
 70
     0
  9
$DIMADEC
 70
     0
  9
$DIMALTRND
 40
0.0
  9
$DIMAZIN
 70
     0
  9
$DIMDSEP
 70
    46
  9
$DIMATFIT
 70
     3
  9
$DIMFRAC
 70
     0
  9
$DIMLDRBLK
  1

  9
$DIMLUNIT
 70
     2
  9
$DIMLWD
 70
    -2
  9
$DIMLWE
 70
    -2
  9
$DIMTMOVE
 70
     0
  9
$LUNITS
 70
     2
  9
$LUPREC
 70
     4
  9
$SKETCHINC
 40
0.1
  9
$FILLETRAD
 40
0.0
  9
$AUNITS
 70
     0
  9
$AUPREC
 70
     0
  9
$MENU
  1
acad
  9
$ELEVATION
 40
0.0
  9
$PELEVATION
 40
0.0
  9
$THICKNESS
 40
0.0
  9
$LIMCHECK
 70
     0
  9
$CHAMFERA
 40
0.0
  9
$CHAMFERB
 40
0.0
  9
$CHAMFERC
 40
0.0
  9
$CHAMFERD
 40
0.0
  9
$SKPOLY
 70
     0
  9
$TDCREATE
 40
2450591.568666910
  9
$TDUCREATE
 40
2450591.485333577
  9
$TDUPDATE
 40
2456784.369088299
  9
$TDUUPDATE
 40
2456784.285754965
  9
$TDINDWG
 40
0.1799679861
  9
$TDUSRTIMER
 40
0.1799679861
  9
$USRTIMER
 70
     1
  9
$ANGBASE
 50
0.0
  9
$ANGDIR
 70
     0
  9
$PDMODE
 70
    35
  9
$PDSIZE
 40
-2.0
  9
$PLINEWID
 40
0.0
  9
$SPLFRAME
 70
     0
  9
$SPLINETYPE
 70
     6
  9
$SPLINESEGS
 70
     8
  9
$HANDSEED
  5
1740
  9
$SURFTAB1
 70
     6
  9
$SURFTAB2
 70
     6
  9
$SURFTYPE
 70
     6
  9
$SURFU
 70
     6
  9
$SURFV
 70
     6
  9
$UCSBASE
  2

  9
$UCSNAME
  2

  9
$UCSORG
 10
0.0
 20
0.0
 30
0.0
  9
$UCSXDIR
 10
1.0
 20
0.0
 30
0.0
  9
$UCSYDIR
 10
0.0
 20
1.0
 30
0.0
  9
$UCSORTHOREF
  2

  9
$UCSORTHOVIEW
 70
     0
  9
$UCSORGTOP
 10
0.0
 20
0.0
 30
0.0
  9
$UCSORGBOTTOM
 10
0.0
 20
0.0
 30
0.0
  9
$UCSORGLEFT
 10
0.0
 20
0.0
 30
0.0
  9
$UCSORGRIGHT
 10
0.0
 20
0.0
 30
0.0
  9
$UCSORGFRONT
 10
0.0
 20
0.0
 30
0.0
  9
$UCSORGBACK
 10
0.0
 20
0.0
 30
0.0
  9
$PUCSBASE
  2

  9
$PUCSNAME
  2

  9
$PUCSORG
 10
0.0
 20
0.0
 30
0.0
  9
$PUCSXDIR
 10
1.0
 20
0.0
 30
0.0
  9
$PUCSYDIR
 10
0.0
 20
1.0
 30
0.0
  9
$PUCSORTHOREF
  2

  9
$PUCSORTHOVIEW
 70
     0
  9
$PUCSORGTOP
 10
0.0
 20
0.0
 30
0.0
  9
$PUCSORGBOTTOM
 10
0.0
 20
0.0
 30
0.0
  9
$PUCSORGLEFT
 10
0.0
 20
0.0
 30
0.0
  9
$PUCSORGRIGHT
 10
0.0
 20
0.0
 30
0.0
  9
$PUCSORGFRONT
 10
0.0
 20
0.0
 30
0.0
  9
$PUCSORGBACK
 10
0.0
 20
0.0
 30
0.0
  9
$USERI1
 70
     0
  9
$USERI2
 70
     0
  9
$USERI3
 70
     0
  9
$USERI4
 70
     0
  9
$USERI5
 70
     0
  9
$USERR1
 40
0.0
  9
$USERR2
 40
0.0
  9
$USERR3
 40
0.0
  9
$USERR4
 40
0.0
  9
$USERR5
 40
0.0
  9
$WORLDVIEW
 70
     1
  9
$SHADEDGE
 70
     3
  9
$SHADEDIF
 70
    70
  9
$TILEMODE
 70
     1
  9
$MAXACTVP
 70
    16
  9
$PINSBASE
 10
0.0
 20
0.0
 30
0.0
  9
$PLIMCHECK
 70
     0
  9
$PEXTMIN
 10
1.000000000000000E+20
 20
1.000000000000000E+20
 30
1.000000000000000E+20
  9
$PEXTMAX
 10
-1.000000000000000E+20
 20
-1.000000000000000E+20
 30
-1.000000000000000E+20
  9
$PLIMMIN
 10
0.0
 20
0.0
  9
$PLIMMAX
 10
12.0
 20
9.0
  9
$UNITMODE
 70
     0
  9
$VISRETAIN
 70
     0
  9
$PLINEGEN
 70
     0
  9
$PSLTSCALE
 70
     1
  9
$TREEDEPTH
 70
  3020
  9
$CMLSTYLE
  2
STANDARD
  9
$CMLJUST
 70
     0
  9
$CMLSCALE
 40
1.0
  9
$PROXYGRAPHICS
 70
     1
  9
$MEASUREMENT
 70
     0
  9
$CELWEIGHT
370
    70
  9
$ENDCAPS
280
     0
  9
$JOINSTYLE
280
     0
  9
$LWDISPLAY
290
     0
  9
$INSUNITS
 70
     0
  9
$HYPERLINKBASE
  1

  9
$STYLESHEET
  1
HP_Farbe_Dünn.ctb
  9
$XEDIT
290
     1
  9
$CEPSNTYPE
380
     0
  9
$PSTYLEMODE
290
     1
  9
$FINGERPRINTGUID
  2
{46147807-F78D-4D57-BF09-82FDB47F316E}
  9
$VERSIONGUID
  2
{DC2044AC-2C5E-4685-8C6D-F30E7AA2C795}
  9
$EXTNAMES
290
     1
  9
$PSVPSCALE
 40
0.0
  9
$OLESTARTUP
290
     0
  0
ENDSEC
  0
SECTION
  2
CLASSES
  0
CLASS
  1
PH_VARS
  2
PhoenixVars
  3
PHOENIX7010
 90
        0
280
     0
281
     0
  0
CLASS
  1
PH_GROUP
  2
PhGroup
  3
PHOENIX7010
 90
        0
280
     0
281
     0
  0
CLASS
  1
ACDBDICTIONARYWDFLT
  2
AcDbDictionaryWithDefault
  3
ObjectDBX Classes
 90
        0
280
     0
281
     0
  0
CLASS
  1
MATERIAL
  2
AcDbMaterial
  3
ObjectDBX Classes
 90
     1153
280
     0
281
     0
  0
CLASS
  1
VISUALSTYLE
  2
AcDbVisualStyle
  3
ObjectDBX Classes
 90
     4095
280
     0
281
     0
  0
CLASS
  1
TABLESTYLE
  2
AcDbTableStyle
  3
ObjectDBX Classes
 90
     4095
280
     0
281
     0
  0
CLASS
  1
SCALE
  2
AcDbScale
  3
ObjectDBX Classes
 90
     1153
280
     0
281
     0
  0
CLASS
  1
MLEADERSTYLE
  2
AcDbMLeaderStyle
  3
ACDB_MLEADERSTYLE_CLASS
 90
     4095
280
     0
281
     0
  0
CLASS
  1
CELLSTYLEMAP
  2
AcDbCellStyleMap
  3
ObjectDBX Classes
 90
     1152
280
     0
281
     0
  0
CLASS
  1
DICTIONARYVAR
  2
AcDbDictionaryVar
  3
ObjectDBX Classes
 90
        0
280
     0
281
     0
  0
CLASS
  1
PDFDEFINITION
  2
AcDbPdfDefinition
  3
ObjectDBX Classes
 90
     1153
280
     0
281
     0
  0
CLASS
  1
PDFUNDERLAY
  2
AcDbPdfReference
  3
ObjectDBX Classes
 90
     1153
280
     0
281
     1
  0
CLASS
  1
AEC_REFEDIT_STATUS_TRACKER
  2
AecDbRefEditStatusTracker
  3
AecArchBase60|Product Desc: Autodesk Architectural Desktop 2007 |Company: Autodesk,Inc. |WEB Address: www.autodesk.com
 90
    32897
280
     0
281
     0
  0
CLASS
  1
NPOCOLLECTION
  2
AcDbImpNonPersistentObjectsCollection
  3
ObjectDBX Classes
 90
    33921
280
     0
281
     0
  0
CLASS
  1
ACDBPLACEHOLDER
  2
AcDbPlaceHolder
  3
ObjectDBX Classes
 90
        0
280
     0
281
     0
  0
CLASS
  1
LAYOUT
  2
AcDbLayout
  3
ObjectDBX Classes
 90
        0
280
     0
281
     0
  0
ENDSEC
  0
SECTION
  2
TABLES
  0
TABLE
  2
VPORT
  5
8
102
{ACAD_XDICTIONARY
360
133E
102
}
330
0
100
AcDbSymbolTable
 70
     1
  0
VPORT
  5
1189
330
8
100
AcDbSymbolTableRecord
100
AcDbViewportTableRecord
  2
*ACTIVE
 70
     0
 10
0.0
 20
0.0
 11
1.0
 21
1.0
 12
210.0000009778888
 22
148.500000691507
 13
0.0
 23
0.0
 14
1.0
 24
1.0
 15
0.0
 25
0.0
 16
0.0
 26
0.0
 36
1.0
 17
0.0
 27
0.0
 37
0.0
 40
297.0728874183379
 41
1.746234067207415
 42
50.0
 43
0.0
 44
0.0
 50
0.0
 51
0.0
 71
     0
 72
 20000
 73
     1
 74
     0
 75
     0
 76
     0
 77
     0
 78
     0
281
     0
 65
     1
110
0.0
120
0.0
130
0.0
111
1.0
121
0.0
131
0.0
112
0.0
122
1.0
132
0.0
 79
     0
146
0.0
  0
ENDTAB
  0
TABLE
  2
LTYPE
  5
5
330
0
100
AcDbSymbolTable
 70
     5
  0
LTYPE
  5
13
330
5
100
AcDbSymbolTableRecord
100
AcDbLinetypeTableRecord
  2
BYBLOCK
 70
     0
  3

 72
    65
 73
     0
 40
0.0
  0
LTYPE
  5
14
330
5
100
AcDbSymbolTableRecord
100
AcDbLinetypeTableRecord
  2
BYLAYER
 70
     0
  3

 72
    65
 73
     0
 40
0.0
  0
LTYPE
  5
15
330
5
100
AcDbSymbolTableRecord
100
AcDbLinetypeTableRecord
  2
CONTINUOUS
 70
     0
  3
Solid line
 72
    65
 73
     0
 40
0.0
  0
LTYPE
  5
21
330
5
100
AcDbSymbolTableRecord
100
AcDbLinetypeTableRecord
  2
DASHDOT
 70
     0
  3
__ . __ . __ . __ . __ . __ . __ . __ . __ . __
 72
    65
 73
     4
 40
1.0
 49
0.5
 74
     0
 49
-0.25
 74
     0
 49
0.0
 74
     0
 49
-0.25
 74
     0
  0
LTYPE
  5
798
330
5
100
AcDbSymbolTableRecord
100
AcDbLinetypeTableRecord
  2
ACAD_ISO04W100
 70
     0
  3
____ . ____ . ____ . ____ . ____ . ____ . ____ 
 72
    65
 73
     4
 40
30.5
 49
24.0
 74
     0
 49
-3.0
 74
     0
 49
0.5
 74
     0
 49
-3.0
 74
     0
  0
LTYPE
  5
12EC
330
5
100
AcDbSymbolTableRecord
100
AcDbLinetypeTableRecord
  2
ACAD_ISO05W100
 70
     0
  3
ISO Lang gestrichelt doppelpunktiert ____ .. __
 72
    65
 73
     6
 40
33.0
 49
24.0
 74
     0
 49
-3.0
 74
     0
 49
0.0
 74
     0
 49
-3.0
 74
     0
 49
0.0
 74
     0
 49
-3.0
 74
     0
  0
ENDTAB
  0
TABLE
  2
LAYER
  5
2
102
{ACAD_XDICTIONARY
360
1257
102
}
330
0
100
AcDbSymbolTable
 70
    17
  0
LAYER
  5
F
102
{ACAD_XDICTIONARY
360
11E7
102
}
330
2
100
AcDbSymbolTableRecord
100
AcDbLayerTableRecord
  2
0
 70
     0
 62
     7
  6
CONTINUOUS
370
    -3
390
118C
  0
LAYER
  5
22
102
{ACAD_XDICTIONARY
360
11E9
102
}
330
2
100
AcDbSymbolTableRecord
100
AcDbLayerTableRecord
  2
MITTEL
 70
     0
 62
     2
  6
DASHDOT
370
    -3
390
118C
  0
LAYER
  5
23
102
{ACAD_XDICTIONARY
360
11EB
102
}
330
2
100
AcDbSymbolTableRecord
100
AcDbLayerTableRecord
  2
BEMASSUNG
 70
     0
 62
     3
  6
CONTINUOUS
370
    -3
390
118C
  0
LAYER
  5
24
102
{ACAD_XDICTIONARY
360
11ED
102
}
330
2
100
AcDbSymbolTableRecord
100
AcDbLayerTableRecord
  2
POSITION
 70
     0
 62
     1
  6
CONTINUOUS
370
    -3
390
118C
  0
LAYER
  5
3D
102
{ACAD_XDICTIONARY
360
11EF
102
}
330
2
100
AcDbSymbolTableRecord
100
AcDbLayerTableRecord
  2
BAUTEIL
 70
     0
 62
     7
  6
CONTINUOUS
370
    -3
390
118C
  0
LAYER
  5
55
102
{ACAD_XDICTIONARY
360
11F1
102
}
330
2
100
AcDbSymbolTableRecord
100
AcDbLayerTableRecord
  2
DIN-TEIL
 70
     0
 62
     7
  6
CONTINUOUS
370
    -3
390
118C
  0
LAYER
  5
75
102
{ACAD_XDICTIONARY
360
11F3
102
}
330
2
100
AcDbSymbolTableRecord
100
AcDbLayerTableRecord
  2
BEZUGSLI
 70
     0
 62
     7
  6
CONTINUOUS
370
    -3
390
118C
  0
LAYER
  5
83
102
{ACAD_XDICTIONARY
360
11F5
102
}
330
2
100
AcDbSymbolTableRecord
100
AcDbLayerTableRecord
  2
BGA46036
 70
     0
 62
     7
  6
CONTINUOUS
370
    -3
390
118C
  0
LAYER
  5
10E
102
{ACAD_XDICTIONARY
360
11F7
102
}
330
2
100
AcDbSymbolTableRecord
100
AcDbLayerTableRecord
  2
V2L204
 70
     0
 62
     7
  6
CONTINUOUS
370
    -3
390
118C
  0
LAYER
  5
117
102
{ACAD_XDICTIONARY
360
11F9
102
}
330
2
100
AcDbSymbolTableRecord
100
AcDbLayerTableRecord
  2
250
 70
     0
 62
     7
  6
CONTINUOUS
370
    -3
390
118C
  0
LAYER
  5
231
102
{ACAD_XDICTIONARY
360
11FB
102
}
330
2
100
AcDbSymbolTableRecord
100
AcDbLayerTableRecord
  2
MONTAFO
 70
     0
 62
     7
  6
CONTINUOUS
370
    -3
390
118C
  0
LAYER
  5
23C
102
{ACAD_XDICTIONARY
360
11FD
102
}
330
2
100
AcDbSymbolTableRecord
100
AcDbLayerTableRecord
  2
DIN
 70
     0
 62
     7
  6
CONTINUOUS
370
    -3
390
118C
  0
LAYER
  5
482
102
{ACAD_XDICTIONARY
360
11FF
102
}
330
2
100
AcDbSymbolTableRecord
100
AcDbLayerTableRecord
  2
QS005
 70
     0
 62
     7
  6
CONTINUOUS
370
    -3
390
118C
  0
LAYER
  5
580
102
{ACAD_XDICTIONARY
360
1201
102
}
330
2
100
AcDbSymbolTableRecord
100
AcDbLayerTableRecord
  2
BZA45776
 70
     0
 62
     7
  6
CONTINUOUS
370
    -3
390
118C
  0
LAYER
  5
586
102
{ACAD_XDICTIONARY
360
1203
102
}
330
2
100
AcDbSymbolTableRecord
100
AcDbLayerTableRecord
  2
29
 70
     0
 62
     7
  6
CONTINUOUS
370
    -3
390
118C
  0
LAYER
  5
6FA
102
{ACAD_XDICTIONARY
360
1205
102
}
330
2
100
AcDbSymbolTableRecord
100
AcDbLayerTableRecord
  2
PH_HILFSELEMENTE
 70
     0
 62
    -7
  6
CONTINUOUS
370
    -3
390
118C
  0
LAYER
  5
799
330
2
100
AcDbSymbolTableRecord
100
AcDbLayerTableRecord
  2
DEFPOINTS
 70
     0
 62
     7
  6
CONTINUOUS
290
     0
370
    -3
390
118C
  0
ENDTAB
  0
TABLE
  2
STYLE
  5
3
330
0
100
AcDbSymbolTable
 70
     1
  0
STYLE
  5
10
330
3
100
AcDbSymbolTableRecord
100
AcDbTextStyleTableRecord
  2
STANDARD
 70
     0
 40
3.5
 41
1.0
 50
0.0
 71
     0
 42
0.2
  3
isocp.shx
  4

  0
ENDTAB
  0
TABLE
  2
VIEW
  5
6
330
0
100
AcDbSymbolTable
 70
     0
  0
ENDTAB
  0
TABLE
  2
UCS
  5
7
330
0
100
AcDbSymbolTable
 70
     0
  0
ENDTAB
  0
TABLE
  2
APPID
  5
9
330
0
100
AcDbSymbolTable
 70
    10
  0
APPID
  5
11
330
9
100
AcDbSymbolTableRecord
100
AcDbRegAppTableRecord
  2
ACAD
 70
     0
  0
APPID
  5
1F
330
9
100
AcDbSymbolTableRecord
100
AcDbRegAppTableRecord
  2
DTI_TECHILLU
 70
     0
  0
APPID
  5
20
330
9
100
AcDbSymbolTableRecord
100
AcDbRegAppTableRecord
  2
DTI_TECHILLU_3D
 70
     0
  0
APPID
  5
56D
330
9
100
AcDbSymbolTableRecord
100
AcDbRegAppTableRecord
  2
DTI_TECHILLU_PROJ
 70
     0
  0
APPID
  5
6DC
330
9
100
AcDbSymbolTableRecord
100
AcDbRegAppTableRecord
  2
PHOENIX7010
 70
     0
  0
APPID
  5
1256
330
9
100
AcDbSymbolTableRecord
100
AcDbRegAppTableRecord
  2
ACAD_PSEXT
 70
     0
  0
APPID
  5
12A6
330
9
100
AcDbSymbolTableRecord
100
AcDbRegAppTableRecord
  2
ACAD_EXEMPT_FROM_CAD_STANDARDS
 70
     0
  0
APPID
  5
12EB
330
9
100
AcDbSymbolTableRecord
100
AcDbRegAppTableRecord
  2
AdeskUnderlayLayerOverrideData
 70
     0
  0
APPID
  5
136A
330
9
100
AcDbSymbolTableRecord
100
AcDbRegAppTableRecord
  2
ACAD_MLEADERVER
 70
     0
  0
APPID
  5
161F
330
9
100
AcDbSymbolTableRecord
100
AcDbRegAppTableRecord
  2
DCO15
 70
     0
  0
ENDTAB
  0
TABLE
  2
DIMSTYLE
  5
A
330
0
100
AcDbSymbolTable
 70
     4
100
AcDbDimStyleTable
 71
     1
340
1D
  0
DIMSTYLE
105
1D
330
A
100
AcDbSymbolTableRecord
100
AcDbDimStyleTableRecord
  2
STANDARD
 70
     0
340
10
  0
DIMSTYLE
105
6E3
330
A
100
AcDbSymbolTableRecord
100
AcDbDimStyleTableRecord
  2
PHOENIX
 70
     0
  4
"
 41
3.72
 42
0.0
 43
7.0
 44
1.5
 73
     0
 74
     0
 77
     1
 78
     8
140
3.5
141
0.0
143
0.0393700787401575
146
0.6666666666666666
147
2.0
172
     1
173
     1
176
     1
177
     1
178
     5
271
     2
272
     2
284
     8
288
     1
289
     0
340
10
341
6DD
343
6DD
344
6DD
  0
DIMSTYLE
105
6E4
330
A
100
AcDbSymbolTableRecord
100
AcDbDimStyleTableRecord
  2
PHOENIX$4
 70
     0
  4
"
 41
3.72
 42
0.0
 43
7.0
 44
1.5
 73
     0
 74
     0
 77
     1
 78
     8
140
3.5
141
0.0
143
0.0393700787401575
146
0.6666666666666666
147
2.0
173
     1
176
     1
177
     1
178
     5
271
     2
272
     2
281
     1
284
     8
288
     1
289
     0
340
10
341
6DD
343
6DD
344
6DD
  0
DIMSTYLE
105
1244
330
A
100
AcDbSymbolTableRecord
100
AcDbDimStyleTableRecord
  2
ISO-25
 70
     0
 41
2.5
 42
0.625
 43
3.75
 44
1.25
 73
     0
 74
     0
 77
     1
 78
     8
140
2.5
141
2.5
143
0.03937007874016
147
0.625
171
     3
172
     1
271
     2
272
     2
274
     3
278
    44
283
     0
284
     8
340
10
  0
ENDTAB
  0
TABLE
  2
BLOCK_RECORD
  5
1
330
0
100
AcDbSymbolTable
 70
     2
  0
BLOCK_RECORD
  5
19
330
1
100
AcDbSymbolTableRecord
100
AcDbBlockTableRecord
  2
*MODEL_SPACE
340
11E3
  0
BLOCK_RECORD
  5
16
330
1
100
AcDbSymbolTableRecord
100
AcDbBlockTableRecord
  2
*PAPER_SPACE
340
11E4
  0
BLOCK_RECORD
  5
6DD
330
1
100
AcDbSymbolTableRecord
100
AcDbBlockTableRecord
  2
_OPEN15
340
0
  0
BLOCK_RECORD
  5
6FB
330
1
100
AcDbSymbolTableRecord
100
AcDbBlockTableRecord
  2
PH_GRPBLK
340
0
102
{BLKREFS
331
1252
331
1260
331
1263
331
129B
331
1385
102
}
  0
ENDTAB
  0
ENDSEC
  0
SECTION
  2
BLOCKS
  0
BLOCK
  5
1A
330
19
100
AcDbEntity
  8
0
100
AcDbBlockBegin
  2
*MODEL_SPACE
 70
     0
 10
0.0
 20
0.0
 30
0.0
  3
*MODEL_SPACE
  1

  0
ENDBLK
  5
1B
330
19
100
AcDbEntity
  8
0
100
AcDbBlockEnd
  0
BLOCK
  5
17
330
16
100
AcDbEntity
 67
     1
  8
0
100
AcDbBlockBegin
  2
*PAPER_SPACE
 70
     0
 10
0.0
 20
0.0
 30
0.0
  3
*PAPER_SPACE
  1

  0
ENDBLK
  5
18
330
16
100
AcDbEntity
 67
     1
  8
0
100
AcDbBlockEnd
  0
BLOCK
  5
6E1
330
6DD
100
AcDbEntity
  8
0
100
AcDbBlockBegin
  2
_OPEN15
 70
     0
 10
1.0
 20
0.0
 30
0.0
  3
_OPEN15
  1

  0
LINE
  5
6DE
330
6DD
100
AcDbEntity
  8
0
  6
ByBlock
 62
     0
100
AcDbLine
 10
0.0
 20
0.0
 30
0.0
 11
1.0
 21
0.0
 31
0.0
  0
LINE
  5
6DF
330
6DD
100
AcDbEntity
  8
0
  6
ByBlock
 62
     0
100
AcDbLine
 10
1.0
 20
0.0
 30
0.0
 11
0.0
 21
0.1316524975873958
 31
0.0
  0
LINE
  5
6E0
330
6DD
100
AcDbEntity
  8
0
  6
ByBlock
 62
     0
100
AcDbLine
 10
1.0
 20
0.0
 30
0.0
 11
0.0
 21
-0.1316524975873958
 31
0.0
  0
ENDBLK
  5
6E2
330
6DD
100
AcDbEntity
  8
0
100
AcDbBlockEnd
  0
BLOCK
  5
6FD
330
6FB
100
AcDbEntity
  8
0
 62
     7
100
AcDbBlockBegin
  2
PH_GRPBLK
 70
     0
 10
0.0
 20
0.0
 30
0.0
  3
PH_GRPBLK
  1

  0
POINT
  5
6FC
330
6FB
100
AcDbEntity
  8
DEFPOINTS
  6
Continuous
 62
     0
100
AcDbPoint
 10
0.0
 20
0.0
 30
0.0
  0
ENDBLK
  5
6FE
330
6FB
100
AcDbEntity
  8
0
 62
     7
100
AcDbBlockEnd
  0
ENDSEC
  0
SECTION
  2
ENTITIES
  0
LINE
  5
581
330
19
100
AcDbEntity
  8
BZA45776
 62
     1
100
AcDbLine
 10
113.5397180645382
 20
205.3957032725018
 30
0.0
 11
113.5397180645382
 21
169.9545259043377
 31
0.0
1001
PHOENIX7010
1002
{
1070
    41
1040
0.5
1002
}
  0
LINE
  5
582
330
19
100
AcDbEntity
  8
BZA45776
 62
     1
100
AcDbLine
 10
105.8669885723507
 20
188.5956849619549
 30
0.0
 11
126.8494104473507
 21
188.5956849619549
 31
0.0
1001
PHOENIX7010
1002
{
1070
    41
1040
0.5
1002
}
  0
TEXT
  5
583
330
19
100
AcDbEntity
  8
BZA45776
 62
     5
100
AcDbText
 10
82.88459721492888
 20
172.9131135508221
 30
0.0
 40
3.5
  1
M 4
100
AcDbText
1001
PHOENIX7010
1002
{
1070
    41
1040
0.5
1002
}
  0
TEXT
  5
584
330
19
100
AcDbEntity
  8
BZA45776
 62
     5
100
AcDbText
 10
159.6057581036007
 20
158.9038819834393
 30
0.0
 40
3.5
  1
2  
100
AcDbText
1001
PHOENIX7010
1002
{
1070
    41
1040
0.5
1002
}
  0
ARC
  5
587
330
19
100
AcDbEntity
  8
29
  6
Continuous
 62
     7
100
AcDbCircle
 10
105.9142297832882
 20
204.5955018564862
 30
0.0
 40
0.8000040054321289
100
AcDbArc
 50
29.99748992919963
 51
90.00000762939448
1001
PHOENIX7010
1002
{
1070
    41
1040
0.5
1002
}
  0
ARC
  5
588
330
19
100
AcDbEntity
  8
29
  6
Continuous
 62
     7
100
AcDbCircle
 10
63.33952275203825
 20
204.5954713389081
 30
0.0
 40
0.8000000119209289
100
AcDbArc
 50
90.00000762939448
 51
180.0
1001
PHOENIX7010
1002
{
1070
    41
1040
0.5
1002
}
  0
ARC
  5
589
330
19
100
AcDbEntity
  8
29
  6
Continuous
 62
     7
100
AcDbCircle
 10
63.33952275203825
 20
202.9954957529706
 30
0.0
 40
0.8000000119209289
100
AcDbArc
 50
180.0
 51
270.0
1001
PHOENIX7010
1002
{
1070
    41
1040
0.5
1002
}
  0
ARC
  5
58A
330
19
100
AcDbEntity
  8
29
  6
Continuous
 62
     7
100
AcDbCircle
 10
63.33952275203825
 20
195.395520167033
 30
0.0
 40
0.8000000119209289
100
AcDbArc
 50
90.00000762939448
 51
180.0
1001
PHOENIX7010
1002
{
1070
    41
1040
0.5
1002
}
  0
ARC
  5
58B
330
19
100
AcDbEntity
  8
29
  6
Continuous
 62
     7
100
AcDbCircle
 10
63.33952275203825
 20
193.7954835459393
 30
0.0
 40
0.8000000119209289
100
AcDbArc
 50
180.0
 51
270.0
1001
PHOENIX7010
1002
{
1070
    41
1040
0.5
1002
}
  0
ARC
  5
58C
330
19
100
AcDbEntity
  8
29
  6
Continuous
 62
     7
100
AcDbCircle
 10
70.53959599422575
 20
196.1955079600018
 30
0.0
 40
3.200000047683715
100
AcDbArc
 50
270.0
 51
0.0
1001
PHOENIX7010
1002
{
1070
    41
1040
0.5
1002
}
  0
ARC
  5
58D
330
19
100
AcDbEntity
  8
29
  6
Continuous
 62
     7
100
AcDbCircle
 10
99.33952275203825
 20
196.1955384775799
 30
0.0
 40
3.200000047683715
100
AcDbArc
 50
0.0
 51
90.00000762939448
1001
PHOENIX7010
1002
{
1070
    41
1040
0.5
1002
}
  0
ARC
  5
58E
330
19
100
AcDbEntity
  8
29
  6
Continuous
 62
     7
100
AcDbCircle
 10
103.3395227520382
 20
172.5955018564861
 30
0.0
 40
0.8000000119209289
100
AcDbArc
 50
180.0
 51
270.0
1001
PHOENIX7010
1002
{
1070
    41
1040
0.5
1002
}
  0
LINE
  5
58F
330
19
100
AcDbEntity
  8
29
  6
Continuous
 62
     7
100
AcDbLine
 10
106.6071008770382
 20
204.9956788584393
 30
0.0
 11
109.8398889629757
 21
199.395764307658
 31
0.0
1001
PHOENIX7010
1002
{
1070
    41
1040
0.5
1002
}
  0
LINE
  5
590
330
19
100
AcDbEntity
  8
29
  6
Continuous
 62
     7
100
AcDbLine
 10
63.33952275203825
 20
205.3957032725018
 30
0.0
 11
105.9142297832882
 21
205.3957032725018
 31
0.0
1001
PHOENIX7010
1002
{
1070
    41
1040
0.5
1002
}
  0
LINE
  5
591
330
19
100
AcDbEntity
  8
29
  6
Continuous
 62
     7
100
AcDbLine
 10
62.53959599422575
 20
202.9956788584393
 30
0.0
 11
62.53959599422575
 21
204.5956849619549
 31
0.0
1001
PHOENIX7010
1002
{
1070
    41
1040
0.5
1002
}
  0
LINE
  5
592
330
19
100
AcDbEntity
  8
29
  6
Continuous
 62
     7
100
AcDbLine
 10
70.53959599422575
 20
202.1956910654706
 30
0.0
 11
63.33952275203825
 21
202.1956910654706
 31
0.0
1001
PHOENIX7010
1002
{
1070
    41
1040
0.5
1002
}
  0
LINE
  5
593
330
19
100
AcDbEntity
  8
29
  6
Continuous
 62
     7
100
AcDbLine
 10
70.53959599422575
 20
196.1956910654705
 30
0.0
 11
70.53959599422575
 21
202.1956910654706
 31
0.0
1001
PHOENIX7010
1002
{
1070
    41
1040
0.5
1002
}
  0
LINE
  5
594
330
19
100
AcDbEntity
  8
29
  6
Continuous
 62
     7
100
AcDbLine
 10
63.33952275203825
 20
196.1956910654705
 30
0.0
 11
70.53947392391325
 21
196.1956910654705
 31
0.0
1001
PHOENIX7010
1002
{
1070
    41
1040
0.5
1002
}
  0
LINE
  5
595
330
19
100
AcDbEntity
  8
29
  6
Continuous
 62
     7
100
AcDbLine
 10
62.53959599422575
 20
193.795666651408
 30
0.0
 11
62.53959599422575
 21
195.3956727549237
 31
0.0
1001
PHOENIX7010
1002
{
1070
    41
1040
0.5
1002
}
  0
LINE
  5
596
330
19
100
AcDbEntity
  8
29
  6
Continuous
 62
     7
100
AcDbLine
 10
70.53959599422575
 20
192.9956788584393
 30
0.0
 11
63.33952275203825
 21
192.9956788584393
 31
0.0
1001
PHOENIX7010
1002
{
1070
    41
1040
0.5
1002
}
  0
LINE
  5
597
330
19
100
AcDbEntity
  8
29
  6
Continuous
 62
     7
100
AcDbLine
 10
73.73966923641325
 20
199.3957032725018
 30
0.0
 11
73.73966923641325
 21
196.1956910654705
 31
0.0
1001
PHOENIX7010
1002
{
1070
    41
1040
0.5
1002
}
  0
LINE
  5
598
330
19
100
AcDbEntity
  8
29
  6
Continuous
 62
     7
100
AcDbLine
 10
99.33952275203825
 20
199.3957032725018
 30
0.0
 11
73.73954716610075
 21
199.3957032725018
 31
0.0
1001
PHOENIX7010
1002
{
1070
    41
1040
0.5
1002
}
  0
LINE
  5
599
330
19
100
AcDbEntity
  8
29
  6
Continuous
 62
     7
100
AcDbLine
 10
102.5395959942257
 20
172.5956544443768
 30
0.0
 11
102.5395959942257
 21
196.1956605478924
 31
0.0
1001
PHOENIX7010
1002
{
1070
    41
1040
0.5
1002
}
  0
LINE
  5
59A
330
19
100
AcDbEntity
  8
29
  6
Continuous
 62
     7
100
AcDbLine
 10
123.7399133770382
 20
171.795666651408
 30
0.0
 11
103.3396448223507
 21
171.795666651408
 31
0.0
1001
PHOENIX7010
1002
{
1070
    41
1040
0.5
1002
}
  0
ARC
  5
59B
330
19
100
AcDbEntity
  8
29
  6
Continuous
 62
     7
100
AcDbCircle
 10
121.1659387676632
 20
204.5955018564862
 30
0.0
 40
0.8000159859657287
100
AcDbArc
 50
89.99929046630859
 51
149.9992980957021
1001
PHOENIX7010
1002
{
1070
    41
1040
0.5
1002
}
  0
ARC
  5
59C
330
19
100
AcDbEntity
  8
29
  6
Continuous
 62
     7
100
AcDbCircle
 10
113.5397180645382
 20
188.5955018564862
 30
0.0
 40
5.0
100
AcDbArc
 50
317.7313537597655
 51
42.26863098144585
1001
PHOENIX7010
1002
{
1070
    41
1040
0.5
1002
}
  0
ARC
  5
59D
330
19
100
AcDbEntity
  8
29
  6
Continuous
 62
     7
100
AcDbCircle
 10
113.5397180645382
 20
188.5955018564862
 30
0.0
 40
5.0
100
AcDbArc
 50
137.7314453124993
 51
222.2685241699211
1001
PHOENIX7010
1002
{
1070
    41
1040
0.5
1002
}
  0
LINE
  5
59E
330
19
100
AcDbEntity
  8
29
  6
Continuous
 62
     7
100
AcDbLine
 10
109.8398889629757
 20
199.3957032725018
 30
0.0
 11
109.8398889629757
 21
197.8859681650799
 31
0.0
1001
PHOENIX7010
1002
{
1070
    41
1040
0.5
1002
}
  0
LINE
  5
59F
330
19
100
AcDbEntity
  8
29
  6
Continuous
 62
     7
100
AcDbLine
 10
117.2399133770382
 20
199.3957032725018
 30
0.0
 11
120.4730676739132
 21
204.9957093760174
 31
0.0
1001
PHOENIX7010
1002
{
1070
    41
1040
0.5
1002
}
  0
LINE
  5
5A0
330
19
100
AcDbEntity
  8
29
  6
Continuous
 62
     7
100
AcDbLine
 10
117.2399133770382
 20
197.885998682658
 30
0.0
 11
117.2399133770382
 21
199.3956727549237
 31
0.0
1001
PHOENIX7010
1002
{
1070
    41
1040
0.5
1002
}
  0
LINE
  5
5A1
330
19
100
AcDbEntity
  8
29
  6
Continuous
 62
     7
100
AcDbLine
 10
117.2396692364132
 20
193.817883448283
 30
0.0
 11
117.2396692364132
 21
191.958752588908
 31
0.0
1001
PHOENIX7010
1002
{
1070
    41
1040
0.5
1002
}
  0
LINE
  5
5A2
330
19
100
AcDbEntity
  8
29
  6
Continuous
 62
     7
100
AcDbLine
 10
117.2396692364132
 20
185.2326173350018
 30
0.0
 11
117.2396692364132
 21
183.3734864756268
 31
0.0
1001
PHOENIX7010
1002
{
1070
    41
1040
0.5
1002
}
  0
LINE
  5
5A3
330
19
100
AcDbEntity
  8
29
  6
Continuous
 62
     7
100
AcDbLine
 10
109.8398889629757
 20
183.3736085459393
 30
0.0
 11
109.8397668926632
 21
185.2326478525799
 31
0.0
1001
PHOENIX7010
1002
{
1070
    41
1040
0.5
1002
}
  0
LINE
  5
5A4
330
19
100
AcDbEntity
  8
29
  6
Continuous
 62
     7
100
AcDbLine
 10
109.8397668926632
 20
191.9586915537518
 30
0.0
 11
109.8398889629757
 21
193.8177308603924
 31
0.0
1001
PHOENIX7010
1002
{
1070
    41
1040
0.5
1002
}
  0
LINE
  5
5A5
330
19
100
AcDbEntity
  8
29
  6
Continuous
 62
     7
100
AcDbLine
 10
117.2399133770382
 20
197.885998682658
 30
0.0
 11
117.2397913067257
 21
193.8178529307049
 31
0.0
1001
PHOENIX7010
1002
{
1070
    41
1040
0.5
1002
}
  0
LINE
  5
5A6
330
19
100
AcDbEntity
  8
29
  6
Continuous
 62
     7
100
AcDbLine
 10
117.2396692364132
 20
183.3734864756268
 30
0.0
 11
117.2397913067257
 21
180.5956544443768
 31
0.0
1001
PHOENIX7010
1002
{
1070
    41
1040
0.5
1002
}
  0
LINE
  5
5A7
330
19
100
AcDbEntity
  8
29
  6
Continuous
 62
     7
100
AcDbLine
 10
116.4398645489132
 20
179.795666651408
 30
0.0
 11
110.6399377911007
 21
179.795666651408
 31
0.0
1001
PHOENIX7010
1002
{
1070
    41
1040
0.5
1002
}
  0
LINE
  5
5A8
330
19
100
AcDbEntity
  8
29
  6
Continuous
 62
     7
100
AcDbLine
 10
109.8398889629757
 20
180.5956544443768
 30
0.0
 11
109.8398889629757
 21
183.3735780283612
 31
0.0
1001
PHOENIX7010
1002
{
1070
    41
1040
0.5
1002
}
  0
LINE
  5
5A9
330
19
100
AcDbEntity
  8
29
  6
Continuous
 62
     7
100
AcDbLine
 10
109.8398889629757
 20
193.8177613779705
 30
0.0
 11
109.8398889629757
 21
197.885998682658
 31
0.0
1001
PHOENIX7010
1002
{
1070
    41
1040
0.5
1002
}
  0
ARC
  5
5AA
330
19
100
AcDbEntity
  8
29
  6
Continuous
 62
     7
100
AcDbCircle
 10
123.7399133770382
 20
172.5955018564861
 30
0.0
 40
0.8000000119209289
100
AcDbArc
 50
270.0
 51
0.0
1001
PHOENIX7010
1002
{
1070
    41
1040
0.5
1002
}
  0
ARC
  5
5AB
330
19
100
AcDbEntity
  8
29
  6
Continuous
 62
     7
100
AcDbCircle
 10
127.7399133770382
 20
196.1955384775799
 30
0.0
 40
3.200000047683715
100
AcDbArc
 50
90.00000762939448
 51
180.0
1001
PHOENIX7010
1002
{
1070
    41
1040
0.5
1002
}
  0
ARC
  5
5AC
330
19
100
AcDbEntity
  8
29
  6
Continuous
 62
     7
100
AcDbCircle
 10
156.5399622051632
 20
196.1955384775799
 30
0.0
 40
3.200000047683715
100
AcDbArc
 50
180.0
 51
270.0
1001
PHOENIX7010
1002
{
1070
    41
1040
0.5
1002
}
  0
ARC
  5
5AD
330
19
100
AcDbEntity
  8
29
  6
Continuous
 62
     7
100
AcDbCircle
 10
163.7399133770382
 20
193.7955140635174
 30
0.0
 40
0.8000000119209289
100
AcDbArc
 50
270.0
 51
0.0
1001
PHOENIX7010
1002
{
1070
    41
1040
0.5
1002
}
  0
ARC
  5
5AE
330
19
100
AcDbEntity
  8
29
  6
Continuous
 62
     7
100
AcDbCircle
 10
163.7399133770382
 20
195.3955506846112
 30
0.0
 40
0.8000000119209289
100
AcDbArc
 50
0.0
 51
90.00000762939448
1001
PHOENIX7010
1002
{
1070
    41
1040
0.5
1002
}
  0
ARC
  5
5AF
330
19
100
AcDbEntity
  8
29
  6
Continuous
 62
     7
100
AcDbCircle
 10
163.7399133770382
 20
202.9955262705487
 30
0.0
 40
0.8000000119209289
100
AcDbArc
 50
270.0
 51
0.0
1001
PHOENIX7010
1002
{
1070
    41
1040
0.5
1002
}
  0
ARC
  5
5B0
330
19
100
AcDbEntity
  8
29
  6
Continuous
 62
     7
100
AcDbCircle
 10
163.7399133770382
 20
204.5955018564862
 30
0.0
 40
0.8000000119209289
100
AcDbArc
 50
0.0
 51
90.00000762939448
1001
PHOENIX7010
1002
{
1070
    41
1040
0.5
1002
}
  0
LINE
  5
5B1
330
19
100
AcDbEntity
  8
29
  6
Continuous
 62
     7
100
AcDbLine
 10
153.3398889629757
 20
196.1956910654705
 30
0.0
 11
153.3398889629757
 21
199.3957032725018
 31
0.0
1001
PHOENIX7010
1002
{
1070
    41
1040
0.5
1002
}
  0
LINE
  5
5B2
330
19
100
AcDbEntity
  8
29
  6
Continuous
 62
     7
100
AcDbLine
 10
163.7399133770382
 20
192.9956788584393
 30
0.0
 11
156.5399622051632
 21
192.9956788584393
 31
0.0
1001
PHOENIX7010
1002
{
1070
    41
1040
0.5
1002
}
  0
LINE
  5
5B3
330
19
100
AcDbEntity
  8
29
  6
Continuous
 62
     7
100
AcDbLine
 10
164.5399622051632
 20
195.3957032725018
 30
0.0
 11
164.5399622051632
 21
193.7957276865643
 31
0.0
1001
PHOENIX7010
1002
{
1070
    41
1040
0.5
1002
}
  0
LINE
  5
5B4
330
19
100
AcDbEntity
  8
29
  6
Continuous
 62
     7
100
AcDbLine
 10
156.5399622051632
 20
196.1956910654705
 30
0.0
 11
163.7399133770382
 21
196.1956910654705
 31
0.0
1001
PHOENIX7010
1002
{
1070
    41
1040
0.5
1002
}
  0
LINE
  5
5B5
330
19
100
AcDbEntity
  8
29
  6
Continuous
 62
     7
100
AcDbLine
 10
156.5399622051632
 20
202.1956910654706
 30
0.0
 11
156.5399622051632
 21
196.1956910654705
 31
0.0
1001
PHOENIX7010
1002
{
1070
    41
1040
0.5
1002
}
  0
LINE
  5
5B6
330
19
100
AcDbEntity
  8
29
  6
Continuous
 62
     7
100
AcDbLine
 10
163.7399133770382
 20
202.1956910654706
 30
0.0
 11
156.5399622051632
 21
202.1956910654706
 31
0.0
1001
PHOENIX7010
1002
{
1070
    41
1040
0.5
1002
}
  0
LINE
  5
5B7
330
19
100
AcDbEntity
  8
29
  6
Continuous
 62
     7
100
AcDbLine
 10
164.5399622051632
 20
204.5956544443768
 30
0.0
 11
164.5399622051632
 21
202.9956483408612
 31
0.0
1001
PHOENIX7010
1002
{
1070
    41
1040
0.5
1002
}
  0
LINE
  5
5B8
330
19
100
AcDbEntity
  8
29
  6
Continuous
 62
     7
100
AcDbLine
 10
153.3398889629757
 20
199.3957032725018
 30
0.0
 11
127.7399133770382
 21
199.3957032725018
 31
0.0
1001
PHOENIX7010
1002
{
1070
    41
1040
0.5
1002
}
  0
LINE
  5
5B9
330
19
100
AcDbEntity
  8
29
  6
Continuous
 62
     7
100
AcDbLine
 10
124.5399622051632
 20
196.1956910654705
 30
0.0
 11
124.5399622051632
 21
172.5956849619549
 31
0.0
1001
PHOENIX7010
1002
{
1070
    41
1040
0.5
1002
}
  0
LINE
  5
5BA
330
19
100
AcDbEntity
  8
29
  6
Continuous
 62
     7
100
AcDbLine
 10
121.1659387676632
 20
205.3957032725018
 30
0.0
 11
163.7399133770382
 21
205.3957032725018
 31
0.0
1001
PHOENIX7010
1002
{
1070
    41
1040
0.5
1002
}
  0
LINE
  5
5BC
330
19
100
AcDbEntity
  8
BZA45776
  6
Continuous
 62
     1
100
AcDbLine
 10
102.5395959942257
 20
157.7957582041424
 30
0.0
 11
124.5399622051632
 21
157.7957582041424
 31
0.0
1001
PHOENIX7010
1002
{
1070
    41
1040
0.5
1002
}
  0
LINE
  5
5BD
330
19
100
AcDbEntity
  8
BZA45776
  6
Continuous
 62
     1
100
AcDbLine
 10
102.5395959942257
 20
172.5956544443768
 30
0.0
 11
102.5395959942257
 21
155.7957582041424
 31
0.0
1001
PHOENIX7010
1002
{
1070
    41
1040
0.5
1002
}
  0
LINE
  5
5BE
330
19
100
AcDbEntity
  8
BZA45776
  6
Continuous
 62
     1
100
AcDbLine
 10
102.5395959942257
 20
157.7957582041424
 30
0.0
 11
106.0096582500851
 21
158.2526063486737
 31
0.0
1001
PHOENIX7010
1002
{
1070
    41
1040
0.5
1002
}
  0
LINE
  5
5BF
330
19
100
AcDbEntity
  8
BZA45776
  6
Continuous
 62
     1
100
AcDbLine
 10
102.5395959942257
 20
157.7957582041424
 30
0.0
 11
106.0096582500851
 21
157.3389100596112
 31
0.0
1001
PHOENIX7010
1002
{
1070
    41
1040
0.5
1002
}
  0
LINE
  5
5C0
330
19
100
AcDbEntity
  8
BZA45776
  6
Continuous
 62
     1
100
AcDbLine
 10
124.5399622051632
 20
157.7957582041424
 30
0.0
 11
121.0698999493039
 21
158.2526063486737
 31
0.0
1001
PHOENIX7010
1002
{
1070
    41
1040
0.5
1002
}
  0
LINE
  5
5C1
330
19
100
AcDbEntity
  8
BZA45776
  6
Continuous
 62
     1
100
AcDbLine
 10
124.5399622051632
 20
157.7957582041424
 30
0.0
 11
121.0698999493039
 21
157.3389100596112
 31
0.0
1001
PHOENIX7010
1002
{
1070
    41
1040
0.5
1002
}
  0
TEXT
  5
5C2
330
19
100
AcDbEntity
  8
BZA45776
 62
     5
100
AcDbText
 10
109.1647790996945
 20
158.7957582041424
 30
0.0
 40
3.5
  1
 5.5 
 72
     1
 11
113.5397790996945
 21
158.7957582041424
 31
0.0
100
AcDbText
1001
PHOENIX7010
1002
{
1070
    41
1040
0.5
1002
}
  0
LINE
  5
5C3
330
19
100
AcDbEntity
  8
BZA45776
  6
Continuous
 62
     1
100
AcDbLine
 10
124.5399622051632
 20
172.5956849619549
 30
0.0
 11
124.5399622051632
 21
155.7957582041424
 31
0.0
1001
PHOENIX7010
1002
{
1070
    41
1040
0.5
1002
}
  0
LINE
  5
5C5
330
19
100
AcDbEntity
  8
BZA45776
  6
Continuous
 62
     1
100
AcDbLine
 10
62.53959599422575
 20
147.7957582041424
 30
0.0
 11
164.5399622051632
 21
147.7957582041424
 31
0.0
1001
PHOENIX7010
1002
{
1070
    41
1040
0.5
1002
}
  0
LINE
  5
5C6
330
19
100
AcDbEntity
  8
BZA45776
  6
Continuous
 62
     1
100
AcDbLine
 10
62.53959599422575
 20
193.795666651408
 30
0.0
 11
62.53959599422575
 21
145.7957582041424
 31
0.0
1001
PHOENIX7010
1002
{
1070
    41
1040
0.5
1002
}
  0
LINE
  5
5C7
330
19
100
AcDbEntity
  8
BZA45776
  6
Continuous
 62
     1
100
AcDbLine
 10
62.53959599422575
 20
147.7957582041424
 30
0.0
 11
66.00965825008512
 21
148.2526063486736
 31
0.0
1001
PHOENIX7010
1002
{
1070
    41
1040
0.5
1002
}
  0
LINE
  5
5C8
330
19
100
AcDbEntity
  8
BZA45776
  6
Continuous
 62
     1
100
AcDbLine
 10
62.53959599422575
 20
147.7957582041424
 30
0.0
 11
66.00965825008512
 21
147.3389100596111
 31
0.0
1001
PHOENIX7010
1002
{
1070
    41
1040
0.5
1002
}
  0
TEXT
  5
5C9
330
19
100
AcDbEntity
  8
BZA45776
 62
     5
100
AcDbText
 10
109.3117307026571
 20
148.7957582041424
 30
0.0
 40
3.5
  1
25.5
 72
     1
 11
113.5397790996945
 21
148.7957582041424
 31
0.0
100
AcDbText
1001
PHOENIX7010
1002
{
1070
    41
1040
0.5
1002
}
  0
LINE
  5
5CA
330
19
100
AcDbEntity
  8
BZA45776
  6
Continuous
 62
     1
100
AcDbLine
 10
164.5399622051632
 20
157.7957582041424
 30
0.0
 11
164.5399622051632
 21
145.7957582041424
 31
0.0
1001
PHOENIX7010
1002
{
1070
    41
1040
0.5
1002
}
  0
LINE
  5
5CB
330
19
100
AcDbEntity
  8
BZA45776
  6
Continuous
 62
     1
100
AcDbLine
 10
164.5399622051632
 20
147.7957582041424
 30
0.0
 11
161.0698999493038
 21
148.2526063486736
 31
0.0
1001
PHOENIX7010
1002
{
1070
    41
1040
0.5
1002
}
  0
LINE
  5
5CC
330
19
100
AcDbEntity
  8
BZA45776
  6
Continuous
 62
     1
100
AcDbLine
 10
164.5399622051632
 20
147.7957582041424
 30
0.0
 11
161.0698999493038
 21
147.3389100596111
 31
0.0
1001
PHOENIX7010
1002
{
1070
    41
1040
0.5
1002
}
  0
LINE
  5
5CE
330
19
100
AcDbEntity
  8
BZA45776
  6
Continuous
 62
     1
100
AcDbLine
 10
90.47895756649138
 20
171.795666651408
 30
0.0
 11
81.33964482235075
 21
171.795666651408
 31
0.0
1001
PHOENIX7010
1002
{
1070
    41
1040
0.5
1002
}
  0
LINE
  5
5CF
330
19
100
AcDbEntity
  8
BZA45776
  6
Continuous
 62
     1
100
AcDbLine
 10
113.5397180645382
 20
188.5956849619549
 30
0.0
 11
90.47895756649138
 21
171.795666651408
 31
0.0
1001
PHOENIX7010
1002
{
1070
    41
1040
0.5
1002
}
  0
LINE
  5
5D1
330
19
100
AcDbEntity
  8
BZA45776
  6
Continuous
 62
     1
100
AcDbLine
 10
184.5398706524288
 20
205.3957032725018
 30
0.0
 11
184.5398706524288
 21
192.9957093760174
 31
0.0
1001
PHOENIX7010
1002
{
1070
    41
1040
0.5
1002
}
  0
LINE
  5
5D2
330
19
100
AcDbEntity
  8
BZA45776
  6
Continuous
 62
     1
100
AcDbLine
 10
163.7399133770382
 20
205.3957032725018
 30
0.0
 11
173.2631372539914
 21
205.3957032725018
 31
0.0
1001
PHOENIX7010
1002
{
1070
    41
1040
0.5
1002
}
  0
LINE
  5
5D3
330
19
100
AcDbEntity
  8
BZA45776
  6
Continuous
 62
     1
100
AcDbLine
 10
163.7399438946163
 20
192.9957093760174
 30
0.0
 11
173.2631372539914
 21
192.9957093760174
 31
0.0
1001
PHOENIX7010
1002
{
1070
    41
1040
0.5
1002
}
  0
LINE
  5
5D4
330
19
100
AcDbEntity
  8
BZA45776
  6
Continuous
 62
     1
100
AcDbLine
 10
184.5398706524288
 20
205.3957032725018
 30
0.0
 11
184.0830225078976
 21
201.9256410166424
 31
0.0
1001
PHOENIX7010
1002
{
1070
    41
1040
0.5
1002
}
  0
LINE
  5
5D5
330
19
100
AcDbEntity
  8
BZA45776
  6
Continuous
 62
     1
100
AcDbLine
 10
184.5398706524288
 20
205.3957032725018
 30
0.0
 11
184.9967187969601
 21
201.9256410166424
 31
0.0
1001
PHOENIX7010
1002
{
1070
    41
1040
0.5
1002
}
  0
LINE
  5
5D6
330
19
100
AcDbEntity
  8
BZA45776
  6
Continuous
 62
     1
100
AcDbLine
 10
184.5398706524288
 20
192.9957093760174
 30
0.0
 11
184.0830225078976
 21
196.4657716318768
 31
0.0
1001
PHOENIX7010
1002
{
1070
    41
1040
0.5
1002
}
  0
LINE
  5
5D7
330
19
100
AcDbEntity
  8
BZA45776
  6
Continuous
 62
     1
100
AcDbLine
 10
184.5398706524288
 20
192.9957093760174
 30
0.0
 11
184.9967187969601
 21
196.4657716318768
 31
0.0
1001
PHOENIX7010
1002
{
1070
    41
1040
0.5
1002
}
  0
TEXT
  5
5D8
330
19
100
AcDbEntity
  8
BZA45776
 62
     5
100
AcDbText
 10
183.5398706524289
 20
196.5706300303143
 30
0.0
 40
3.5
  1
3.1
 50
90.0
 72
     1
 11
183.5398706524289
 21
199.1956300303143
 31
0.0
100
AcDbText
1001
PHOENIX7010
1002
{
1070
    41
1040
0.5
1002
}
  0
LINE
  5
5D9
330
19
100
AcDbEntity
  8
BZA45776
  6
Continuous
 62
     1
100
AcDbLine
 10
176.246688279382
 20
192.9957093760174
 30
0.0
 11
186.5398706524288
 21
192.9957093760174
 31
0.0
1001
PHOENIX7010
1002
{
1070
    41
1040
0.5
1002
}
  0
LINE
  5
5DA
330
19
100
AcDbEntity
  8
BZA45776
  6
Continuous
 62
     1
100
AcDbLine
 10
176.2663110821163
 20
205.3957032725018
 30
0.0
 11
186.5398706524288
 21
205.3957032725018
 31
0.0
1001
PHOENIX7010
1002
{
1070
    41
1040
0.5
1002
}
  0
LINE
  5
5DC
330
19
100
AcDbEntity
  8
BZA45776
  6
Continuous
 62
     1
100
AcDbLine
 10
194.539901170007
 20
205.3957032725018
 30
0.0
 11
194.539901170007
 21
188.5956849619549
 31
0.0
1001
PHOENIX7010
1002
{
1070
    41
1040
0.5
1002
}
  0
LINE
  5
5DD
330
19
100
AcDbEntity
  8
BZA45776
  6
Continuous
 62
     1
100
AcDbLine
 10
184.539901170007
 20
205.3957032725018
 30
0.0
 11
196.539901170007
 21
205.3957032725018
 31
0.0
1001
PHOENIX7010
1002
{
1070
    41
1040
0.5
1002
}
  0
LINE
  5
5DE
330
19
100
AcDbEntity
  8
BZA45776
  6
Continuous
 62
     1
100
AcDbLine
 10
126.8494104473507
 20
188.5956849619549
 30
0.0
 11
196.539901170007
 21
188.5956849619549
 31
0.0
1001
PHOENIX7010
1002
{
1070
    41
1040
0.5
1002
}
  0
LINE
  5
5DF
330
19
100
AcDbEntity
  8
BZA45776
  6
Continuous
 62
     1
100
AcDbLine
 10
194.539901170007
 20
205.3957032725018
 30
0.0
 11
194.0830530254757
 21
201.9256410166424
 31
0.0
1001
PHOENIX7010
1002
{
1070
    41
1040
0.5
1002
}
  0
LINE
  5
5E0
330
19
100
AcDbEntity
  8
BZA45776
  6
Continuous
 62
     1
100
AcDbLine
 10
194.539901170007
 20
205.3957032725018
 30
0.0
 11
194.9967493145382
 21
201.9256410166424
 31
0.0
1001
PHOENIX7010
1002
{
1070
    41
1040
0.5
1002
}
  0
LINE
  5
5E1
330
19
100
AcDbEntity
  8
BZA45776
  6
Continuous
 62
     1
100
AcDbLine
 10
194.539901170007
 20
188.5956849619549
 30
0.0
 11
194.0830530254757
 21
192.0657472178143
 31
0.0
1001
PHOENIX7010
1002
{
1070
    41
1040
0.5
1002
}
  0
LINE
  5
5E2
330
19
100
AcDbEntity
  8
BZA45776
  6
Continuous
 62
     1
100
AcDbLine
 10
194.539901170007
 20
188.5956849619549
 30
0.0
 11
194.9967493145382
 21
192.0657472178143
 31
0.0
1001
PHOENIX7010
1002
{
1070
    41
1040
0.5
1002
}
  0
TEXT
  5
5E3
330
19
100
AcDbEntity
  8
BZA45776
 62
     5
100
AcDbText
 10
193.539901170007
 20
193.7405449944044
 30
0.0
 40
3.5
  1
4.2
 50
90.0
 72
     1
 11
193.539901170007
 21
196.9956483408612
 31
0.0
100
AcDbText
1001
PHOENIX7010
1002
{
1070
    41
1040
0.5
1002
}
  0
TEXT
  5
5E5
330
19
100
AcDbEntity
  8
BZA45776
 62
     5
100
AcDbText
 10
173.9059442670466
 20
195.7715396068635
 30
0.0
 40
3.5
  1
1.5
 50
90.0
100
AcDbText
1001
PHOENIX7010
1002
{
1070
    41
1040
0.5
1002
}
  0
LINE
  5
5E7
330
19
100
AcDbEntity
  8
BZA45776
  6
Continuous
 62
     1
100
AcDbLine
 10
163.7399744121945
 20
202.1957215830487
 30
0.0
 11
176.539901170007
 21
202.1957215830487
 31
0.0
1001
PHOENIX7010
1002
{
1070
    41
1040
0.5
1002
}
  0
LINE
  5
5E8
330
19
100
AcDbEntity
  8
BZA45776
  6
Continuous
 62
     1
100
AcDbLine
 10
163.7399744121945
 20
196.1957215830486
 30
0.0
 11
176.539901170007
 21
196.1957215830486
 31
0.0
1001
PHOENIX7010
1002
{
1070
    41
1040
0.5
1002
}
  0
LINE
  5
5E9
330
19
100
AcDbEntity
  8
BZA45776
  6
Continuous
 62
     1
100
AcDbLine
 10
174.539901170007
 20
202.1957215830487
 30
0.0
 11
174.0830530254757
 21
205.6657838389081
 31
0.0
1001
PHOENIX7010
1002
{
1070
    41
1040
0.5
1002
}
  0
LINE
  5
5EA
330
19
100
AcDbEntity
  8
BZA45776
  6
Continuous
 62
     1
100
AcDbLine
 10
174.539901170007
 20
202.1957215830487
 30
0.0
 11
174.9967493145382
 21
205.6657838389081
 31
0.0
1001
PHOENIX7010
1002
{
1070
    41
1040
0.5
1002
}
  0
LINE
  5
5EB
330
19
100
AcDbEntity
  8
BZA45776
  6
Continuous
 62
     1
100
AcDbLine
 10
174.539901170007
 20
196.1957215830486
 30
0.0
 11
174.0830530254757
 21
192.7256593271893
 31
0.0
1001
PHOENIX7010
1002
{
1070
    41
1040
0.5
1002
}
  0
LINE
  5
5EC
330
19
100
AcDbEntity
  8
BZA45776
  6
Continuous
 62
     1
100
AcDbLine
 10
174.539901170007
 20
196.1957215830486
 30
0.0
 11
174.9967493145382
 21
192.7256593271893
 31
0.0
1001
PHOENIX7010
1002
{
1070
    41
1040
0.5
1002
}
  0
LINE
  5
5ED
330
19
100
AcDbEntity
  8
BZA45776
  6
Continuous
 62
     1
100
AcDbLine
 10
174.539901170007
 20
209.0047425791424
 30
0.0
 11
174.539901170007
 21
189.814465479533
 31
0.0
1001
PHOENIX7010
1002
{
1070
    41
1040
0.5
1002
}
  0
LINE
  5
5EF
330
19
100
AcDbEntity
  8
BZA45776
  6
Continuous
 62
     1
100
AcDbLine
 10
204.539901170007
 20
205.3957032725018
 30
0.0
 11
204.539901170007
 21
171.7956971689862
 31
0.0
1001
PHOENIX7010
1002
{
1070
    41
1040
0.5
1002
}
  0
LINE
  5
5F0
330
19
100
AcDbEntity
  8
BZA45776
  6
Continuous
 62
     1
100
AcDbLine
 10
194.539901170007
 20
205.3957032725018
 30
0.0
 11
206.539901170007
 21
205.3957032725018
 31
0.0
1001
PHOENIX7010
1002
{
1070
    41
1040
0.5
1002
}
  0
LINE
  5
5F1
330
19
100
AcDbEntity
  8
BZA45776
  6
Continuous
 62
     1
100
AcDbLine
 10
204.539901170007
 20
205.3957032725018
 30
0.0
 11
204.0830530254758
 21
201.9256410166424
 31
0.0
1001
PHOENIX7010
1002
{
1070
    41
1040
0.5
1002
}
  0
LINE
  5
5F2
330
19
100
AcDbEntity
  8
BZA45776
  6
Continuous
 62
     1
100
AcDbLine
 10
204.539901170007
 20
205.3957032725018
 30
0.0
 11
204.9967493145382
 21
201.9256410166424
 31
0.0
1001
PHOENIX7010
1002
{
1070
    41
1040
0.5
1002
}
  0
LINE
  5
5F3
330
19
100
AcDbEntity
  8
BZA45776
  6
Continuous
 62
     1
100
AcDbLine
 10
204.539901170007
 20
171.7956971689862
 30
0.0
 11
204.0830530254758
 21
175.2657594248455
 31
0.0
1001
PHOENIX7010
1002
{
1070
    41
1040
0.5
1002
}
  0
LINE
  5
5F4
330
19
100
AcDbEntity
  8
BZA45776
  6
Continuous
 62
     1
100
AcDbLine
 10
204.539901170007
 20
171.7956971689862
 30
0.0
 11
204.9967493145382
 21
175.2657594248455
 31
0.0
1001
PHOENIX7010
1002
{
1070
    41
1040
0.5
1002
}
  0
TEXT
  5
5F5
330
19
100
AcDbEntity
  8
BZA45776
 62
     5
100
AcDbText
 10
203.539901170007
 20
184.0456544443768
 30
0.0
 40
3.5
  1
 8.4 
 50
90.0
 72
     1
 11
203.539901170007
 21
188.5956544443768
 31
0.0
100
AcDbText
1001
PHOENIX7010
1002
{
1070
    41
1040
0.5
1002
}
  0
LINE
  5
5F6
330
19
100
AcDbEntity
  8
BZA45776
  6
Continuous
 62
     1
100
AcDbLine
 10
123.7399744121945
 20
171.7956971689862
 30
0.0
 11
206.539901170007
 21
171.7956971689862
 31
0.0
1001
PHOENIX7010
1002
{
1070
    41
1040
0.5
1002
}
  0
LINE
  5
5F8
330
19
100
AcDbEntity
  8
BZA45776
  6
Continuous
 62
     1
100
AcDbLine
 10
156.539901170007
 20
157.7957582041424
 30
0.0
 11
153.0698389141476
 21
157.3389100596112
 31
0.0
1001
PHOENIX7010
1002
{
1070
    41
1040
0.5
1002
}
  0
LINE
  5
5F9
330
19
100
AcDbEntity
  8
BZA45776
  6
Continuous
 62
     1
100
AcDbLine
 10
156.539901170007
 20
157.7957582041424
 30
0.0
 11
153.0698389141476
 21
158.2526063486737
 31
0.0
1001
PHOENIX7010
1002
{
1070
    41
1040
0.5
1002
}
  0
LINE
  5
5FA
330
19
100
AcDbEntity
  8
BZA45776
  6
Continuous
 62
     1
100
AcDbLine
 10
164.5399622051632
 20
157.7957582041424
 30
0.0
 11
168.0100244610226
 21
157.3389100596112
 31
0.0
1001
PHOENIX7010
1002
{
1070
    41
1040
0.5
1002
}
  0
LINE
  5
5FB
330
19
100
AcDbEntity
  8
BZA45776
  6
Continuous
 62
     1
100
AcDbLine
 10
164.5399622051632
 20
157.7957582041424
 30
0.0
 11
168.0100244610226
 21
158.2526063486737
 31
0.0
1001
PHOENIX7010
1002
{
1070
    41
1040
0.5
1002
}
  0
LINE
  5
5FC
330
19
100
AcDbEntity
  8
BZA45776
  6
Continuous
 62
     1
100
AcDbLine
 10
156.539901170007
 20
196.1957215830486
 30
0.0
 11
156.539901170007
 21
155.7957582041424
 31
0.0
1001
PHOENIX7010
1002
{
1070
    41
1040
0.5
1002
}
  0
LINE
  5
5FD
330
19
100
AcDbEntity
  8
BZA45776
  6
Continuous
 62
     1
100
AcDbLine
 10
149.539901170007
 20
157.7957582041424
 30
0.0
 11
171.8163904278195
 21
157.7957582041424
 31
0.0
1001
PHOENIX7010
1002
{
1070
    41
1040
0.5
1002
}
  0
LINE
  5
5FE
330
19
100
AcDbEntity
  8
BZA45776
  6
Continuous
 62
     1
100
AcDbLine
 10
164.5399622051632
 20
192.9957093760174
 30
0.0
 11
164.5399622051632
 21
155.7957582041424
 31
0.0
1001
PHOENIX7010
1002
{
1070
    41
1040
0.5
1002
}
  0
ARC
  5
6A6
330
19
100
AcDbEntity
  8
29
  6
Continuous
 62
     7
100
AcDbCircle
 10
116.4786829082882
 20
180.593762354533
 30
0.0
 40
0.7610893845558167
100
AcDbArc
 50
353.403350830078
 51
356.7911071777337
1001
PHOENIX7010
1002
{
1070
    41
1040
0.5
1002
}
  0
ARC
  5
6A7
330
19
100
AcDbEntity
  8
29
  6
Continuous
 62
     7
100
AcDbCircle
 10
116.4355920879757
 20
180.5993165537518
 30
0.0
 40
0.8045754432678222
100
AcDbArc
 50
350.097442626953
 51
353.361267089843
1001
PHOENIX7010
1002
{
1070
    41
1040
0.5
1002
}
  0
ARC
  5
6A8
330
19
100
AcDbEntity
  8
29
  6
Continuous
 62
     7
100
AcDbCircle
 10
116.4029993145382
 20
180.6038331553143
 30
0.0
 40
0.8374575972557067
100
AcDbArc
 50
346.9906921386718
 51
350.1765747070311
1001
PHOENIX7010
1002
{
1070
    41
1040
0.5
1002
}
  0
ARC
  5
6A9
330
19
100
AcDbEntity
  8
29
  6
Continuous
 62
     7
100
AcDbCircle
 10
116.4029993145382
 20
180.605969385783
 30
0.0
 40
0.8379074931144714
100
AcDbArc
 50
343.6218261718748
 51
346.848510742187
1001
PHOENIX7010
1002
{
1070
    41
1040
0.5
1002
}
  0
ARC
  5
6AA
330
19
100
AcDbEntity
  8
29
  6
Continuous
 62
     7
100
AcDbCircle
 10
116.4001916973507
 20
180.6047792002362
 30
0.0
 40
0.8402895331382751
100
AcDbArc
 50
340.4999084472649
 51
343.754791259765
1001
PHOENIX7010
1002
{
1070
    41
1040
0.5
1002
}
  0
ARC
  5
6AB
330
19
100
AcDbEntity
  8
29
  6
Continuous
 62
     7
100
AcDbCircle
 10
116.4000696270382
 20
180.6087159678143
 30
0.0
 40
0.8416782021522521
100
AcDbArc
 50
336.9562683105475
 51
340.2478027343749
1001
PHOENIX7010
1002
{
1070
    41
1040
0.5
1002
}
  0
ARC
  5
6AC
330
19
100
AcDbEntity
  8
29
  6
Continuous
 62
     7
100
AcDbCircle
 10
116.4022668926632
 20
180.6071290537518
 30
0.0
 40
0.8390979170799255
100
AcDbArc
 50
333.664154052734
 51
336.9999389648433
1001
PHOENIX7010
1002
{
1070
    41
1040
0.5
1002
}
  0
ARC
  5
6AD
330
19
100
AcDbEntity
  8
29
  6
Continuous
 62
     7
100
AcDbCircle
 10
116.4143518536007
 20
180.6030091807049
 30
0.0
 40
0.8264465928077697
100
AcDbArc
 50
330.1233825683592
 51
333.5484924316402
1001
PHOENIX7010
1002
{
1070
    41
1040
0.5
1002
}
  0
ARC
  5
6AE
330
19
100
AcDbEntity
  8
29
  6
Continuous
 62
     7
100
AcDbCircle
 10
116.4196008770382
 20
180.6013612314862
 30
0.0
 40
0.8211454153060913
100
AcDbArc
 50
326.5571594238275
 51
330.0427551269523
1001
PHOENIX7010
1002
{
1070
    41
1040
0.5
1002
}
  0
ARC
  5
6AF
330
19
100
AcDbEntity
  8
29
  6
Continuous
 62
     7
100
AcDbCircle
 10
116.4269250957882
 20
180.5997437998455
 30
0.0
 40
0.8140497207641601
100
AcDbArc
 50
322.8036499023428
 51
326.3623657226558
1001
PHOENIX7010
1002
{
1070
    41
1040
0.5
1002
}
  0
ARC
  5
6B0
330
19
100
AcDbEntity
  8
29
  6
Continuous
 62
     7
100
AcDbCircle
 10
116.4386438457882
 20
180.5919007822674
 30
0.0
 40
0.8000152111053466
100
AcDbArc
 50
319.0789489746092
 51
322.7471618652339
1001
PHOENIX7010
1002
{
1070
    41
1040
0.5
1002
}
  0
ARC
  5
6B1
330
19
100
AcDbEntity
  8
29
  6
Continuous
 62
     7
100
AcDbCircle
 10
116.4598840801632
 20
180.5772218271893
 30
0.0
 40
0.7743790149688721
100
AcDbArc
 50
315.0231323242192
 51
318.8739929199211
1001
PHOENIX7010
1002
{
1070
    41
1040
0.5
1002
}
  0
ARC
  5
6B2
330
19
100
AcDbEntity
  8
29
  6
Continuous
 62
     7
100
AcDbCircle
 10
116.4447473614132
 20
180.588635401408
 30
0.0
 40
0.7931994795799256
100
AcDbArc
 50
311.4055175781242
 51
315.2112121582035
1001
PHOENIX7010
1002
{
1070
    41
1040
0.5
1002
}
  0
ARC
  5
6B3
330
19
100
AcDbEntity
  8
29
  6
Continuous
 62
     7
100
AcDbCircle
 10
116.4127649395382
 20
180.6283082529705
 30
0.0
 40
0.844066560268402
100
AcDbArc
 50
307.6225585937504
 51
311.2495727539064
1001
PHOENIX7010
1002
{
1070
    41
1040
0.5
1002
}
  0
ARC
  5
6B4
330
19
100
AcDbEntity
  8
29
  6
Continuous
 62
     7
100
AcDbCircle
 10
116.4578088848507
 20
180.5832032725018
 30
0.0
 40
0.7808806896209717
100
AcDbArc
 50
302.9678039550781
 51
307.0250854492181
1001
PHOENIX7010
1002
{
1070
    41
1040
0.5
1002
}
  0
ARC
  5
6B5
330
19
100
AcDbEntity
  8
29
  6
Continuous
 62
     7
100
AcDbCircle
 10
116.5175012676632
 20
180.4954042002361
 30
0.0
 40
0.6746998429298401
100
AcDbArc
 50
297.8615722656249
 51
302.7685546875005
1001
PHOENIX7010
1002
{
1070
    41
1040
0.5
1002
}
  0
ARC
  5
6B6
330
19
100
AcDbEntity
  8
29
  6
Continuous
 62
     7
100
AcDbCircle
 10
116.4037317364132
 20
180.6505860850018
 30
0.0
 40
0.8654881715774536
100
AcDbArc
 50
296.003479003906
 51
299.7198181152342
1001
PHOENIX7010
1002
{
1070
    41
1040
0.5
1002
}
  0
ARC
  5
6B7
330
19
100
AcDbEntity
  8
29
  6
Continuous
 62
     7
100
AcDbCircle
 10
115.7852014629757
 20
181.9009522959393
 30
0.0
 40
2.260510206222534
100
AcDbArc
 50
294.8597412109375
 51
296.2004394531249
1001
PHOENIX7010
1002
{
1070
    41
1040
0.5
1002
}
  0
ARC
  5
6B8
330
19
100
AcDbEntity
  8
29
  6
Continuous
 62
     7
100
AcDbCircle
 10
116.4808801739132
 20
180.5468263193768
 30
0.0
 40
0.7419889569282532
100
AcDbArc
 50
284.8761901855466
 51
290.0660400390621
1001
PHOENIX7010
1002
{
1070
    41
1040
0.5
1002
}
  0
ARC
  5
6B9
330
19
100
AcDbEntity
  8
29
  6
Continuous
 62
     7
100
AcDbCircle
 10
116.5092004864132
 20
180.4391297861737
 30
0.0
 40
0.6306169629096985
100
AcDbArc
 50
275.6765136718748
 51
284.9071350097656
1001
PHOENIX7010
1002
{
1070
    41
1040
0.5
1002
}
  0
ARC
  5
6BA
330
19
100
AcDbEntity
  8
29
  6
Continuous
 62
     7
100
AcDbCircle
 10
116.3116907207882
 20
181.3920411631268
 30
0.0
 40
1.601668834686279
100
AcDbArc
 50
274.5921936035155
 51
279.3381347656251
1001
PHOENIX7010
1002
{
1070
    41
1040
0.5
1002
}
  0
ARC
  5
6BC
330
19
100
AcDbEntity
  8
29
  6
Continuous
 62
     7
100
AcDbCircle
 10
110.6426233379757
 20
180.6610536142987
 30
0.0
 40
0.8655474781990051
100
AcDbArc
 50
262.2391052246093
 51
265.9928283691406
1001
PHOENIX7010
1002
{
1070
    41
1040
0.5
1002
}
  0
ARC
  5
6BD
330
19
100
AcDbEntity
  8
29
  6
Continuous
 62
     7
100
AcDbCircle
 10
110.6327356426632
 20
180.5787171885174
 30
0.0
 40
0.7825154066085816
100
AcDbArc
 50
254.022644042969
 51
258.0574645996093
1001
PHOENIX7010
1002
{
1070
    41
1040
0.5
1002
}
  0
ARC
  5
6BE
330
19
100
AcDbEntity
  8
29
  6
Continuous
 62
     7
100
AcDbCircle
 10
110.6348108379757
 20
180.5842713877362
 30
0.0
 40
0.7884371280670166
100
AcDbArc
 50
250.0244140624999
 51
253.9845275878904
1001
PHOENIX7010
1002
{
1070
    41
1040
0.5
1002
}
  0
ARC
  5
6BF
330
19
100
AcDbEntity
  8
29
  6
Continuous
 62
     7
100
AcDbCircle
 10
110.6335901348507
 20
180.5814332529705
 30
0.0
 40
0.7854410409927369
100
AcDbArc
 50
242.1988372802733
 51
246.1030578613276
1001
PHOENIX7010
1002
{
1070
    41
1040
0.5
1002
}
  0
ARC
  5
6C0
330
19
100
AcDbEntity
  8
29
  6
Continuous
 62
     7
100
AcDbCircle
 10
110.6351770489132
 20
180.5850953623455
 30
0.0
 40
0.789486825466156
100
AcDbArc
 50
234.5123138427734
 51
238.356506347656
1001
PHOENIX7010
1002
{
1070
    41
1040
0.5
1002
}
  0
ARC
  5
6C1
330
19
100
AcDbEntity
  8
29
  6
Continuous
 62
     7
100
AcDbCircle
 10
110.6427454082882
 20
180.5953492685955
 30
0.0
 40
0.8022368550300598
100
AcDbArc
 50
226.9776000976554
 51
230.7349700927731
1001
PHOENIX7010
1002
{
1070
    41
1040
0.5
1002
}
  0
ARC
  5
6C2
330
19
100
AcDbEntity
  8
29
  6
Continuous
 62
     7
100
AcDbCircle
 10
110.6373743145382
 20
180.5884217783612
 30
0.0
 40
0.7936278581619263
100
AcDbArc
 50
219.3347625732418
 51
223.1262512207035
1001
PHOENIX7010
1002
{
1070
    41
1040
0.5
1002
}
  0
ARC
  5
6C3
330
19
100
AcDbEntity
  8
29
  6
Continuous
 62
     7
100
AcDbCircle
 10
110.6866907207882
 20
180.6282472178143
 30
0.0
 40
0.8572520613670349
100
AcDbArc
 50
212.3067779541023
 51
215.7969665527335
1001
PHOENIX7010
1002
{
1070
    41
1040
0.5
1002
}
  0
ARC
  5
6C4
330
19
100
AcDbEntity
  8
29
  6
Continuous
 62
     7
100
AcDbCircle
 10
110.6438440411007
 20
180.5951966807049
 30
0.0
 40
0.8033506274223327
100
AcDbArc
 50
208.1791229248045
 51
211.950927734375
1001
PHOENIX7010
1002
{
1070
    41
1040
0.5
1002
}
  0
ARC
  5
6C5
330
19
100
AcDbEntity
  8
29
  6
Continuous
 62
     7
100
AcDbCircle
 10
110.5533899395382
 20
180.5442933603924
 30
0.0
 40
0.6996335983276368
100
AcDbArc
 50
203.6007385253913
 51
208.0002899169922
1001
PHOENIX7010
1002
{
1070
    41
1040
0.5
1002
}
  0
ARC
  5
6C6
330
19
100
AcDbEntity
  8
29
  6
Continuous
 62
     7
100
AcDbCircle
 10
110.6649622051632
 20
180.6166505381268
 30
0.0
 40
0.8311167955398559
100
AcDbArc
 50
201.6203002929691
 51
205.0914764404293
1001
PHOENIX7010
1002
{
1070
    41
1040
0.5
1002
}
  0
ARC
  5
6C7
330
19
100
AcDbEntity
  8
29
  6
Continuous
 62
     7
100
AcDbCircle
 10
111.4376672832882
 20
180.9284181162518
 30
0.0
 40
1.664213418960571
100
AcDbArc
 50
200.247116088868
 51
201.7993621826179
1001
PHOENIX7010
1002
{
1070
    41
1040
0.5
1002
}
  0
ARC
  5
6C8
330
19
100
AcDbEntity
  8
29
  6
Continuous
 62
     7
100
AcDbCircle
 10
110.5441125957882
 20
180.5502442881268
 30
0.0
 40
0.6965607404708863
100
AcDbArc
 50
191.9316406249997
 51
196.492950439453
1001
PHOENIX7010
1002
{
1070
    41
1040
0.5
1002
}
  0
ARC
  5
6C9
330
19
100
AcDbEntity
  8
29
  6
Continuous
 62
     7
100
AcDbCircle
 10
110.4769739239132
 20
180.539074854533
 30
0.0
 40
0.6285502314567566
100
AcDbArc
 50
184.6265716552721
 51
192.1994628906247
1001
PHOENIX7010
1002
{
1070
    41
1040
0.5
1002
}
  0
ARC
  5
6CA
330
19
100
AcDbEntity
  8
29
  6
Continuous
 62
     7
100
AcDbCircle
 10
111.4316858379757
 20
180.698254542033
 30
0.0
 40
1.59513235092163
100
AcDbArc
 50
183.6939849853515
 51
187.5619964599609
1001
PHOENIX7010
1002
{
1070
    41
1040
0.5
1002
}
  0
TEXT
  5
B2A
330
19
100
AcDbEntity
  8
0
 62
     5
100
AcDbText
 10
60.93724732524333
 20
122.4899940351047
 30
0.0
 40
3.5
  1

100
AcDbText
1001
PHOENIX7010
1002
{
1070
    41
1040
1.0
1002
}
  0
LINE
  5
1245
102
{ACAD_REACTORS
330
1254
102
}
330
19
100
AcDbEntity
  8
0
  6
Continuous
 62
     1
100
AcDbLine
 10
230.0
 20
5.000000000000113
 30
0.0
 11
230.0
 21
1.000000000000113
 31
0.0
1001
PHOENIX7010
1002
{
1070
    62
1070
     1
1070
    41
1040
1.0
1002
}
  0
LINE
  5
1246
102
{ACAD_REACTORS
330
1254
102
}
330
19
100
AcDbEntity
  8
0
  6
Continuous
 62
     3
100
AcDbLine
 10
415.0
 20
5.000000000000113
 30
0.0
 11
20.0
 21
5.000000000000113
 31
0.0
1001
PHOENIX7010
1002
{
1070
    62
1070
     3
1070
    41
1040
1.0
1002
}
  0
LINE
  5
1247
102
{ACAD_REACTORS
330
1254
102
}
330
19
100
AcDbEntity
  8
0
  6
Continuous
 62
     1
100
AcDbLine
 10
125.0
 20
296.0000000000001
 30
0.0
 11
125.0
 21
292.0000000000001
 31
0.0
1001
PHOENIX7010
1002
{
1070
    62
1070
     1
1070
    41
1040
1.0
1002
}
  0
LINE
  5
1248
102
{ACAD_REACTORS
330
1254
102
}
330
19
100
AcDbEntity
  8
0
  6
Continuous
 62
     1
100
AcDbLine
 10
230.0
 20
296.0000000000001
 30
0.0
 11
230.0
 21
292.0000000000001
 31
0.0
1001
PHOENIX7010
1002
{
1070
    62
1070
     1
1070
    41
1040
1.0
1002
}
  0
LINE
  5
1249
102
{ACAD_REACTORS
330
1254
102
}
330
19
100
AcDbEntity
  8
0
  6
Continuous
 62
     1
100
AcDbLine
 10
125.0
 20
5.000000000000113
 30
0.0
 11
125.0
 21
1.000000000000113
 31
0.0
1001
PHOENIX7010
1002
{
1070
    62
1070
     1
1070
    41
1040
1.0
1002
}
  0
LINE
  5
124A
102
{ACAD_REACTORS
330
1254
102
}
330
19
100
AcDbEntity
  8
0
  6
Continuous
 62
     1
100
AcDbLine
 10
419.0
 20
1.000000000000113
 30
0.0
 11
1.0
 21
1.000000000000113
 31
0.0
1001
PHOENIX7010
1002
{
1070
    62
1070
     1
1070
    41
1040
1.0
1002
}
  0
LINE
  5
124B
102
{ACAD_REACTORS
330
1254
102
}
330
19
100
AcDbEntity
  8
0
  6
Continuous
 62
     1
100
AcDbLine
 10
1.0
 20
1.000000000000113
 30
0.0
 11
1.0
 21
296.0000000000001
 31
0.0
1001
PHOENIX7010
1002
{
1070
    62
1070
     1
1070
    41
1040
1.0
1002
}
  0
LINE
  5
124C
102
{ACAD_REACTORS
330
1254
102
}
330
19
100
AcDbEntity
  8
0
  6
Continuous
 62
     1
100
AcDbLine
 10
1.0
 20
296.0000000000001
 30
0.0
 11
419.0
 21
296.0000000000001
 31
0.0
1001
PHOENIX7010
1002
{
1070
    62
1070
     1
1070
    41
1040
1.0
1002
}
  0
LINE
  5
124D
102
{ACAD_REACTORS
330
1254
102
}
330
19
100
AcDbEntity
  8
0
  6
Continuous
 62
     1
100
AcDbLine
 10
419.0
 20
296.0000000000001
 30
0.0
 11
419.0
 21
1.000000000000113
 31
0.0
1001
PHOENIX7010
1002
{
1070
    62
1070
     1
1070
    41
1040
1.0
1002
}
  0
LINE
  5
124E
102
{ACAD_REACTORS
330
1254
102
}
330
19
100
AcDbEntity
  8
0
  6
Continuous
 62
     3
100
AcDbLine
 10
20.0
 20
5.000000000000113
 30
0.0
 11
20.0
 21
292.0000000000001
 31
0.0
1001
PHOENIX7010
1002
{
1070
    62
1070
     3
1070
    41
1040
1.0
1002
}
  0
LINE
  5
124F
102
{ACAD_REACTORS
330
1254
102
}
330
19
100
AcDbEntity
  8
0
  6
Continuous
 62
     3
100
AcDbLine
 10
20.0
 20
292.0000000000001
 30
0.0
 11
415.0
 21
292.0000000000001
 31
0.0
1001
PHOENIX7010
1002
{
1070
    62
1070
     3
1070
    41
1040
1.0
1002
}
  0
LINE
  5
1250
102
{ACAD_REACTORS
330
1254
102
}
330
19
100
AcDbEntity
  8
0
  6
Continuous
 62
     3
100
AcDbLine
 10
415.0
 20
292.0000000000001
 30
0.0
 11
415.0
 21
5.000000000000113
 31
0.0
1001
PHOENIX7010
1002
{
1070
    62
1070
     3
1070
    41
1040
1.0
1002
}
  0
MTEXT
  5
1251
102
{ACAD_REACTORS
330
1254
102
}
330
19
100
AcDbEntity
  8
0
  6
Continuous
 62
     7
370
    50
100
AcDbMText
 10
19.70248718641096
 20
55.39351207913341
 30
0.0
 40
2.0
 41
0.0
 71
     7
 72
     5
  1
{\T1.1;\C1;"Schutzvermerk nach DIN ISO 16016 beachten" \Q20;"Please pay attention to copyright note DIN ISO 16016"}
 11
0.0000000000000002
 21
1.0
 31
0.0
 73
     1
 44
1.0
1001
PHOENIX7010
1002
{
1070
    41
1040
1.0
1002
}
1001
ACAD
1000
MTEXTBEGIN
1070
    73
1070
     1
1070
    44
1040
1.0
1070
    74
1070
     0
1000
MTEXTEND
  0
INSERT
  5
1252
102
{ACAD_REACTORS
330
1254
102
}
330
19
100
AcDbEntity
  8
0
  6
Continuous
 62
     1
100
AcDbBlockReference
  2
PH_GRPBLK
 10
230.0
 20
5.000000000000113
 30
0.0
1001
PHOENIX7010
1002
{
1070
    41
1040
1.0
1002
}
  0
HATCH
  5
1259
102
{ACAD_REACTORS
330
12A1
102
}
330
19
100
AcDbEntity
  8
0
  6
Continuous
 62
     1
370
    25
100
AcDbHatch
 10
0.0
 20
0.0
 30
0.0
210
0.0
220
0.0
230
1.0
  2
_U
 70
     0
 71
     1
 91
        1
 92
        0
 93
        5
 72
     1
 10
407.4334749940253
 20
35.16453811398049
 11
400.7334749940254
 21
27.36453811398042
 72
     1
 10
400.7334749940254
 20
27.36453811398042
 11
412.7334749940255
 21
27.36453811398042
 72
     1
 10
412.7334749940255
 20
27.36453811398042
 11
412.7334749940255
 21
35.16453811398049
 72
     1
 10
412.7334749940255
 20
35.16453811398037
 11
407.4334749940253
 21
28.26453811398051
 72
     1
 10
407.4334749940253
 20
28.26453811398051
 11
407.4334749940253
 21
35.16453811398049
 97
        1
330
129C
 75
     0
 76
     0
 52
45.0
 41
0.1
 77
     0
 78
     1
 53
45.0
 43
0.0
 44
-32.08885297207042
 45
-0.0707106781186548
 46
0.0707106781186548
 79
     0
 98
        1
 10
0.0
 20
-32.08885297207042
1001
PHOENIX7010
1002
{
1070
    41
1040
1.0
1002
}
  0
HATCH
  5
125A
102
{ACAD_REACTORS
330
12A1
102
}
330
19
100
AcDbEntity
  8
0
  6
Continuous
 62
     1
370
    25
100
AcDbHatch
 10
0.0
 20
0.0
 30
0.0
210
0.0
220
0.0
230
1.0
  2
_U
 70
     0
 71
     1
 91
        1
 92
        0
 93
        3
 72
     1
 10
399.8834749940256
 20
27.36453811398042
 11
399.8834749940256
 21
31.51453811398039
 72
     1
 10
399.8834749940256
 20
31.51453811398039
 11
404.0334749940257
 21
31.51453811398039
 72
     2
 10
399.8834749940256
 20
31.51453811398039
 40
4.149999999999977
 50
0.0000000000001962
 51
270.0
 73
     1
 97
        1
330
129D
 75
     0
 76
     0
 52
45.0
 41
0.65
 77
     0
 78
     1
 53
45.0
 43
0.0
 44
-32.08885297207042
 45
-0.4596194077712559
 46
0.459619407771256
 79
     0
 98
        1
 10
0.0
 20
-32.08885297207042
1001
PHOENIX7010
1002
{
1070
    41
1040
1.0
1002
}
  0
LINE
  5
125B
102
{ACAD_REACTORS
330
12A1
102
}
330
19
100
AcDbEntity
  8
0
  6
Continuous
 62
     7
370
    50
100
AcDbLine
 10
400.7334749940254
 20
27.36453811398042
 30
0.0
 11
412.7334749940255
 21
27.36453811398042
 31
0.0
1001
PHOENIX7010
1002
{
1070
    41
1040
1.0
1002
}
  0
LINE
  5
125C
102
{ACAD_REACTORS
330
12A1
102
}
330
19
100
AcDbEntity
  8
0
  6
Continuous
 62
     7
370
    50
100
AcDbLine
 10
412.7334749940255
 20
27.36453811398042
 30
0.0
 11
412.7334749940255
 21
35.16453811398037
 31
0.0
1001
PHOENIX7010
1002
{
1070
    41
1040
1.0
1002
}
  0
LINE
  5
125D
102
{ACAD_REACTORS
330
12A1
102
}
330
19
100
AcDbEntity
  8
0
  6
Continuous
 62
     7
370
    50
100
AcDbLine
 10
407.4334749940253
 20
28.26453811398039
 30
0.0
 11
407.4334749940253
 21
35.16453811398037
 31
0.0
1001
PHOENIX7010
1002
{
1070
    41
1040
1.0
1002
}
  0
LINE
  5
125E
102
{ACAD_REACTORS
330
12A1
102
}
330
19
100
AcDbEntity
  8
0
  6
Continuous
 62
     7
370
    50
100
AcDbLine
 10
407.4334749940253
 20
35.16453811398037
 30
0.0
 11
400.7334749940254
 21
27.36453811398042
 31
0.0
1001
PHOENIX7010
1002
{
1070
    41
1040
1.0
1002
}
  0
LINE
  5
125F
102
{ACAD_REACTORS
330
12A1
102
}
330
19
100
AcDbEntity
  8
0
  6
Continuous
 62
     7
370
    50
100
AcDbLine
 10
412.7334749940255
 20
35.16453811398037
 30
0.0
 11
407.4334749940253
 21
28.26453811398039
 31
0.0
1001
PHOENIX7010
1002
{
1070
    41
1040
1.0
1002
}
  0
INSERT
  5
1260
102
{ACAD_REACTORS
330
12A1
102
}
330
19
100
AcDbEntity
  8
0
  6
Continuous
 62
     1
370
    25
100
AcDbBlockReference
  2
PH_GRPBLK
 10
400.7334749940254
 20
27.36453811398042
 30
0.0
1001
PHOENIX7010
1002
{
1070
    41
1040
1.0
1002
}
  0
MTEXT
  5
1261
102
{ACAD_REACTORS
330
12A2
102
}
330
19
100
AcDbEntity
  8
0
  6
Continuous
 62
     7
370
    50
100
AcDbMText
 10
381.0842366554657
 20
17.88346060003152
 30
0.0
 40
1.6
 41
0.0
 71
     7
 72
     5
  1
{\fArial|b0|i0|c0|p34;\W1.1;\C1;A Phoenix Mecano Company}
 73
     1
 44
1.0
1001
PHOENIX7010
1002
{
1070
    41
1040
1.0
1002
}
1001
ACAD
1000
MTEXTBEGIN
1070
    73
1070
     1
1070
    44
1040
1.0
1070
    74
1070
     0
1000
MTEXTEND
  0
MTEXT
  5
1262
102
{ACAD_XDICTIONARY
360
170E
102
}
102
{ACAD_REACTORS
330
12A2
102
}
330
19
100
AcDbEntity
  8
0
  6
Continuous
 62
     7
370
    50
100
AcDbMText
 10
393.565880717586
 20
21.46517927327739
 30
0.0
 40
3.7
 41
0.0
 71
     7
 72
     5
  1
{\fArial|b1|i0|c0|p34;\W1.1;BOPLA}
 73
     1
 44
1.135135135135135
1001
PHOENIX7010
1002
{
1070
    41
1040
1.0
1002
}
1001
ACAD
1000
MTEXTBEGIN
1070
    73
1070
     1
1070
    44
1040
1.135135135135135
1070
    74
1070
     0
1000
MTEXTEND
  0
INSERT
  5
1263
102
{ACAD_REACTORS
330
12A2
102
}
330
19
100
AcDbEntity
  8
0
  6
Continuous
 62
     7
370
    50
100
AcDbBlockReference
  2
PH_GRPBLK
 10
400.7334749940254
 20
27.36453811398042
 30
0.0
1001
PHOENIX7010
1002
{
1070
    41
1040
1.0
1002
}
  0
MTEXT
  5
1264
102
{ACAD_REACTORS
330
12A3
102
}
330
19
100
AcDbEntity
  8
0
  6
Continuous
 62
     5
370
    35
100
AcDbMText
 10
318.9304981780733
 20
52.18090043987126
 30
0.0
 40
3.5
 41
0.0
 71
     7
 72
     5
  1
{\C7;Katalogzeichnung/\Q20;Catalogue drawing}
 73
     1
 44
1.0
1001
PHOENIX7010
1002
{
1070
    41
1040
1.0
1002
}
1001
ACAD
1000
MTEXTBEGIN
1070
    73
1070
     1
1070
    44
1040
1.0
1070
    74
1070
     0
1000
MTEXTEND
  0
MTEXT
  5
1265
102
{ACAD_REACTORS
330
12A3
102
}
330
19
100
AcDbEntity
  8
0
  6
Continuous
 62
     5
370
    35
100
AcDbMText
 10
318.9304981780733
 20
59.18090043987127
 30
0.0
 40
4.0
 41
0.0
 71
     7
 72
     5
  1
{\C7;RP/M 000 . . }
 73
     1
 44
1.0
1001
PHOENIX7010
1002
{
1070
    41
1040
1.0
1002
}
1001
ACAD
1000
MTEXTBEGIN
1070
    73
1070
     1
1070
    44
1040
1.0
1070
    74
1070
     0
1000
MTEXTEND
  0
MTEXT
  5
1266
102
{ACAD_REACTORS
330
12A3
102
}
330
19
100
AcDbEntity
  8
0
  6
Continuous
 62
     5
370
    35
100
AcDbMText
 10
318.9304981780733
 20
66.18090043987127
 30
0.0
 40
4.0
 41
0.0
 71
     7
 72
     5
  1
{\C7;Interzoll Modul}
 73
     1
 44
1.0
1001
PHOENIX7010
1002
{
1070
    41
1040
1.0
1002
}
1001
ACAD
1000
MTEXTBEGIN
1070
    73
1070
     1
1070
    44
1040
1.0
1070
    74
1070
     0
1000
MTEXTEND
  0
MTEXT
  5
1267
102
{ACAD_REACTORS
330
12A3
102
}
330
19
100
AcDbEntity
  8
0
  6
Continuous
 62
     5
370
    35
100
AcDbMText
 10
340.3074630969177
 20
95.1987580068237
 30
0.0
 40
4.0
 41
0.0
 71
     7
 72
     5
  1
{\C7;2:1}
 73
     1
 44
1.0
1001
PHOENIX7010
1002
{
1070
    41
1040
1.0
1002
}
1001
ACAD
1000
MTEXTBEGIN
1070
    73
1070
     1
1070
    44
1040
1.0
1070
    74
1070
     0
1000
MTEXTEND
  0
MTEXT
  5
1268
102
{ACAD_REACTORS
330
12A3
102
}
330
19
100
AcDbEntity
  8
0
  6
Continuous
 62
     5
370
    35
100
AcDbMText
 10
319.2942762589885
 20
94.24669079255114
 30
0.0
 40
2.5
 41
0.0
 71
     7
 72
     5
  1
{\C1;Maßstab/\P\Q20;Scale:}
 73
     1
 44
1.0
1001
PHOENIX7010
1002
{
1070
    41
1040
1.0
1002
}
1001
ACAD
1000
MTEXTBEGIN
1070
    73
1070
     1
1070
    44
1040
1.0
1070
    74
1070
     0
1000
MTEXTEND
  0
MTEXT
  5
1269
102
{ACAD_REACTORS
330
12A3
102
}
330
19
100
AcDbEntity
  8
0
  6
Continuous
 62
     5
370
    35
100
AcDbMText
 10
319.5702130763932
 20
86.578461793006
 30
0.0
 40
3.0
 41
0.0
 71
     7
 72
     5
  1
Zeichnungs-Nr. / {\Q20;Drawing-No.:}
 73
     1
 44
1.0
1001
PHOENIX7010
1002
{
1070
    41
1040
1.0
1002
}
1001
ACAD
1000
MTEXTBEGIN
1070
    73
1070
     1
1070
    44
1040
1.0
1070
    74
1070
     0
1000
MTEXTEND
  0
MTEXT
  5
126A
102
{ACAD_REACTORS
330
12A3
102
}
330
19
100
AcDbEntity
  8
0
  6
Continuous
 62
     5
370
    35
100
AcDbMText
 10
340.681094216935
 20
80.43630467405568
 30
0.0
 40
4.0
 41
0.0
 71
     7
 72
     5
  1
{\C7;3K 5315.034.02}
 73
     1
 44
1.0
1001
PHOENIX7010
1002
{
1070
    41
1040
1.0
1002
}
1001
ACAD
1000
MTEXTBEGIN
1070
    73
1070
     1
1070
    44
1040
1.0
1070
    74
1070
     0
1000
MTEXTEND
  0
MTEXT
  5
126B
102
{ACAD_REACTORS
330
12A3
102
}
330
19
100
AcDbEntity
  8
0
  6
Continuous
 62
     5
370
    35
100
AcDbMText
 10
318.8800602381664
 20
72.42896167163713
 30
0.0
 40
4.0
 41
0.0
 71
     7
 72
     5
  1
{\C7;Artikel / \Q20;Article:}
 73
     1
 44
1.0
1001
PHOENIX7010
1002
{
1070
    41
1040
1.0
1002
}
1001
ACAD
1000
MTEXTBEGIN
1070
    73
1070
     1
1070
    44
1040
1.0
1070
    74
1070
     0
1000
MTEXTEND
  0
MTEXT
  5
126C
102
{ACAD_REACTORS
330
12A3
102
}
330
19
100
AcDbEntity
  8
0
  6
Continuous
 62
     5
370
    35
100
AcDbMText
 10
329.5918340418984
 20
15.32304279191089
 30
0.0
 40
2.0
 41
0.0
 71
     7
 72
     5
  1
{\C1;Datum/\P\Q20;Date:}
 73
     1
 44
1.0
1001
PHOENIX7010
1002
{
1070
    41
1040
1.0
1002
}
1001
ACAD
1000
MTEXTBEGIN
1070
    73
1070
     1
1070
    44
1040
1.0
1070
    74
1070
     0
1000
MTEXTEND
  0
MTEXT
  5
126D
102
{ACAD_REACTORS
330
12A3
102
}
330
19
100
AcDbEntity
  8
0
  6
Continuous
 62
     5
370
    35
100
AcDbMText
 10
316.167758256943
 20
15.32303913053624
 30
0.0
 40
2.0
 41
0.0
 71
     7
 72
     5
  1
{\C1;Ä.Nr/\P\Q20;Alt-No.:}
 73
     1
 44
1.0
1001
PHOENIX7010
1002
{
1070
    41
1040
1.0
1002
}
1001
ACAD
1000
MTEXTBEGIN
1070
    73
1070
     1
1070
    44
1040
1.0
1070
    74
1070
     0
1000
MTEXTEND
  0
MTEXT
  5
126E
102
{ACAD_REACTORS
330
12A3
102
}
330
19
100
AcDbEntity
  8
0
  6
Continuous
 62
     5
370
    35
100
AcDbMText
 10
342.2178658257171
 20
10.60592166613935
 30
0.0
 40
2.5
 41
0.0
 71
     7
 72
     5
  1
2 901 844
 73
     1
 44
1.0
1001
PHOENIX7010
1002
{
1070
    41
1040
1.0
1002
}
1001
ACAD
1000
MTEXTBEGIN
1070
    73
1070
     1
1070
    44
1040
1.0
1070
    74
1070
     0
1000
MTEXTEND
  0
MTEXT
  5
126F
102
{ACAD_REACTORS
330
12A3
102
}
330
19
100
AcDbEntity
  8
0
  6
Continuous
 62
     5
370
    35
100
AcDbMText
 10
316.5289912646938
 20
10.49475527098116
 30
0.0
 40
2.5
 41
0.0
 71
     7
 72
     5
  1
DISK:
 73
     1
 44
1.0
1001
PHOENIX7010
1002
{
1070
    41
1040
1.0
1002
}
1001
ACAD
1000
MTEXTBEGIN
1070
    73
1070
     1
1070
    44
1040
1.0
1070
    74
1070
     0
1000
MTEXTEND
  0
MTEXT
  5
1270
102
{ACAD_REACTORS
330
12A3
102
}
330
19
100
AcDbEntity
  8
0
  6
Continuous
 62
     5
370
    35
100
AcDbMText
 10
342.2178658257171
 20
6.248887523187704
 30
0.0
 40
2.5
 41
0.0
 71
     7
 72
     5
  1
18.06.99 HR
 73
     1
 44
1.0
1001
PHOENIX7010
1002
{
1070
    41
1040
1.0
1002
}
1001
ACAD
1000
MTEXTBEGIN
1070
    73
1070
     1
1070
    44
1040
1.0
1070
    74
1070
     0
1000
MTEXTEND
  0
MTEXT
  5
1271
102
{ACAD_REACTORS
330
12A3
102
}
330
19
100
AcDbEntity
  8
0
  6
Continuous
 62
     5
370
    35
100
AcDbMText
 10
316.5289912646938
 20
6.248887523187704
 30
0.0
 40
2.5
 41
0.0
 71
     7
 72
     5
  1
Datum/{\Q20;Date:}
 73
     1
 44
1.0
1001
PHOENIX7010
1002
{
1070
    41
1040
1.0
1002
}
1001
ACAD
1000
MTEXTBEGIN
1070
    73
1070
     1
1070
    44
1040
1.0
1070
    74
1070
     0
1000
MTEXTEND
  0
LINE
  5
1272
102
{ACAD_REACTORS
330
12A3
102
}
330
19
100
AcDbEntity
  8
0
  6
Continuous
 62
     5
370
    35
100
AcDbLine
 10
314.9999999999998
 20
14.50000000000023
 30
0.0
 11
415.0
 21
14.50000000000023
 31
0.0
1001
PHOENIX7010
1002
{
1070
    41
1040
1.0
1002
}
  0
LINE
  5
1273
102
{ACAD_REACTORS
330
12A3
102
}
330
19
100
AcDbEntity
  8
0
  6
Continuous
 62
     5
100
AcDbLine
 10
405.4999999999999
 20
92.50000000000012
 30
0.0
 11
405.4999999999999
 21
99.50000000000011
 31
0.0
1001
PHOENIX7010
1002
{
1070
    62
1070
     5
1070
    41
1040
1.0
1002
}
  0
LINE
  5
1274
102
{ACAD_REACTORS
330
12A3
102
}
330
19
100
AcDbEntity
  8
0
  6
ACAD_ISO04W100
 62
     1
 48
0.1451612903225806
100
AcDbLine
 10
410.5
 20
91.50000000000011
 30
0.0
 11
410.5
 21
100.5000000000001
 31
0.0
1001
PHOENIX7010
1002
{
1070
    62
1070
     1
1070
    41
1040
1.0
1002
}
  0
CIRCLE
  5
1275
102
{ACAD_REACTORS
330
12A3
102
}
330
19
100
AcDbEntity
  8
0
  6
Continuous
 62
     5
100
AcDbCircle
 10
410.5
 20
96.00000000000012
 30
0.0
 40
1.75
1001
PHOENIX7010
1002
{
1070
    62
1070
     5
1070
    41
1040
1.0
1002
}
  0
CIRCLE
  5
1276
102
{ACAD_REACTORS
330
12A3
102
}
330
19
100
AcDbEntity
  8
0
  6
Continuous
 62
     5
100
AcDbCircle
 10
410.5
 20
96.00000000000012
 30
0.0
 40
3.5
1001
PHOENIX7010
1002
{
1070
    62
1070
     5
1070
    41
1040
1.0
1002
}
  0
LINE
  5
1277
102
{ACAD_REACTORS
330
12A3
102
}
330
19
100
AcDbEntity
  8
0
  6
Continuous
 62
     5
100
AcDbLine
 10
398.5
 20
94.25000000000011
 30
0.0
 11
398.5
 21
97.75000000000012
 31
0.0
1001
PHOENIX7010
1002
{
1070
    62
1070
     5
1070
    41
1040
1.0
1002
}
  0
LINE
  5
1278
102
{ACAD_REACTORS
330
12A3
102
}
330
19
100
AcDbEntity
  8
0
  6
ACAD_ISO04W100
 62
     1
 48
0.282258064516129
100
AcDbLine
 10
415.0
 20
96.00000000000012
 30
0.0
 11
397.5
 21
96.00000000000012
 31
0.0
1001
PHOENIX7010
1002
{
1070
    62
1070
     1
1070
    41
1040
1.0
1002
}
  0
LINE
  5
1279
102
{ACAD_REACTORS
330
12A3
102
}
330
19
100
AcDbEntity
  8
0
  6
Continuous
 62
     5
100
AcDbLine
 10
405.4999999999999
 20
92.50000000000012
 30
0.0
 11
398.5
 21
94.25000000000011
 31
0.0
1001
PHOENIX7010
1002
{
1070
    62
1070
     5
1070
    41
1040
1.0
1002
}
  0
LINE
  5
127A
102
{ACAD_REACTORS
330
12A3
102
}
330
19
100
AcDbEntity
  8
0
  6
Continuous
 62
     5
100
AcDbLine
 10
405.4999999999999
 20
99.50000000000011
 30
0.0
 11
398.5
 21
97.75000000000012
 31
0.0
1001
PHOENIX7010
1002
{
1070
    62
1070
     5
1070
    41
1040
1.0
1002
}
  0
ARC
  5
127B
102
{ACAD_REACTORS
330
12A3
102
}
330
19
100
AcDbEntity
  8
0
  6
Continuous
 62
     5
100
AcDbCircle
 10
317.4999999999998
 20
89.00000000000011
 30
0.0
 40
2.5
100
AcDbArc
 50
90.0
 51
180.0
1001
PHOENIX7010
1002
{
1070
    62
1070
     5
1070
    41
1040
1.0
1002
}
  0
ARC
  5
127C
102
{ACAD_REACTORS
330
12A3
102
}
330
19
100
AcDbEntity
  8
0
  6
Continuous
 62
     5
100
AcDbCircle
 10
317.4999999999998
 20
100.0000000000001
 30
0.0
 40
2.5
100
AcDbArc
 50
90.0
 51
180.0
1001
PHOENIX7010
1002
{
1070
    62
1070
     5
1070
    41
1040
1.0
1002
}
  0
LINE
  5
127D
102
{ACAD_REACTORS
330
12A3
102
}
330
19
100
AcDbEntity
  8
0
  6
Continuous
 62
     5
100
AcDbLine
 10
415.0
 20
91.50000000000011
 30
0.0
 11
317.4999999999998
 21
91.50000000000011
 31
0.0
1001
PHOENIX7010
1002
{
1070
    62
1070
     5
1070
    41
1040
1.0
1002
}
  0
LINE
  5
127E
102
{ACAD_REACTORS
330
12A3
102
}
330
19
100
AcDbEntity
  8
0
  6
Continuous
 62
     5
100
AcDbLine
 10
415.0
 20
102.5000000000001
 30
0.0
 11
317.4999999999998
 21
102.5000000000001
 31
0.0
1001
PHOENIX7010
1002
{
1070
    62
1070
     5
1070
    41
1040
1.0
1002
}
  0
LINE
  5
127F
102
{ACAD_REACTORS
330
12A3
102
}
330
19
100
AcDbEntity
  8
0
  6
Continuous
 62
     5
100
AcDbLine
 10
350.0
 20
48.00000000000022
 30
0.0
 11
350.0
 21
14.50000000000023
 31
0.0
1001
PHOENIX7010
1002
{
1070
    62
1070
     5
1070
    41
1040
1.0
1002
}
  0
TEXT
  5
1280
102
{ACAD_REACTORS
330
12A3
102
}
330
19
100
AcDbEntity
  8
0
  6
Continuous
 62
     1
100
AcDbText
 10
328.9999996997321
 20
42.74999981501366
 30
0.0
 40
2.0
  1
-
 41
1.5
100
AcDbText
1001
PHOENIX7010
1002
{
1070
    62
1070
     1
1070
    41
1040
1.0
1002
}
  0
TEXT
  5
1281
102
{ACAD_REACTORS
330
12A3
102
}
330
19
100
AcDbEntity
  8
0
  6
Continuous
 62
     1
100
AcDbText
 10
328.9999996997321
 20
40.24999981501366
 30
0.0
 40
2.0
  1
-
 41
1.5
100
AcDbText
1001
PHOENIX7010
1002
{
1070
    62
1070
     1
1070
    41
1040
1.0
1002
}
  0
TEXT
  5
1282
102
{ACAD_REACTORS
330
12A3
102
}
330
19
100
AcDbEntity
  8
0
  6
Continuous
 62
     1
100
AcDbText
 10
328.9999996997321
 20
45.24999981501366
 30
0.0
 40
2.0
  1
-
 41
1.5
100
AcDbText
1001
PHOENIX7010
1002
{
1070
    62
1070
     1
1070
    41
1040
1.0
1002
}
  0
TEXT
  5
1283
102
{ACAD_REACTORS
330
12A3
102
}
330
19
100
AcDbEntity
  8
0
  6
Continuous
 62
     1
100
AcDbText
 10
315.9999996997324
 20
42.74999981501366
 30
0.0
 40
2.0
  1
-
 41
1.5
100
AcDbText
1001
PHOENIX7010
1002
{
1070
    62
1070
     1
1070
    41
1040
1.0
1002
}
  0
TEXT
  5
1284
102
{ACAD_REACTORS
330
12A3
102
}
330
19
100
AcDbEntity
  8
0
  6
Continuous
 62
     1
100
AcDbText
 10
315.9999996997324
 20
40.24999981501366
 30
0.0
 40
2.0
  1
-
 41
1.5
100
AcDbText
1001
PHOENIX7010
1002
{
1070
    62
1070
     1
1070
    41
1040
1.0
1002
}
  0
TEXT
  5
1285
102
{ACAD_REACTORS
330
12A3
102
}
330
19
100
AcDbEntity
  8
0
  6
Continuous
 62
     1
100
AcDbText
 10
315.9999996997324
 20
45.24999981501366
 30
0.0
 40
2.0
  1
-
 41
1.5
100
AcDbText
1001
PHOENIX7010
1002
{
1070
    62
1070
     1
1070
    41
1040
1.0
1002
}
  0
ARC
  5
1286
102
{ACAD_REACTORS
330
12A3
102
}
330
19
100
AcDbEntity
  8
0
  6
Continuous
 62
     5
100
AcDbCircle
 10
317.4999999999998
 20
45.50000000000022
 30
0.0
 40
2.5
100
AcDbArc
 50
90.0
 51
180.0
1001
PHOENIX7010
1002
{
1070
    62
1070
     5
1070
    41
1040
1.0
1002
}
  0
ARC
  5
1287
102
{ACAD_REACTORS
330
12A3
102
}
330
19
100
AcDbEntity
  8
0
  6
Continuous
 62
     5
100
AcDbCircle
 10
317.4999999999998
 20
76.00000000000022
 30
0.0
 40
2.5
100
AcDbArc
 50
90.0
 51
180.0
1001
PHOENIX7010
1002
{
1070
    62
1070
     5
1070
    41
1040
1.0
1002
}
  0
TEXT
  5
1288
102
{ACAD_REACTORS
330
12A3
102
}
330
19
100
AcDbEntity
  8
0
  6
Continuous
 62
     1
100
AcDbText
 10
328.9999996997321
 20
25.24999981501367
 30
0.0
 40
2.0
  1
-
 41
1.5
100
AcDbText
1001
PHOENIX7010
1002
{
1070
    62
1070
     1
1070
    41
1040
1.0
1002
}
  0
TEXT
  5
1289
102
{ACAD_REACTORS
330
12A3
102
}
330
19
100
AcDbEntity
  8
0
  6
Continuous
 62
     1
100
AcDbText
 10
328.9999996997321
 20
22.74999981501367
 30
0.0
 40
2.0
  1
07.03.2014
 41
1.5
100
AcDbText
1001
PHOENIX7010
1002
{
1070
    62
1070
     1
1070
    41
1040
1.0
1002
}
  0
TEXT
  5
128A
102
{ACAD_REACTORS
330
12A3
102
}
330
19
100
AcDbEntity
  8
0
  6
Continuous
 62
     1
100
AcDbText
 10
328.9999996997321
 20
30.24999981501367
 30
0.0
 40
2.0
  1
-
 41
1.5
100
AcDbText
1001
PHOENIX7010
1002
{
1070
    62
1070
     1
1070
    41
1040
1.0
1002
}
  0
TEXT
  5
128B
102
{ACAD_REACTORS
330
12A3
102
}
330
19
100
AcDbEntity
  8
0
  6
Continuous
 62
     1
100
AcDbText
 10
328.9999996997321
 20
27.74999981501367
 30
0.0
 40
2.0
  1
-
 41
1.5
100
AcDbText
1001
PHOENIX7010
1002
{
1070
    62
1070
     1
1070
    41
1040
1.0
1002
}
  0
TEXT
  5
128C
102
{ACAD_REACTORS
330
12A3
102
}
330
19
100
AcDbEntity
  8
0
  6
Continuous
 62
     1
100
AcDbText
 10
328.9999996997321
 20
32.74999981501367
 30
0.0
 40
2.0
  1
-
 41
1.5
100
AcDbText
1001
PHOENIX7010
1002
{
1070
    62
1070
     1
1070
    41
1040
1.0
1002
}
  0
TEXT
  5
128D
102
{ACAD_REACTORS
330
12A3
102
}
330
19
100
AcDbEntity
  8
0
  6
Continuous
 62
     1
100
AcDbText
 10
328.9999996997321
 20
35.24999981501367
 30
0.0
 40
2.0
  1
-
 41
1.5
100
AcDbText
1001
PHOENIX7010
1002
{
1070
    62
1070
     1
1070
    41
1040
1.0
1002
}
  0
TEXT
  5
128E
102
{ACAD_REACTORS
330
12A3
102
}
330
19
100
AcDbEntity
  8
0
  6
Continuous
 62
     1
100
AcDbText
 10
328.9999996997321
 20
37.74999981501367
 30
0.0
 40
2.0
  1
-
 41
1.5
100
AcDbText
1001
PHOENIX7010
1002
{
1070
    62
1070
     1
1070
    41
1040
1.0
1002
}
  0
TEXT
  5
128F
102
{ACAD_REACTORS
330
12A3
102
}
330
19
100
AcDbEntity
  8
0
  6
Continuous
 62
     1
100
AcDbText
 10
315.9999996997324
 20
25.24999981501367
 30
0.0
 40
2.0
  1
-
 41
1.5
100
AcDbText
1001
PHOENIX7010
1002
{
1070
    62
1070
     1
1070
    41
1040
1.0
1002
}
  0
TEXT
  5
1290
102
{ACAD_REACTORS
330
12A3
102
}
330
19
100
AcDbEntity
  8
0
  6
Continuous
 62
     1
100
AcDbText
 10
315.9999996997324
 20
22.74999981501367
 30
0.0
 40
2.0
  1
4086
 41
1.5
100
AcDbText
1001
PHOENIX7010
1002
{
1070
    62
1070
     1
1070
    41
1040
1.0
1002
}
  0
TEXT
  5
1291
102
{ACAD_REACTORS
330
12A3
102
}
330
19
100
AcDbEntity
  8
0
  6
Continuous
 62
     1
100
AcDbText
 10
315.9999996997324
 20
30.24999981501367
 30
0.0
 40
2.0
  1
-
 41
1.5
100
AcDbText
1001
PHOENIX7010
1002
{
1070
    62
1070
     1
1070
    41
1040
1.0
1002
}
  0
TEXT
  5
1292
102
{ACAD_REACTORS
330
12A3
102
}
330
19
100
AcDbEntity
  8
0
  6
Continuous
 62
     1
100
AcDbText
 10
315.9999996997324
 20
27.74999981501367
 30
0.0
 40
2.0
  1
-
 41
1.5
100
AcDbText
1001
PHOENIX7010
1002
{
1070
    62
1070
     1
1070
    41
1040
1.0
1002
}
  0
TEXT
  5
1293
102
{ACAD_REACTORS
330
12A3
102
}
330
19
100
AcDbEntity
  8
0
  6
Continuous
 62
     1
100
AcDbText
 10
315.9999996997324
 20
32.74999981501367
 30
0.0
 40
2.0
  1
-
 41
1.5
100
AcDbText
1001
PHOENIX7010
1002
{
1070
    62
1070
     1
1070
    41
1040
1.0
1002
}
  0
TEXT
  5
1294
102
{ACAD_REACTORS
330
12A3
102
}
330
19
100
AcDbEntity
  8
0
  6
Continuous
 62
     1
100
AcDbText
 10
315.9999996997324
 20
35.24999981501367
 30
0.0
 40
2.0
  1
-
 41
1.5
100
AcDbText
1001
PHOENIX7010
1002
{
1070
    62
1070
     1
1070
    41
1040
1.0
1002
}
  0
TEXT
  5
1295
102
{ACAD_REACTORS
330
12A3
102
}
330
19
100
AcDbEntity
  8
0
  6
Continuous
 62
     1
100
AcDbText
 10
315.9999996997324
 20
37.74999981501367
 30
0.0
 40
2.0
  1
-
 41
1.5
100
AcDbText
1001
PHOENIX7010
1002
{
1070
    62
1070
     1
1070
    41
1040
1.0
1002
}
  0
LINE
  5
1296
102
{ACAD_REACTORS
330
12A3
102
}
330
19
100
AcDbEntity
  8
0
  6
Continuous
 62
     1
100
AcDbLine
 10
328.0
 20
48.00000000000022
 30
0.0
 11
328.0
 21
14.50000000000023
 31
0.0
1001
PHOENIX7010
1002
{
1070
    62
1070
     1
1070
    41
1040
1.0
1002
}
  0
LINE
  5
1297
102
{ACAD_REACTORS
330
12A3
102
}
330
19
100
AcDbEntity
  8
0
  6
Continuous
 62
     1
100
AcDbLine
 10
314.9999999999998
 20
21.50000000000023
 30
0.0
 11
350.0
 21
21.50000000000023
 31
0.0
1001
PHOENIX7010
1002
{
1070
    62
1070
     1
1070
    41
1040
1.0
1002
}
  0
LINE
  5
1298
102
{ACAD_REACTORS
330
12A3
102
}
330
19
100
AcDbEntity
  8
0
  6
Continuous
 62
     5
100
AcDbLine
 10
415.0
 20
78.50000000000022
 30
0.0
 11
317.4999999999998
 21
78.50000000000022
 31
0.0
1001
PHOENIX7010
1002
{
1070
    62
1070
     5
1070
    41
1040
1.0
1002
}
  0
LINE
  5
1299
102
{ACAD_REACTORS
330
12A3
102
}
330
19
100
AcDbEntity
  8
0
  6
Continuous
 62
     5
100
AcDbLine
 10
415.0
 20
48.00000000000022
 30
0.0
 11
317.4999999999998
 21
48.00000000000022
 31
0.0
1001
PHOENIX7010
1002
{
1070
    62
1070
     5
1070
    41
1040
1.0
1002
}
  0
LINE
  5
129A
102
{ACAD_REACTORS
330
12A3
102
}
330
19
100
AcDbEntity
  8
0
  6
Continuous
 62
     5
100
AcDbLine
 10
314.9999999999998
 20
100.0000000000001
 30
0.0
 11
314.9999999999998
 21
5.000000000000227
 31
0.0
1001
PHOENIX7010
1002
{
1070
    62
1070
     5
1070
    41
1040
1.0
1002
}
  0
INSERT
  5
129B
102
{ACAD_REACTORS
330
12A3
102
}
330
19
100
AcDbEntity
  8
0
  6
Continuous
 62
     5
370
    35
100
AcDbBlockReference
  2
PH_GRPBLK
 10
314.9999999999998
 20
14.50000000000023
 30
0.0
1001
PHOENIX7010
1002
{
1070
    41
1040
1.0
1002
}
  0
LWPOLYLINE
  5
129C
102
{ACAD_REACTORS
330
1259
102
}
330
19
100
AcDbEntity
  8
0
  6
Continuous
 62
     7
 60
     1
370
    50
100
AcDbPolyline
 90
        5
 70
     1
 43
0.0
 10
407.4334749940253
 20
35.16453811398049
 10
400.7334749940254
 20
27.36453811398042
 10
412.7334749940255
 20
27.36453811398042
 10
412.7334749940255
 20
35.16453811398037
 10
407.4334749940253
 20
28.26453811398051
1001
PHOENIX7010
1002
{
1070
    41
1040
1.0
1002
}
  0
LWPOLYLINE
  5
129D
102
{ACAD_REACTORS
330
125A
102
}
330
19
100
AcDbEntity
  8
0
  6
Continuous
 62
     7
 60
     1
370
    50
100
AcDbPolyline
 90
        3
 70
     1
 43
0.0
 10
399.8834749940256
 20
27.36453811398042
 10
399.8834749940256
 20
31.51453811398039
 10
404.0334749940257
 20
31.51453811398039
 42
2.414213562373094
1001
PHOENIX7010
1002
{
1070
    41
1040
1.0
1002
}
  0
LINE
  5
137C
102
{ACAD_REACTORS
330
1387
102
}
330
19
100
AcDbEntity
  8
0
  6
Continuous
 62
     1
100
AcDbLine
 10
26.88358244387814
 20
22.32875622474728
 30
0.0
 11
147.2633946085875
 21
22.32875622474728
 31
0.0
1001
PHOENIX7010
1002
{
1070
    41
1040
1.0
1070
    62
1070
     1
1002
}
  0
LINE
  5
137D
102
{ACAD_REACTORS
330
1387
102
}
330
19
100
AcDbEntity
  8
0
  6
Continuous
 62
     1
100
AcDbLine
 10
26.88358244387814
 20
13.99875622474747
 30
0.0
 11
147.2633946085875
 21
13.99875622474747
 31
0.0
1001
PHOENIX7010
1002
{
1070
    41
1040
1.0
1070
    62
1070
     1
1002
}
  0
LINE
  5
137E
102
{ACAD_REACTORS
330
1387
102
}
330
19
100
AcDbEntity
  8
0
  6
Continuous
 62
     1
100
AcDbLine
 10
26.88358244387814
 20
30.65875622474732
 30
0.0
 11
147.2633946085875
 21
30.65875622474732
 31
0.0
1001
PHOENIX7010
1002
{
1070
    41
1040
1.0
1070
    62
1070
     1
1002
}
  0
LINE
  5
137F
102
{ACAD_REACTORS
330
1387
102
}
330
19
100
AcDbEntity
  8
0
  6
Continuous
 62
     1
100
AcDbLine
 10
26.88358244387814
 20
38.98875622474725
 30
0.0
 11
147.2633946085875
 21
38.98875622474725
 31
0.0
1001
PHOENIX7010
1002
{
1070
    41
1040
1.0
1070
    62
1070
     1
1002
}
  0
MTEXT
  5
1380
102
{ACAD_REACTORS
330
1387
102
}
330
19
100
AcDbEntity
  8
0
  6
Continuous
 62
     5
100
AcDbMText
 10
29.50143366200519
 20
46.06178495049334
 30
0.0
 40
5.0
 41
86.59961566179914
 71
     1
 72
     5
  1
Modell\PRP/M 00042\PRP/M 00063\PRP/M 00084
 73
     1
 44
1.0
1001
PHOENIX7010
1002
{
1070
    41
1040
1.0
1070
    62
1070
     5
1002
}
1001
ACAD
1000
MTEXTBEGIN
1070
    73
1070
     1
1070
    44
1040
1.0
1070
    74
1070
     0
1000
MTEXTEND
  0
MTEXT
  5
1381
102
{ACAD_REACTORS
330
1387
102
}
330
19
100
AcDbEntity
  8
0
  6
Continuous
 62
     5
100
AcDbMText
 10
98.01019956511822
 20
46.06178495049334
 30
0.0
 40
5.0
 41
55.0
 71
     1
 72
     5
  1
TE\P42\P63\P84
 73
     1
 44
1.0
1001
PHOENIX7010
1002
{
1070
    41
1040
1.0
1070
    62
1070
     5
1002
}
1001
ACAD
1000
MTEXTBEGIN
1070
    73
1070
     1
1070
    44
1040
1.0
1070
    74
1070
     0
1000
MTEXTEND
  0
MTEXT
  5
1382
102
{ACAD_REACTORS
330
1387
102
}
330
19
100
AcDbEntity
  8
0
  6
Continuous
 62
     5
100
AcDbMText
 10
117.8202484908186
 20
46.06178495049334
 30
0.0
 40
5.0
 41
55.0
 71
     1
 72
     5
  1
Länge/Length\P218,44\P325,12\P431,80
 73
     1
 44
1.0
1001
PHOENIX7010
1002
{
1070
    41
1040
1.0
1070
    62
1070
     5
1002
}
1001
ACAD
1000
MTEXTBEGIN
1070
    73
1070
     1
1070
    44
1040
1.0
1070
    74
1070
     0
1000
MTEXTEND
  0
LINE
  5
1383
102
{ACAD_REACTORS
330
1387
102
}
330
19
100
AcDbEntity
  8
0
  6
Continuous
 62
     1
100
AcDbLine
 10
115.2023972726915
 20
13.99875622474747
 30
0.0
 11
115.2023972726915
 21
47.02461965041277
 31
0.0
1001
PHOENIX7010
1002
{
1070
    41
1040
1.0
1070
    62
1070
     1
1002
}
  0
LINE
  5
1384
102
{ACAD_REACTORS
330
1387
102
}
330
19
100
AcDbEntity
  8
0
  6
Continuous
 62
     1
100
AcDbLine
 10
90.96115436787613
 20
13.99875622474747
 30
0.0
 11
90.96115436787613
 21
47.02461965041277
 31
0.0
1001
PHOENIX7010
1002
{
1070
    41
1040
1.0
1070
    62
1070
     1
1002
}
  0
INSERT
  5
1385
102
{ACAD_REACTORS
330
1387
102
}
330
19
100
AcDbEntity
  8
0
  6
Continuous
 62
     1
100
AcDbBlockReference
  2
PH_GRPBLK
 10
26.88358244387814
 20
22.32875622474728
 30
0.0
1001
PHOENIX7010
1002
{
1070
    41
1040
1.0
1002
}
  0
PDFUNDERLAY
  5
16D5
330
19
100
AcDbEntity
  8
0
  6
ACAD_ISO05W100
 62
     3
 92
        8
310
0800000000000000
370
    70
100
AcDbUnderlayReference
340
16D4
 10
260.2671369529917
 20
109.4676502949586
 30
0.0
 41
9.0
 42
9.0
 43
9.0
281
   100
282
     0
  0
ENDSEC
  0
SECTION
  2
OBJECTS
  0
DICTIONARY
  5
C
330
0
100
AcDbDictionary
281
     1
  3
ACAD_COLOR
350
11BA
  3
ACAD_GROUP
350
D
  3
ACAD_LAYOUT
350
11E1
  3
ACAD_MATERIAL
350
118D
  3
ACAD_MLEADERSTYLE
350
11DF
  3
ACAD_MLINESTYLE
350
E
  3
ACAD_PDFDEFINITIONS
350
12E7
  3
ACAD_PLOTSETTINGS
350
11E2
  3
ACAD_PLOTSTYLENAME
350
118B
  3
ACAD_SCALELIST
350
11BD
  3
ACAD_TABLESTYLE
350
11BB
  3
ACAD_VISUALSTYLE
350
11A6
  3
ACDB_RECOMPOSE_DATA
350
1710
  3
AcDbVariableDictionary
350
136F
  3
AEC_PROPERTY_SET_DEFS
350
1255
  3
ASE_INDEX_DICTIONARY
350
161E
  3
DWGPROPS
350
1711
  3
PH_OBJREACTOR_DICT
350
6E5
  3
PH_ROOTGROUP_DICT
350
6DB
  3
PH_VARS
350
6DA
  0
DICTIONARY
  5
133E
330
8
100
AcDbDictionary
280
     1
281
     1
  0
DICTIONARY
  5
1257
330
2
100
AcDbDictionary
280
     1
281
     1
  3
ACAD_LAYERSTATES
360
1258
  0
DICTIONARY
  5
11E7
330
F
100
AcDbDictionary
280
     1
281
     1
  3
ADSK_XREC_LAYER_RECONCILED
360
11E8
  0
DICTIONARY
  5
11E9
330
22
100
AcDbDictionary
280
     1
281
     1
  3
ADSK_XREC_LAYER_RECONCILED
360
11EA
  0
DICTIONARY
  5
11EB
330
23
100
AcDbDictionary
280
     1
281
     1
  3
ADSK_XREC_LAYER_RECONCILED
360
11EC
  0
DICTIONARY
  5
11ED
330
24
100
AcDbDictionary
280
     1
281
     1
  3
ADSK_XREC_LAYER_RECONCILED
360
11EE
  0
DICTIONARY
  5
11EF
330
3D
100
AcDbDictionary
280
     1
281
     1
  3
ADSK_XREC_LAYER_RECONCILED
360
11F0
  0
DICTIONARY
  5
11F1
330
55
100
AcDbDictionary
280
     1
281
     1
  3
ADSK_XREC_LAYER_RECONCILED
360
11F2
  0
DICTIONARY
  5
11F3
330
75
100
AcDbDictionary
280
     1
281
     1
  3
ADSK_XREC_LAYER_RECONCILED
360
11F4
  0
DICTIONARY
  5
11F5
330
83
100
AcDbDictionary
280
     1
281
     1
  3
ADSK_XREC_LAYER_RECONCILED
360
11F6
  0
DICTIONARY
  5
11F7
330
10E
100
AcDbDictionary
280
     1
281
     1
  3
ADSK_XREC_LAYER_RECONCILED
360
11F8
  0
DICTIONARY
  5
11F9
330
117
100
AcDbDictionary
280
     1
281
     1
  3
ADSK_XREC_LAYER_RECONCILED
360
11FA
  0
DICTIONARY
  5
11FB
330
231
100
AcDbDictionary
280
     1
281
     1
  3
ADSK_XREC_LAYER_RECONCILED
360
11FC
  0
DICTIONARY
  5
11FD
330
23C
100
AcDbDictionary
280
     1
281
     1
  3
ADSK_XREC_LAYER_RECONCILED
360
11FE
  0
DICTIONARY
  5
11FF
330
482
100
AcDbDictionary
280
     1
281
     1
  3
ADSK_XREC_LAYER_RECONCILED
360
1200
  0
DICTIONARY
  5
1201
330
580
100
AcDbDictionary
280
     1
281
     1
  3
ADSK_XREC_LAYER_RECONCILED
360
1202
  0
DICTIONARY
  5
1203
330
586
100
AcDbDictionary
280
     1
281
     1
  3
ADSK_XREC_LAYER_RECONCILED
360
1204
  0
DICTIONARY
  5
1205
330
6FA
100
AcDbDictionary
280
     1
281
     1
  3
ADSK_XREC_LAYER_RECONCILED
360
1206
  0
DICTIONARY
  5
170E
330
1262
100
AcDbDictionary
280
     1
281
     1
  3
ACAD_MTEXT_2008_RT
360
170F
  0
DICTIONARY
  5
11BA
102
{ACAD_REACTORS
330
C
102
}
330
C
100
AcDbDictionary
281
     1
  0
DICTIONARY
  5
D
102
{ACAD_REACTORS
330
C
102
}
330
C
100
AcDbDictionary
281
     1
  3
*A1
350
84F
  3
*A10
350
84B
  3
*A11
350
84C
  3
*A12
350
856
  3
*A13
350
84E
  3
*A14
350
83E
  3
*A15
350
851
  3
*A16
350
852
  3
*A17
350
853
  3
*A18
350
854
  3
*A19
350
855
  3
*A2
350
844
  3
*A20
350
83D
  3
*A21
350
846
  3
*A22
350
83F
  3
*A23
350
840
  3
*A24
350
841
  3
*A25
350
842
  3
*A26
350
843
  3
*A3
350
845
  3
*A4
350
84D
  3
*A5
350
847
  3
*A6
350
850
  3
*A7
350
848
  3
*A8
350
849
  3
*A9
350
84A
  3
464
350
258
  3
_GF_XXXX
350
6A5
  3
_MD_XXXX
350
5FF
  3
_VV_XXXX
350
60A
  3
_ZU_XXXX
350
67B
  3
DINA4
350
481
  3
DINA4H
350
57F
  3
M3X10
350
259
  3
POLYLINE
350
6CC
  3
V11$00005
350
8C
  3
V11$00006
350
5D0
  3
V11$00007
350
91
  3
V11$00009
350
5E6
  3
V11$00010
350
9D
  3
V11$00011
350
A0
  3
V11$00013
350
600
  3
V11$00014
350
4EE
  3
V11$00015
350
4F1
  3
V11$00016
350
60B
  3
V11$00017
350
60E
  3
V11$00018
350
4F7
  3
V11$00019
350
4F9
  3
V11$00020
350
4FB
  3
V11$00021
350
4FD
  3
V11$00022
350
4FF
  3
V11$00023
350
530
  3
V11$00024
350
533
  3
V11$00025
350
536
  3
V11$00027
350
540
  3
V11$00038
350
255
  3
V11$00043
350
25B
  3
V11$00045
350
26F
  3
V11$00046
350
274
  3
V11$00047
350
27C
  3
V11$00048
350
281
  3
V11$00049
350
282
  3
V11$00052
350
290
  3
V11$00053
350
298
  3
V11$00054
350
299
  3
V11$00055
350
29A
  3
V11$00056
350
29D
  3
V11$00058
350
2A6
  3
V11$00060
350
2B1
  3
V11$00062
350
2BB
  3
V11$00063
350
2BD
  3
V11$00065
350
2C5
  3
V11$00069
350
2E2
  3
V11$00070
350
2E5
  3
V11$00071
350
2E8
  3
V11$00072
350
2EB
  3
V11$00073
350
2F2
  3
V11$00074
350
2F9
  3
V11$00075
350
303
  3
V11$00077
350
317
  3
V11$00078
350
31C
  3
V11$00079
350
324
  3
V11$00080
350
329
  3
V11$00081
350
32A
  3
V11$00084
350
338
  3
V11$00085
350
33F
  3
V11$00086
350
340
  3
V11$00087
350
341
  3
V11$00088
350
342
  3
V11$00089
350
343
  3
V11$00090
350
344
  3
V11$00091
350
346
  3
V11$00093
350
356
  3
V11$00094
350
359
  3
V11$00095
350
35C
  3
V11$00096
350
35F
  3
V11$00097
350
364
  3
V11$00098
350
369
  3
V11$00099
350
373
  3
V11$00100
350
386
  3
V11$00102
350
394
  3
V11$00103
350
39E
  3
V11$00107
350
3BA
  3
V11$00108
350
3C4
  3
V11$00111
350
3D9
  3
V11$00112
350
3E3
  3
V11$00113
350
3E5
  0
DICTIONARY
  5
11E1
102
{ACAD_REACTORS
330
C
102
}
330
C
100
AcDbDictionary
281
     1
  3
Layout1
350
11E4
  3
Model
350
11E3
  0
DICTIONARY
  5
118D
102
{ACAD_REACTORS
330
C
102
}
330
C
100
AcDbDictionary
281
     1
  3
ByBlock
350
1196
  3
ByLayer
350
118E
  3
Global
350
119E
  0
DICTIONARY
  5
11DF
102
{ACAD_REACTORS
330
C
102
}
330
C
100
AcDbDictionary
281
     1
  3
Standard
350
11E0
  0
DICTIONARY
  5
E
102
{ACAD_REACTORS
330
C
102
}
330
C
100
AcDbDictionary
281
     1
  3
STANDARD
350
1C
  0
DICTIONARY
  5
12E7
102
{ACAD_REACTORS
330
C
102
}
330
C
100
AcDbDictionary
281
     1
  3
2901844 - 1
350
16D4
  3
86542710_RP_M_Rastprofil - 1
350
12E9
  0
DICTIONARY
  5
11E2
102
{ACAD_REACTORS
330
C
102
}
330
C
100
AcDbDictionary
281
     1
  0
ACDBDICTIONARYWDFLT
  5
118B
102
{ACAD_REACTORS
330
C
102
}
330
C
100
AcDbDictionary
281
     1
  3
Normal
350
118C
100
AcDbDictionaryWithDefault
340
118C
  0
DICTIONARY
  5
11BD
102
{ACAD_REACTORS
330
C
102
}
330
C
100
AcDbDictionary
281
     1
  3
A0
350
11BE
  3
A1
350
11BF
  3
A2
350
11C0
  3
A3
350
11C1
  3
A4
350
11C2
  3
A5
350
11C3
  3
A6
350
11C4
  3
A7
350
11C5
  3
A8
350
11C6
  3
A9
350
11C7
  3
B0
350
11C8
  3
B1
350
11C9
  3
B2
350
11CA
  3
B3
350
11CB
  3
B4
350
11CC
  3
B5
350
11CD
  3
B6
350
11CE
  3
B7
350
11CF
  3
B8
350
11D0
  3
B9
350
11D1
  3
C0
350
11D2
  3
C1
350
11D3
  3
C2
350
11D4
  3
C3
350
11D5
  3
C4
350
11D6
  3
C5
350
11D7
  3
C6
350
11D8
  3
C7
350
11D9
  3
C8
350
11DA
  3
C9
350
11DB
  3
D0
350
11DC
  3
D1
350
11DD
  3
D2
350
11DE
  0
DICTIONARY
  5
11BB
102
{ACAD_REACTORS
330
C
102
}
330
C
100
AcDbDictionary
281
     1
  3
Standard
350
11BC
  0
DICTIONARY
  5
11A6
102
{ACAD_REACTORS
330
C
102
}
330
C
100
AcDbDictionary
281
     1
  3
2dWireframe
350
11AC
  3
3D Hidden
350
11AE
  3
3dWireframe
350
11AD
  3
Basic
350
11AB
  3
Brighten
350
11B2
  3
ColorChange
350
11B6
  3
Conceptual
350
11AF
  3
Dim
350
11B1
  3
EdgeColorOff
350
11B9
  3
Facepattern
350
11B5
  3
Flat
350
11A7
  3
FlatWithEdges
350
11A8
  3
Gouraud
350
11A9
  3
GouraudWithEdges
350
11AA
  3
JitterOff
350
11B7
  3
Linepattern
350
11B4
  3
OverhangOff
350
11B8
  3
Realistic
350
11B0
  3
Thicken
350
11B3
  0
XRECORD
  5
1710
102
{ACAD_REACTORS
330
C
102
}
330
C
100
AcDbXrecord
280
     1
 90
        1
330
11BC
330
1262
  0
DICTIONARY
  5
136F
102
{ACAD_REACTORS
330
C
102
}
330
C
100
AcDbDictionary
281
     1
  3
CANNOSCALE
350
1372
  3
CMLEADERSTYLE
350
1371
  3
CTABLESTYLE
350
1370
  3
DIMASSOC
350
1375
  3
INDEXCTL
350
1374
  3
SORTENTS
350
1373
  3
XCLIPFRAME
350
170C
  0
DICTIONARY
  5
1255
102
{ACAD_REACTORS
330
C
102
}
330
C
100
AcDbDictionary
281
     1
  0
DICTIONARY
  5
161E
102
{ACAD_REACTORS
330
C
102
}
330
C
100
AcDbDictionary
281
     1
  3
ASEBlockHierarchyIndexRecord
350
1620
1001
DCO15
1040
1810983078.389
  0
XRECORD
  5
1711
102
{ACAD_REACTORS
330
C
102
}
330
C
100
AcDbXrecord
280
     1
  1
DWGPROPS COOKIE
  2

  3

  4

  6

  7

  8
nowak
  9

300
=
301
=
302
=
303
=
304
=
305
=
306
=
307
=
308
=
309
=
 40
0.1799679861111111
 41
2450591.56866691
 42
2456784.369088299
  1

 90
        0
  0
DICTIONARY
  5
6E5
102
{ACAD_REACTORS
330
C
102
}
330
C
100
AcDbDictionary
281
     1
  0
DICTIONARY
  5
6DB
102
{ACAD_REACTORS
330
C
102
}
330
C
100
AcDbDictionary
281
     1
  3
$PH$AAAC3H
350
1253
  3
$PH$AAADCandP
350
129E
  3
$PH$AAAEwer
350
1386
  0
PH_VARS
  5
6DA
102
{ACAD_REACTORS
330
C
102
}
330
C
  0
DICTIONARY
  5
1258
102
{ACAD_REACTORS
330
1257
102
}
330
1257
100
AcDbDictionary
281
     1
  0
XRECORD
  5
11E8
102
{ACAD_REACTORS
330
11E7
102
}
330
11E7
100
AcDbXrecord
280
     1
290
     1
  0
XRECORD
  5
11EA
102
{ACAD_REACTORS
330
11E9
102
}
330
11E9
100
AcDbXrecord
280
     1
290
     1
  0
XRECORD
  5
11EC
102
{ACAD_REACTORS
330
11EB
102
}
330
11EB
100
AcDbXrecord
280
     1
290
     1
  0
XRECORD
  5
11EE
102
{ACAD_REACTORS
330
11ED
102
}
330
11ED
100
AcDbXrecord
280
     1
290
     1
  0
XRECORD
  5
11F0
102
{ACAD_REACTORS
330
11EF
102
}
330
11EF
100
AcDbXrecord
280
     1
290
     1
  0
XRECORD
  5
11F2
102
{ACAD_REACTORS
330
11F1
102
}
330
11F1
100
AcDbXrecord
280
     1
290
     1
  0
XRECORD
  5
11F4
102
{ACAD_REACTORS
330
11F3
102
}
330
11F3
100
AcDbXrecord
280
     1
290
     1
  0
XRECORD
  5
11F6
102
{ACAD_REACTORS
330
11F5
102
}
330
11F5
100
AcDbXrecord
280
     1
290
     1
  0
XRECORD
  5
11F8
102
{ACAD_REACTORS
330
11F7
102
}
330
11F7
100
AcDbXrecord
280
     1
290
     1
  0
XRECORD
  5
11FA
102
{ACAD_REACTORS
330
11F9
102
}
330
11F9
100
AcDbXrecord
280
     1
290
     1
  0
XRECORD
  5
11FC
102
{ACAD_REACTORS
330
11FB
102
}
330
11FB
100
AcDbXrecord
280
     1
290
     1
  0
XRECORD
  5
11FE
102
{ACAD_REACTORS
330
11FD
102
}
330
11FD
100
AcDbXrecord
280
     1
290
     1
  0
XRECORD
  5
1200
102
{ACAD_REACTORS
330
11FF
102
}
330
11FF
100
AcDbXrecord
280
     1
290
     1
  0
XRECORD
  5
1202
102
{ACAD_REACTORS
330
1201
102
}
330
1201
100
AcDbXrecord
280
     1
290
     1
  0
XRECORD
  5
1204
102
{ACAD_REACTORS
330
1203
102
}
330
1203
100
AcDbXrecord
280
     1
290
     1
  0
XRECORD
  5
1206
102
{ACAD_REACTORS
330
1205
102
}
330
1205
100
AcDbXrecord
280
     1
290
     1
  0
XRECORD
  5
170F
102
{ACAD_REACTORS
330
170E
102
}
330
170E
100
AcDbXrecord
280
     1
 40
46997.0
  1
\pxql;{\fArial|b1|i0|c0|p34;\W1.1;BOPLA}
  0
GROUP
  5
84F
102
{ACAD_REACTORS
330
D
102
}
330
D
100
AcDbGroup
300
V11:18637:E1944
 70
     3
 71
     1
  0
GROUP
  5
84B
102
{ACAD_REACTORS
330
D
102
}
330
D
100
AcDbGroup
300
V11:18363:_ZU_XXXX
 70
     3
 71
     1
  0
GROUP
  5
84C
102
{ACAD_REACTORS
330
D
102
}
330
D
100
AcDbGroup
300
V11:17572:DINA4H
 70
     3
 71
     1
  0
GROUP
  5
856
102
{ACAD_REACTORS
330
D
102
}
330
D
100
AcDbGroup
300
V11:18403:POLYLINE
 70
     3
 71
     1
  0
GROUP
  5
84E
102
{ACAD_REACTORS
330
D
102
}
330
D
100
AcDbGroup
300
V11:18639:E1943
 70
     3
 71
     1
  0
GROUP
  5
83E
102
{ACAD_REACTORS
330
D
102
}
330
D
100
AcDbGroup
300
V11:18431:********
 70
     3
 71
     1
  0
GROUP
  5
851
102
{ACAD_REACTORS
330
D
102
}
330
D
100
AcDbGroup
300
V11:18638:E1949
 70
     3
 71
     1
  0
GROUP
  5
852
102
{ACAD_REACTORS
330
D
102
}
330
D
100
AcDbGroup
300
V11:18636:E1950
 70
     3
 71
     1
  0
GROUP
  5
853
102
{ACAD_REACTORS
330
D
102
}
330
D
100
AcDbGroup
300
V11:18634:E1951
 70
     3
 71
     1
  0
GROUP
  5
854
102
{ACAD_REACTORS
330
D
102
}
330
D
100
AcDbGroup
300
V11:18587:E2069
 70
     3
 71
     1
  0
GROUP
  5
855
102
{ACAD_REACTORS
330
D
102
}
330
D
100
AcDbGroup
300
V11:18582:E2070
 70
     3
 71
     1
  0
GROUP
  5
844
102
{ACAD_REACTORS
330
D
102
}
330
D
100
AcDbGroup
300
V11:18269:_GF_XXXX
 70
     3
 71
     1
  0
GROUP
  5
83D
102
{ACAD_REACTORS
330
D
102
}
330
D
100
AcDbGroup
300
V11:18536:********
 70
     3
 71
     1
  0
GROUP
  5
846
102
{ACAD_REACTORS
330
D
102
}
330
D
100
AcDbGroup
300
V11:18359:_GF_XXXX
 70
     3
 71
     1
  0
GROUP
  5
83F
102
{ACAD_REACTORS
330
D
102
}
330
D
100
AcDbGroup
300
V11:18342:********
 70
     3
 71
     1
  0
GROUP
  5
840
102
{ACAD_REACTORS
330
D
102
}
330
D
100
AcDbGroup
300
V11:18353:********
 70
     3
 71
     1
  0
GROUP
  5
841
102
{ACAD_REACTORS
330
D
102
}
330
D
100
AcDbGroup
300
V11:18366:_GF_XXXX
 70
     3
 71
     1
  0
GROUP
  5
842
102
{ACAD_REACTORS
330
D
102
}
330
D
100
AcDbGroup
300
V11:18472:_GF_XXXX
 70
     3
 71
     1
  0
GROUP
  5
843
102
{ACAD_REACTORS
330
D
102
}
330
D
100
AcDbGroup
300
V11:18429:_GF_XXXX
 70
     3
 71
     1
  0
GROUP
  5
845
102
{ACAD_REACTORS
330
D
102
}
330
D
100
AcDbGroup
300
V11:18391:_GF_XXXX
 70
     3
 71
     1
  0
GROUP
  5
84D
102
{ACAD_REACTORS
330
D
102
}
330
D
100
AcDbGroup
300
V11:18583:E1941
 70
     3
 71
     1
  0
GROUP
  5
847
102
{ACAD_REACTORS
330
D
102
}
330
D
100
AcDbGroup
300
V11:18523:_VV_XXXX
 70
     3
 71
     1
  0
GROUP
  5
850
102
{ACAD_REACTORS
330
D
102
}
330
D
100
AcDbGroup
300
V11:18635:E1947
 70
     3
 71
     1
  0
GROUP
  5
848
102
{ACAD_REACTORS
330
D
102
}
330
D
100
AcDbGroup
300
V11:18432:_Z1_XXXX
 70
     3
 71
     1
  0
GROUP
  5
849
102
{ACAD_REACTORS
330
D
102
}
330
D
100
AcDbGroup
300
V11:18530:_ZU_XXXX
 70
     3
 71
     1
  0
GROUP
  5
84A
102
{ACAD_REACTORS
330
D
102
}
330
D
100
AcDbGroup
300
V11:18346:_ZU_XXXX
 70
     3
 71
     1
  0
GROUP
  5
258
102
{ACAD_REACTORS
330
D
102
}
330
D
100
AcDbGroup
300
V11:41:464
 70
     0
 71
     1
  0
GROUP
  5
6A5
102
{ACAD_REACTORS
330
D
102
}
330
D
100
AcDbGroup
300
V11:23:_GF_XXXX
 70
     0
 71
     1
  0
GROUP
  5
5FF
102
{ACAD_REACTORS
330
D
102
}
330
D
100
AcDbGroup
300
V11:12:_MD_XXXX
 70
     0
 71
     1
  0
GROUP
  5
60A
102
{ACAD_REACTORS
330
D
102
}
330
D
100
AcDbGroup
300
V11:15:_VV_XXXX
 70
     0
 71
     1
  0
GROUP
  5
67B
102
{ACAD_REACTORS
330
D
102
}
330
D
100
AcDbGroup
300
V11:22:_ZU_XXXX
 70
     0
 71
     1
  0
GROUP
  5
481
102
{ACAD_REACTORS
330
D
102
}
330
D
100
AcDbGroup
300
V11:1:DINA4
 70
     0
 71
     1
  0
GROUP
  5
57F
102
{ACAD_REACTORS
330
D
102
}
330
D
100
AcDbGroup
300
V11:1:DINA4H
 70
     0
 71
     1
  0
GROUP
  5
259
102
{ACAD_REACTORS
330
D
102
}
330
D
100
AcDbGroup
300
V11:42:M3X10
 70
     0
 71
     1
  0
GROUP
  5
6CC
102
{ACAD_REACTORS
330
D
102
}
330
D
100
AcDbGroup
300
V11:25:POLYLINE
 70
     0
 71
     1
  0
GROUP
  5
8C
102
{ACAD_REACTORS
330
D
102
}
330
D
100
AcDbGroup
300
V11:5:********
 70
     0
 71
     1
  0
GROUP
  5
5D0
102
{ACAD_REACTORS
330
D
102
}
330
D
100
AcDbGroup
300
V11:6:********
 70
     0
 71
     1
  0
GROUP
  5
91
102
{ACAD_REACTORS
330
D
102
}
330
D
100
AcDbGroup
300
V11:7:********
 70
     0
 71
     1
  0
GROUP
  5
5E6
102
{ACAD_REACTORS
330
D
102
}
330
D
100
AcDbGroup
300
V11:9:********
 70
     0
 71
     1
  0
GROUP
  5
9D
102
{ACAD_REACTORS
330
D
102
}
330
D
100
AcDbGroup
300
V11:10:********
 70
     0
 71
     1
  0
GROUP
  5
A0
102
{ACAD_REACTORS
330
D
102
}
330
D
100
AcDbGroup
300
V11:11:********
 70
     0
 71
     1
  0
GROUP
  5
600
102
{ACAD_REACTORS
330
D
102
}
330
D
100
AcDbGroup
300
V11:13:********
 70
     0
 71
     1
  0
GROUP
  5
4EE
102
{ACAD_REACTORS
330
D
102
}
330
D
100
AcDbGroup
300
V11:14:********
 70
     0
 71
     1
  0
GROUP
  5
4F1
102
{ACAD_REACTORS
330
D
102
}
330
D
100
AcDbGroup
300
V11:15:********
 70
     0
 71
     1
  0
GROUP
  5
60B
102
{ACAD_REACTORS
330
D
102
}
330
D
100
AcDbGroup
300
V11:16:********
 70
     0
 71
     1
  0
GROUP
  5
60E
102
{ACAD_REACTORS
330
D
102
}
330
D
100
AcDbGroup
300
V11:17:********
 70
     0
 71
     1
  0
GROUP
  5
4F7
102
{ACAD_REACTORS
330
D
102
}
330
D
100
AcDbGroup
300
V11:18:********
 70
     0
 71
     1
  0
GROUP
  5
4F9
102
{ACAD_REACTORS
330
D
102
}
330
D
100
AcDbGroup
300
V11:19:********
 70
     0
 71
     1
  0
GROUP
  5
4FB
102
{ACAD_REACTORS
330
D
102
}
330
D
100
AcDbGroup
300
V11:20:********
 70
     0
 71
     1
  0
GROUP
  5
4FD
102
{ACAD_REACTORS
330
D
102
}
330
D
100
AcDbGroup
300
V11:21:********
 70
     0
 71
     1
  0
GROUP
  5
4FF
102
{ACAD_REACTORS
330
D
102
}
330
D
100
AcDbGroup
300
V11:22:********
 70
     0
 71
     1
  0
GROUP
  5
530
102
{ACAD_REACTORS
330
D
102
}
330
D
100
AcDbGroup
300
V11:23:********
 70
     0
 71
     1
  0
GROUP
  5
533
102
{ACAD_REACTORS
330
D
102
}
330
D
100
AcDbGroup
300
V11:24:********
 70
     0
 71
     1
  0
GROUP
  5
536
102
{ACAD_REACTORS
330
D
102
}
330
D
100
AcDbGroup
300
V11:25:********
 70
     0
 71
     1
  0
GROUP
  5
540
102
{ACAD_REACTORS
330
D
102
}
330
D
100
AcDbGroup
300
V11:27:********
 70
     0
 71
     1
  0
GROUP
  5
255
102
{ACAD_REACTORS
330
D
102
}
330
D
100
AcDbGroup
300
V11:38:********
 70
     0
 71
     1
  0
GROUP
  5
25B
102
{ACAD_REACTORS
330
D
102
}
330
D
100
AcDbGroup
300
V11:43:********
 70
     0
 71
     1
  0
GROUP
  5
26F
102
{ACAD_REACTORS
330
D
102
}
330
D
100
AcDbGroup
300
V11:45:********
 70
     0
 71
     1
  0
GROUP
  5
274
102
{ACAD_REACTORS
330
D
102
}
330
D
100
AcDbGroup
300
V11:46:********
 70
     0
 71
     1
  0
GROUP
  5
27C
102
{ACAD_REACTORS
330
D
102
}
330
D
100
AcDbGroup
300
V11:47:********
 70
     0
 71
     1
  0
GROUP
  5
281
102
{ACAD_REACTORS
330
D
102
}
330
D
100
AcDbGroup
300
V11:48:********
 70
     0
 71
     1
  0
GROUP
  5
282
102
{ACAD_REACTORS
330
D
102
}
330
D
100
AcDbGroup
300
V11:49:********
 70
     0
 71
     1
  0
GROUP
  5
290
102
{ACAD_REACTORS
330
D
102
}
330
D
100
AcDbGroup
300
V11:52:********
 70
     0
 71
     1
  0
GROUP
  5
298
102
{ACAD_REACTORS
330
D
102
}
330
D
100
AcDbGroup
300
V11:53:********
 70
     0
 71
     1
  0
GROUP
  5
299
102
{ACAD_REACTORS
330
D
102
}
330
D
100
AcDbGroup
300
V11:54:********
 70
     0
 71
     1
  0
GROUP
  5
29A
102
{ACAD_REACTORS
330
D
102
}
330
D
100
AcDbGroup
300
V11:55:********
 70
     0
 71
     1
  0
GROUP
  5
29D
102
{ACAD_REACTORS
330
D
102
}
330
D
100
AcDbGroup
300
V11:56:********
 70
     0
 71
     1
  0
GROUP
  5
2A6
102
{ACAD_REACTORS
330
D
102
}
330
D
100
AcDbGroup
300
V11:58:********
 70
     0
 71
     1
  0
GROUP
  5
2B1
102
{ACAD_REACTORS
330
D
102
}
330
D
100
AcDbGroup
300
V11:60:********
 70
     0
 71
     1
  0
GROUP
  5
2BB
102
{ACAD_REACTORS
330
D
102
}
330
D
100
AcDbGroup
300
V11:62:********
 70
     0
 71
     1
  0
GROUP
  5
2BD
102
{ACAD_REACTORS
330
D
102
}
330
D
100
AcDbGroup
300
V11:63:********
 70
     0
 71
     1
  0
GROUP
  5
2C5
102
{ACAD_REACTORS
330
D
102
}
330
D
100
AcDbGroup
300
V11:65:********
 70
     0
 71
     1
  0
GROUP
  5
2E2
102
{ACAD_REACTORS
330
D
102
}
330
D
100
AcDbGroup
300
V11:69:********
 70
     0
 71
     1
  0
GROUP
  5
2E5
102
{ACAD_REACTORS
330
D
102
}
330
D
100
AcDbGroup
300
V11:70:********
 70
     0
 71
     1
  0
GROUP
  5
2E8
102
{ACAD_REACTORS
330
D
102
}
330
D
100
AcDbGroup
300
V11:71:********
 70
     0
 71
     1
  0
GROUP
  5
2EB
102
{ACAD_REACTORS
330
D
102
}
330
D
100
AcDbGroup
300
V11:72:********
 70
     0
 71
     1
  0
GROUP
  5
2F2
102
{ACAD_REACTORS
330
D
102
}
330
D
100
AcDbGroup
300
V11:73:********
 70
     0
 71
     1
  0
GROUP
  5
2F9
102
{ACAD_REACTORS
330
D
102
}
330
D
100
AcDbGroup
300
V11:74:********
 70
     0
 71
     1
  0
GROUP
  5
303
102
{ACAD_REACTORS
330
D
102
}
330
D
100
AcDbGroup
300
V11:75:********
 70
     0
 71
     1
  0
GROUP
  5
317
102
{ACAD_REACTORS
330
D
102
}
330
D
100
AcDbGroup
300
V11:77:********
 70
     0
 71
     1
  0
GROUP
  5
31C
102
{ACAD_REACTORS
330
D
102
}
330
D
100
AcDbGroup
300
V11:78:********
 70
     0
 71
     1
  0
GROUP
  5
324
102
{ACAD_REACTORS
330
D
102
}
330
D
100
AcDbGroup
300
V11:79:********
 70
     0
 71
     1
  0
GROUP
  5
329
102
{ACAD_REACTORS
330
D
102
}
330
D
100
AcDbGroup
300
V11:80:********
 70
     0
 71
     1
  0
GROUP
  5
32A
102
{ACAD_REACTORS
330
D
102
}
330
D
100
AcDbGroup
300
V11:81:********
 70
     0
 71
     1
  0
GROUP
  5
338
102
{ACAD_REACTORS
330
D
102
}
330
D
100
AcDbGroup
300
V11:84:********
 70
     0
 71
     1
  0
GROUP
  5
33F
102
{ACAD_REACTORS
330
D
102
}
330
D
100
AcDbGroup
300
V11:85:********
 70
     0
 71
     1
  0
GROUP
  5
340
102
{ACAD_REACTORS
330
D
102
}
330
D
100
AcDbGroup
300
V11:86:********
 70
     0
 71
     1
  0
GROUP
  5
341
102
{ACAD_REACTORS
330
D
102
}
330
D
100
AcDbGroup
300
V11:87:********
 70
     0
 71
     1
  0
GROUP
  5
342
102
{ACAD_REACTORS
330
D
102
}
330
D
100
AcDbGroup
300
V11:88:********
 70
     0
 71
     1
  0
GROUP
  5
343
102
{ACAD_REACTORS
330
D
102
}
330
D
100
AcDbGroup
300
V11:89:********
 70
     0
 71
     1
  0
GROUP
  5
344
102
{ACAD_REACTORS
330
D
102
}
330
D
100
AcDbGroup
300
V11:90:********
 70
     0
 71
     1
  0
GROUP
  5
346
102
{ACAD_REACTORS
330
D
102
}
330
D
100
AcDbGroup
300
V11:91:********
 70
     0
 71
     1
  0
GROUP
  5
356
102
{ACAD_REACTORS
330
D
102
}
330
D
100
AcDbGroup
300
V11:93:********
 70
     0
 71
     1
  0
GROUP
  5
359
102
{ACAD_REACTORS
330
D
102
}
330
D
100
AcDbGroup
300
V11:94:********
 70
     0
 71
     1
  0
GROUP
  5
35C
102
{ACAD_REACTORS
330
D
102
}
330
D
100
AcDbGroup
300
V11:95:********
 70
     0
 71
     1
  0
GROUP
  5
35F
102
{ACAD_REACTORS
330
D
102
}
330
D
100
AcDbGroup
300
V11:96:********
 70
     0
 71
     1
  0
GROUP
  5
364
102
{ACAD_REACTORS
330
D
102
}
330
D
100
AcDbGroup
300
V11:97:********
 70
     0
 71
     1
  0
GROUP
  5
369
102
{ACAD_REACTORS
330
D
102
}
330
D
100
AcDbGroup
300
V11:98:********
 70
     0
 71
     1
  0
GROUP
  5
373
102
{ACAD_REACTORS
330
D
102
}
330
D
100
AcDbGroup
300
V11:99:********
 70
     0
 71
     1
  0
GROUP
  5
386
102
{ACAD_REACTORS
330
D
102
}
330
D
100
AcDbGroup
300
V11:100:********
 70
     0
 71
     1
  0
GROUP
  5
394
102
{ACAD_REACTORS
330
D
102
}
330
D
100
AcDbGroup
300
V11:102:********
 70
     0
 71
     1
  0
GROUP
  5
39E
102
{ACAD_REACTORS
330
D
102
}
330
D
100
AcDbGroup
300
V11:103:********
 70
     0
 71
     1
  0
GROUP
  5
3BA
102
{ACAD_REACTORS
330
D
102
}
330
D
100
AcDbGroup
300
V11:107:********
 70
     0
 71
     1
  0
GROUP
  5
3C4
102
{ACAD_REACTORS
330
D
102
}
330
D
100
AcDbGroup
300
V11:108:********
 70
     0
 71
     1
  0
GROUP
  5
3D9
102
{ACAD_REACTORS
330
D
102
}
330
D
100
AcDbGroup
300
V11:111:********
 70
     0
 71
     1
  0
GROUP
  5
3E3
102
{ACAD_REACTORS
330
D
102
}
330
D
100
AcDbGroup
300
V11:112:********
 70
     0
 71
     1
  0
GROUP
  5
3E5
102
{ACAD_REACTORS
330
D
102
}
330
D
100
AcDbGroup
300
V11:113:********
 70
     0
 71
     1
  0
LAYOUT
  5
11E4
102
{ACAD_XDICTIONARY
360
173E
102
}
102
{ACAD_REACTORS
330
11E1
102
}
330
11E1
100
AcDbPlotSettings
  1

  2
RICOH Aficio MP W2400 RPCS
  4

  6

 40
0.0
 41
0.0
 42
0.0
 43
0.0
 44
0.0
 45
0.0
 46
0.0
 47
0.0
 48
0.0
 49
0.0
140
0.0
141
0.0
142
1.0
143
1.0
 70
   688
 72
     0
 73
     0
 74
     5
  7
HP_Farbe_Dünn.ctb
 75
    16
147
1.0
148
0.0
149
0.0
100
AcDbLayout
  1
Layout1
 70
     1
 71
     1
 10
0.0
 20
0.0
 11
12.0
 21
9.0
 12
0.0
 22
0.0
 32
0.0
 14
1.000000000000000E+20
 24
1.000000000000000E+20
 34
1.000000000000000E+20
 15
-1.000000000000000E+20
 25
-1.000000000000000E+20
 35
-1.000000000000000E+20
146
0.0
 13
0.0
 23
0.0
 33
0.0
 16
1.0
 26
0.0
 36
0.0
 17
0.0
 27
1.0
 37
0.0
 76
     0
330
16
  0
LAYOUT
  5
11E3
102
{ACAD_XDICTIONARY
360
173C
102
}
102
{ACAD_REACTORS
330
11E1
102
}
330
11E1
100
AcDbPlotSettings
  1

  2
RICOH Aficio MP W2400 RPCS
  4
A4
  6

 40
5.027082920074462
 41
5.027099609375
 42
5.027069091796875
 43
5.027069091796875
 44
209.9733276367187
 45
296.9259948730469
 46
0.0
 47
0.0
 48
0.0
 49
0.0
140
0.0
141
0.0
142
1.0
143
141.9841822366534
 70
 11952
 72
     0
 73
     1
 74
     0
  7
HP_Farbe_Dünn.ctb
 75
     0
147
0.0070430380641503
148
12838.88647693146
149
6965.067158284298
100
AcDbLayout
  1
Model
 70
     1
 71
     0
 10
0.0
 20
0.0
 11
12.0
 21
9.0
 12
0.0
 22
0.0
 32
0.0
 14
0.0
 24
0.0
 34
0.0
 15
0.0
 25
0.0
 35
0.0
146
0.0
 13
0.0
 23
0.0
 33
0.0
 16
1.0
 26
0.0
 36
0.0
 17
0.0
 27
1.0
 37
0.0
 76
     0
330
19
331
1189
1001
ACAD_PSEXT
1000
RICOH Aficio MP W2400 RPCS
1000
RICOH Aficio MP W2400 RPCS
1000
192.168.49.64
1000

1070
     0
  0
MATERIAL
  5
1196
102
{ACAD_XDICTIONARY
360
1197
102
}
102
{ACAD_REACTORS
330
118D
102
}
330
118D
100
AcDbMaterial
  1
ByBlock
 72
     0
 43
0.0208333333333333
 43
0.0
 43
0.0
 43
0.0
 43
0.0
 43
0.0208333333333333
 43
0.0
 43
0.0
 43
0.0
 43
0.0
 43
1.0
 43
0.0
 43
0.0
 43
0.0
 43
0.0
 43
1.0
 77
     0
 47
0.0208333333333333
 47
0.0
 47
0.0
 47
0.0
 47
0.0
 47
0.0208333333333333
 47
0.0
 47
0.0
 47
0.0
 47
0.0
 47
1.0
 47
0.0
 47
0.0
 47
0.0
 47
0.0
 47
1.0
171
     0
 49
0.0208333333333333
 49
0.0
 49
0.0
 49
0.0
 49
0.0
 49
0.0208333333333333
 49
0.0
 49
0.0
 49
0.0
 49
0.0
 49
1.0
 49
0.0
 49
0.0
 49
0.0
 49
0.0
 49
1.0
175
     0
142
0.0208333333333333
142
0.0
142
0.0
142
0.0
142
0.0
142
0.0208333333333333
142
0.0
142
0.0
142
0.0
142
0.0
142
1.0
142
0.0
142
0.0
142
0.0
142
0.0
142
1.0
179
     0
144
0.0208333333333333
144
0.0
144
0.0
144
0.0
144
0.0
144
0.0208333333333333
144
0.0
144
0.0
144
0.0
144
0.0
144
1.0
144
0.0
144
0.0
144
0.0
144
0.0
144
1.0
147
0.0208333333333333
147
0.0
147
0.0
147
0.0
147
0.0
147
0.0208333333333333
147
0.0
147
0.0
147
0.0
147
0.0
147
1.0
147
0.0
147
0.0
147
0.0
147
0.0
147
1.0
  0
MATERIAL
  5
118E
102
{ACAD_XDICTIONARY
360
118F
102
}
102
{ACAD_REACTORS
330
118D
102
}
330
118D
100
AcDbMaterial
  1
ByLayer
 72
     0
 43
0.0208333333333333
 43
0.0
 43
0.0
 43
0.0
 43
0.0
 43
0.0208333333333333
 43
0.0
 43
0.0
 43
0.0
 43
0.0
 43
1.0
 43
0.0
 43
0.0
 43
0.0
 43
0.0
 43
1.0
 77
     0
 47
0.0208333333333333
 47
0.0
 47
0.0
 47
0.0
 47
0.0
 47
0.0208333333333333
 47
0.0
 47
0.0
 47
0.0
 47
0.0
 47
1.0
 47
0.0
 47
0.0
 47
0.0
 47
0.0
 47
1.0
171
     0
 49
0.0208333333333333
 49
0.0
 49
0.0
 49
0.0
 49
0.0
 49
0.0208333333333333
 49
0.0
 49
0.0
 49
0.0
 49
0.0
 49
1.0
 49
0.0
 49
0.0
 49
0.0
 49
0.0
 49
1.0
175
     0
142
0.0208333333333333
142
0.0
142
0.0
142
0.0
142
0.0
142
0.0208333333333333
142
0.0
142
0.0
142
0.0
142
0.0
142
1.0
142
0.0
142
0.0
142
0.0
142
0.0
142
1.0
179
     0
144
0.0208333333333333
144
0.0
144
0.0
144
0.0
144
0.0
144
0.0208333333333333
144
0.0
144
0.0
144
0.0
144
0.0
144
1.0
144
0.0
144
0.0
144
0.0
144
0.0
144
1.0
147
0.0208333333333333
147
0.0
147
0.0
147
0.0
147
0.0
147
0.0208333333333333
147
0.0
147
0.0
147
0.0
147
0.0
147
1.0
147
0.0
147
0.0
147
0.0
147
0.0
147
1.0
  0
MATERIAL
  5
119E
102
{ACAD_XDICTIONARY
360
119F
102
}
102
{ACAD_REACTORS
330
118D
102
}
330
118D
100
AcDbMaterial
  1
Global
 72
     0
 43
0.0208333333333333
 43
0.0
 43
0.0
 43
0.0
 43
0.0
 43
0.0208333333333333
 43
0.0
 43
0.0
 43
0.0
 43
0.0
 43
1.0
 43
0.0
 43
0.0
 43
0.0
 43
0.0
 43
1.0
 77
     0
 47
0.0208333333333333
 47
0.0
 47
0.0
 47
0.0
 47
0.0
 47
0.0208333333333333
 47
0.0
 47
0.0
 47
0.0
 47
0.0
 47
1.0
 47
0.0
 47
0.0
 47
0.0
 47
0.0
 47
1.0
171
     0
 49
0.0208333333333333
 49
0.0
 49
0.0
 49
0.0
 49
0.0
 49
0.0208333333333333
 49
0.0
 49
0.0
 49
0.0
 49
0.0
 49
1.0
 49
0.0
 49
0.0
 49
0.0
 49
0.0
 49
1.0
175
     0
142
0.0208333333333333
142
0.0
142
0.0
142
0.0
142
0.0
142
0.0208333333333333
142
0.0
142
0.0
142
0.0
142
0.0
142
1.0
142
0.0
142
0.0
142
0.0
142
0.0
142
1.0
179
     0
144
0.0208333333333333
144
0.0
144
0.0
144
0.0
144
0.0
144
0.0208333333333333
144
0.0
144
0.0
144
0.0
144
0.0
144
1.0
144
0.0
144
0.0
144
0.0
144
0.0
144
1.0
147
0.0208333333333333
147
0.0
147
0.0
147
0.0
147
0.0
147
0.0208333333333333
147
0.0
147
0.0
147
0.0
147
0.0
147
1.0
147
0.0
147
0.0
147
0.0
147
0.0
147
1.0
  0
MLEADERSTYLE
  5
11E0
102
{ACAD_REACTORS
330
11DF
102
}
330
11DF
100
AcDbMLeaderStyle
170
     2
171
     1
172
     0
 90
        2
 40
0.0
 41
0.0
173
     1
 91
-1056964608
340
13
 92
       -2
290
     1
 42
0.09
291
     1
 43
0.36
  3
Standard
 44
0.18
300

342
10
174
     1
178
     6
175
     1
176
     0
 93
-1056964608
 45
0.18
292
     0
297
     0
 46
0.18
 94
-1056964608
 47
1.0
 49
1.0
140
1.0
293
     1
141
0.0
294
     1
177
     0
142
1.0
295
     0
296
     0
143
0.125
1001
ACAD_MLEADERVER
1070
     2
  0
MLINESTYLE
  5
1C
102
{ACAD_REACTORS
330
E
102
}
330
E
100
AcDbMlineStyle
  2
STANDARD
 70
     0
  3

 62
     0
 51
90.0
 52
90.0
 71
     2
 49
0.5
 62
   256
  6
BYLAYER
 49
-0.5
 62
   256
  6
BYLAYER
  0
PDFDEFINITION
  5
16D4
102
{ACAD_REACTORS
330
12E7
330
16D5
102
}
330
12E7
100
AcDbUnderlayDefinition
  1
F:\User\Daten\DWG\nc2\nc29\2901844.pdf
  2
1
  0
PDFDEFINITION
  5
12E9
102
{ACAD_REACTORS
330
12E7
330
142C
102
}
330
12E7
100
AcDbUnderlayDefinition
  1
F:\User\Daten\DWG\Anw\RN\NEUE KATALOGZG\Interzoll Modul\NEUE NC2-KatalogZG\86542710_RP_M_Rastprofil.pdf
  2
1
  0
ACDBPLACEHOLDER
  5
118C
102
{ACAD_REACTORS
330
118B
102
}
330
118B
  0
SCALE
  5
11BE
102
{ACAD_REACTORS
330
11BD
102
}
330
11BD
100
AcDbScale
 70
     0
300
1:1
140
1.0
141
1.0
290
     1
  0
SCALE
  5
11BF
102
{ACAD_REACTORS
330
11BD
102
}
330
11BD
100
AcDbScale
 70
     0
300
1:2
140
1.0
141
2.0
290
     0
  0
SCALE
  5
11C0
102
{ACAD_REACTORS
330
11BD
102
}
330
11BD
100
AcDbScale
 70
     0
300
1:4
140
1.0
141
4.0
290
     0
  0
SCALE
  5
11C1
102
{ACAD_REACTORS
330
11BD
102
}
330
11BD
100
AcDbScale
 70
     0
300
1:5
140
1.0
141
5.0
290
     0
  0
SCALE
  5
11C2
102
{ACAD_REACTORS
330
11BD
102
}
330
11BD
100
AcDbScale
 70
     0
300
1:8
140
1.0
141
8.0
290
     0
  0
SCALE
  5
11C3
102
{ACAD_REACTORS
330
11BD
102
}
330
11BD
100
AcDbScale
 70
     0
300
1:10
140
1.0
141
10.0
290
     0
  0
SCALE
  5
11C4
102
{ACAD_REACTORS
330
11BD
102
}
330
11BD
100
AcDbScale
 70
     0
300
1:16
140
1.0
141
16.0
290
     0
  0
SCALE
  5
11C5
102
{ACAD_REACTORS
330
11BD
102
}
330
11BD
100
AcDbScale
 70
     0
300
1:20
140
1.0
141
20.0
290
     0
  0
SCALE
  5
11C6
102
{ACAD_REACTORS
330
11BD
102
}
330
11BD
100
AcDbScale
 70
     0
300
1:30
140
1.0
141
30.0
290
     0
  0
SCALE
  5
11C7
102
{ACAD_REACTORS
330
11BD
102
}
330
11BD
100
AcDbScale
 70
     0
300
1:40
140
1.0
141
40.0
290
     0
  0
SCALE
  5
11C8
102
{ACAD_REACTORS
330
11BD
102
}
330
11BD
100
AcDbScale
 70
     0
300
1:50
140
1.0
141
50.0
290
     0
  0
SCALE
  5
11C9
102
{ACAD_REACTORS
330
11BD
102
}
330
11BD
100
AcDbScale
 70
     0
300
1:100
140
1.0
141
100.0
290
     0
  0
SCALE
  5
11CA
102
{ACAD_REACTORS
330
11BD
102
}
330
11BD
100
AcDbScale
 70
     0
300
2:1
140
2.0
141
1.0
290
     0
  0
SCALE
  5
11CB
102
{ACAD_REACTORS
330
11BD
102
}
330
11BD
100
AcDbScale
 70
     0
300
4:1
140
4.0
141
1.0
290
     0
  0
SCALE
  5
11CC
102
{ACAD_REACTORS
330
11BD
102
}
330
11BD
100
AcDbScale
 70
     0
300
8:1
140
8.0
141
1.0
290
     0
  0
SCALE
  5
11CD
102
{ACAD_REACTORS
330
11BD
102
}
330
11BD
100
AcDbScale
 70
     0
300
10:1
140
10.0
141
1.0
290
     0
  0
SCALE
  5
11CE
102
{ACAD_REACTORS
330
11BD
102
}
330
11BD
100
AcDbScale
 70
     0
300
100:1
140
100.0
141
1.0
290
     0
  0
SCALE
  5
11CF
102
{ACAD_REACTORS
330
11BD
102
}
330
11BD
100
AcDbScale
 70
     0
300
1/128" = 1'-0"
140
0.0078125
141
12.0
290
     0
  0
SCALE
  5
11D0
102
{ACAD_REACTORS
330
11BD
102
}
330
11BD
100
AcDbScale
 70
     0
300
1/64" = 1'-0"
140
0.015625
141
12.0
290
     0
  0
SCALE
  5
11D1
102
{ACAD_REACTORS
330
11BD
102
}
330
11BD
100
AcDbScale
 70
     0
300
1/32" = 1'-0"
140
0.03125
141
12.0
290
     0
  0
SCALE
  5
11D2
102
{ACAD_REACTORS
330
11BD
102
}
330
11BD
100
AcDbScale
 70
     0
300
1/16" = 1'-0"
140
0.0625
141
12.0
290
     0
  0
SCALE
  5
11D3
102
{ACAD_REACTORS
330
11BD
102
}
330
11BD
100
AcDbScale
 70
     0
300
3/32" = 1'-0"
140
0.09375
141
12.0
290
     0
  0
SCALE
  5
11D4
102
{ACAD_REACTORS
330
11BD
102
}
330
11BD
100
AcDbScale
 70
     0
300
1/8" = 1'-0"
140
0.125
141
12.0
290
     0
  0
SCALE
  5
11D5
102
{ACAD_REACTORS
330
11BD
102
}
330
11BD
100
AcDbScale
 70
     0
300
3/16" = 1'-0"
140
0.1875
141
12.0
290
     0
  0
SCALE
  5
11D6
102
{ACAD_REACTORS
330
11BD
102
}
330
11BD
100
AcDbScale
 70
     0
300
1/4" = 1'-0"
140
0.25
141
12.0
290
     0
  0
SCALE
  5
11D7
102
{ACAD_REACTORS
330
11BD
102
}
330
11BD
100
AcDbScale
 70
     0
300
3/8" = 1'-0"
140
0.375
141
12.0
290
     0
  0
SCALE
  5
11D8
102
{ACAD_REACTORS
330
11BD
102
}
330
11BD
100
AcDbScale
 70
     0
300
1/2" = 1'-0"
140
0.5
141
12.0
290
     0
  0
SCALE
  5
11D9
102
{ACAD_REACTORS
330
11BD
102
}
330
11BD
100
AcDbScale
 70
     0
300
3/4" = 1'-0"
140
0.75
141
12.0
290
     0
  0
SCALE
  5
11DA
102
{ACAD_REACTORS
330
11BD
102
}
330
11BD
100
AcDbScale
 70
     0
300
1" = 1'-0"
140
1.0
141
12.0
290
     0
  0
SCALE
  5
11DB
102
{ACAD_REACTORS
330
11BD
102
}
330
11BD
100
AcDbScale
 70
     0
300
1-1/2" = 1'-0"
140
1.5
141
12.0
290
     0
  0
SCALE
  5
11DC
102
{ACAD_REACTORS
330
11BD
102
}
330
11BD
100
AcDbScale
 70
     0
300
3" = 1'-0"
140
3.0
141
12.0
290
     0
  0
SCALE
  5
11DD
102
{ACAD_REACTORS
330
11BD
102
}
330
11BD
100
AcDbScale
 70
     0
300
6" = 1'-0"
140
6.0
141
12.0
290
     0
  0
SCALE
  5
11DE
102
{ACAD_REACTORS
330
11BD
102
}
330
11BD
100
AcDbScale
 70
     0
300
1'-0" = 1'-0"
140
12.0
141
12.0
290
     0
  0
TABLESTYLE
  5
11BC
102
{ACAD_XDICTIONARY
360
1338
102
}
102
{ACAD_REACTORS
330
11BB
102
}
330
11BB
100
AcDbTableStyle
  3
Standard
 70
     0
 71
     0
 40
0.06
 41
0.06
280
     0
281
     0
  7
STANDARD
140
0.18
170
     2
 62
     0
 63
     7
283
     0
274
    -2
284
     1
 64
     0
275
    -2
285
     1
 65
     0
276
    -2
286
     1
 66
     0
277
    -2
287
     1
 67
     0
278
    -2
288
     1
 68
     0
279
    -2
289
     1
 69
     0
  7
STANDARD
140
0.25
170
     5
 62
     0
 63
     7
283
     0
274
    -2
284
     1
 64
     0
275
    -2
285
     1
 65
     0
276
    -2
286
     1
 66
     0
277
    -2
287
     1
 67
     0
278
    -2
288
     1
 68
     0
279
    -2
289
     1
 69
     0
  7
STANDARD
140
0.18
170
     5
 62
     0
 63
     7
283
     0
274
    -2
284
     1
 64
     0
275
    -2
285
     1
 65
     0
276
    -2
286
     1
 66
     0
277
    -2
287
     1
 67
     0
278
    -2
288
     1
 68
     0
279
    -2
289
     1
 69
     0
  0
VISUALSTYLE
  5
11AC
102
{ACAD_XDICTIONARY
360
171F
102
}
102
{ACAD_REACTORS
330
11A6
102
}
330
11A6
100
AcDbVisualStyle
  2
2dWireframe
 70
     4
 71
     0
 72
     2
 73
     0
 90
        0
 40
-0.6
 41
-30.0
 62
     5
 63
     7
 74
     1
 91
        4
 64
     7
 65
   257
 75
     1
175
     1
 42
1.0
 92
        0
 66
   257
 43
1.0
 76
     1
 77
     6
 78
     2
 67
     7
 79
     5
170
     0
171
     0
290
     0
174
     0
 93
        1
 44
0.0
173
     0
291
     0
 45
0.0
1001
ACAD
1000
AcDbSavedByObjectVersion
1070
     0
  0
VISUALSTYLE
  5
11AE
102
{ACAD_XDICTIONARY
360
1723
102
}
102
{ACAD_REACTORS
330
11A6
102
}
330
11A6
100
AcDbVisualStyle
  2
3D Hidden
 70
     6
 71
     1
 72
     2
 73
     2
 90
        0
 40
-0.6
 41
-30.0
 62
     5
 63
     7
 74
     2
 91
        2
 64
     7
 65
   257
 75
     2
175
     1
 42
179.0
 92
        0
 66
   257
 43
1.0
 76
     1
 77
     6
 78
     2
 67
     7
 79
     3
170
     0
171
     0
290
     0
174
     0
 93
        1
 44
0.0
173
     0
291
     0
 45
0.0
1001
ACAD
1000
AcDbSavedByObjectVersion
1070
     0
  0
VISUALSTYLE
  5
11AD
102
{ACAD_XDICTIONARY
360
1721
102
}
102
{ACAD_REACTORS
330
11A6
102
}
330
11A6
100
AcDbVisualStyle
  2
3dWireframe
 70
     5
 71
     0
 72
     2
 73
     0
 90
        0
 40
-0.6
 41
-30.0
 62
     5
 63
     7
 74
     1
 91
        4
 64
     7
 65
   257
 75
     1
175
     1
 42
1.0
 92
        0
 66
   257
 43
1.0
 76
     1
 77
     6
 78
     2
 67
     7
 79
     5
170
     0
171
     0
290
     0
174
     0
 93
        1
 44
0.0
173
     0
291
     0
 45
0.0
1001
ACAD
1000
AcDbSavedByObjectVersion
1070
     0
  0
VISUALSTYLE
  5
11AB
102
{ACAD_XDICTIONARY
360
171D
102
}
102
{ACAD_REACTORS
330
11A6
102
}
330
11A6
100
AcDbVisualStyle
  2
Basic
 70
     7
 71
     1
 72
     0
 73
     1
 90
        0
 40
-0.6
 41
-30.0
 62
     5
 63
     7
 74
     0
 91
        4
 64
     7
 65
   257
 75
     1
175
     1
 42
1.0
 92
        8
 66
     7
 43
1.0
 76
     1
 77
     6
 78
     2
 67
     7
 79
     5
170
     0
171
     0
290
     0
174
     0
 93
        1
 44
0.0
173
     0
291
     1
 45
0.0
1001
ACAD
1000
AcDbSavedByObjectVersion
1070
     0
  0
VISUALSTYLE
  5
11B2
102
{ACAD_XDICTIONARY
360
172B
102
}
102
{ACAD_REACTORS
330
11A6
102
}
330
11A6
100
AcDbVisualStyle
  2
Brighten
 70
    12
 71
     2
 72
     2
 73
     0
 90
        0
 40
-0.6
 41
-30.0
 62
     5
 63
     7
 74
     1
 91
        4
 64
     7
 65
   257
 75
     1
175
     1
 42
1.0
 92
        8
 66
     7
 43
1.0
 76
     1
 77
     6
 78
     2
 67
     7
 79
     5
170
     0
171
     0
290
     0
174
     0
 93
        1
 44
50.0
173
     0
291
     1
 45
0.0
1001
ACAD
1000
AcDbSavedByObjectVersion
1070
     0
  0
VISUALSTYLE
  5
11B6
102
{ACAD_XDICTIONARY
360
1733
102
}
102
{ACAD_REACTORS
330
11A6
102
}
330
11A6
100
AcDbVisualStyle
  2
ColorChange
 70
    16
 71
     2
 72
     2
 73
     3
 90
        0
 40
-0.6
 41
-30.0
 62
     5
 63
     8
 74
     1
 91
        4
 64
     7
 65
   257
 75
     1
175
     1
 42
1.0
 92
        8
 66
     8
 43
1.0
 76
     1
 77
     6
 78
     2
 67
     7
 79
     5
170
     0
171
     0
290
     0
174
     0
 93
        1
 44
0.0
173
     0
291
     1
 45
0.0
1001
ACAD
1000
AcDbSavedByObjectVersion
1070
     0
  0
VISUALSTYLE
  5
11AF
102
{ACAD_XDICTIONARY
360
1725
102
}
102
{ACAD_REACTORS
330
11A6
102
}
330
11A6
100
AcDbVisualStyle
  2
Conceptual
 70
     9
 71
     3
 72
     2
 73
     0
 90
        0
 40
-0.6
 41
-30.0
 62
     5
 63
     7
 74
     2
 91
        2
 64
     7
 65
   257
 75
     1
175
     1
 42
179.0
 92
        8
 66
     7
 43
1.0
 76
     1
 77
     6
 78
     2
 67
     7
 79
     3
170
     0
171
     0
290
     0
174
     0
 93
        1
 44
0.0
173
     0
291
     0
 45
0.0
1001
ACAD
1000
AcDbSavedByObjectVersion
1070
     0
  0
VISUALSTYLE
  5
11B1
102
{ACAD_XDICTIONARY
360
1729
102
}
102
{ACAD_REACTORS
330
11A6
102
}
330
11A6
100
AcDbVisualStyle
  2
Dim
 70
    11
 71
     2
 72
     2
 73
     0
 90
        0
 40
-0.6
 41
-30.0
 62
     5
 63
     7
 74
     1
 91
        4
 64
     7
 65
   257
 75
     1
175
     1
 42
1.0
 92
        8
 66
     7
 43
1.0
 76
     1
 77
     6
 78
     2
 67
     7
 79
     5
170
     0
171
     0
290
     0
174
     0
 93
        1
 44
-50.0
173
     0
291
     1
 45
0.0
1001
ACAD
1000
AcDbSavedByObjectVersion
1070
     0
  0
VISUALSTYLE
  5
11B9
102
{ACAD_XDICTIONARY
360
1739
102
}
102
{ACAD_REACTORS
330
11A6
102
}
330
11A6
100
AcDbVisualStyle
  2
EdgeColorOff
 70
    22
 71
     2
 72
     2
 73
     0
 90
        0
 40
-0.6
 41
-30.0
 62
     5
 63
     7
 74
     1
 91
        4
 64
     7
 65
   257
 75
     1
175
     1
 42
1.0
 92
        8
 66
     7
 43
1.0
 76
     1
 77
     6
 78
     2
 67
     7
 79
     5
170
     0
171
     0
290
     0
174
     0
 93
        1
 44
0.0
173
     0
291
     1
 45
0.0
1001
ACAD
1000
AcDbSavedByObjectVersion
1070
     0
  0
VISUALSTYLE
  5
11B5
102
{ACAD_XDICTIONARY
360
1731
102
}
102
{ACAD_REACTORS
330
11A6
102
}
330
11A6
100
AcDbVisualStyle
  2
Facepattern
 70
    15
 71
     2
 72
     2
 73
     0
 90
        0
 40
-0.6
 41
-30.0
 62
     5
 63
     7
 74
     1
 91
        4
 64
     7
 65
   257
 75
     1
175
     1
 42
1.0
 92
        8
 66
     7
 43
1.0
 76
     1
 77
     6
 78
     2
 67
     7
 79
     5
170
     0
171
     0
290
     0
174
     0
 93
        1
 44
0.0
173
     0
291
     1
 45
0.0
1001
ACAD
1000
AcDbSavedByObjectVersion
1070
     0
  0
VISUALSTYLE
  5
11A7
102
{ACAD_XDICTIONARY
360
1715
102
}
102
{ACAD_REACTORS
330
11A6
102
}
330
11A6
100
AcDbVisualStyle
  2
Flat
 70
     0
 71
     2
 72
     1
 73
     1
 90
        2
 40
-0.6
 41
30.0
 62
     5
 63
     7
 74
     0
 91
        4
 64
     7
 65
   257
 75
     1
175
     1
 42
1.0
 92
        8
 66
     7
 43
1.0
 76
     1
 77
     6
 78
     2
 67
     7
 79
     5
170
     0
171
     0
290
     0
174
     0
 93
       13
 44
0.0
173
     0
291
     1
 45
0.0
1001
ACAD
1000
AcDbSavedByObjectVersion
1070
     0
  0
VISUALSTYLE
  5
11A8
102
{ACAD_XDICTIONARY
360
1717
102
}
102
{ACAD_REACTORS
330
11A6
102
}
330
11A6
100
AcDbVisualStyle
  2
FlatWithEdges
 70
     1
 71
     2
 72
     1
 73
     1
 90
        2
 40
-0.6
 41
30.0
 62
     5
 63
     7
 74
     1
 91
        4
 64
     7
 65
   257
 75
     1
175
     1
 42
1.0
 92
        0
 66
   257
 43
1.0
 76
     1
 77
     6
 78
     2
 67
     7
 79
     5
170
     0
171
     0
290
     0
174
     0
 93
       13
 44
0.0
173
     0
291
     1
 45
0.0
1001
ACAD
1000
AcDbSavedByObjectVersion
1070
     0
  0
VISUALSTYLE
  5
11A9
102
{ACAD_XDICTIONARY
360
1719
102
}
102
{ACAD_REACTORS
330
11A6
102
}
330
11A6
100
AcDbVisualStyle
  2
Gouraud
 70
     2
 71
     2
 72
     2
 73
     1
 90
        2
 40
-0.6
 41
30.0
 62
     5
 63
     7
 74
     0
 91
        4
 64
     7
 65
   257
 75
     1
175
     1
 42
1.0
 92
        0
 66
     7
 43
1.0
 76
     1
 77
     6
 78
     2
 67
     7
 79
     5
170
     0
171
     0
290
     0
174
     0
 93
       13
 44
0.0
173
     0
291
     1
 45
0.0
1001
ACAD
1000
AcDbSavedByObjectVersion
1070
     0
  0
VISUALSTYLE
  5
11AA
102
{ACAD_XDICTIONARY
360
171B
102
}
102
{ACAD_REACTORS
330
11A6
102
}
330
11A6
100
AcDbVisualStyle
  2
GouraudWithEdges
 70
     3
 71
     2
 72
     2
 73
     1
 90
        2
 40
-0.6
 41
30.0
 62
     5
 63
     7
 74
     1
 91
        4
 64
     7
 65
   257
 75
     1
175
     1
 42
1.0
 92
        0
 66
   257
 43
1.0
 76
     1
 77
     6
 78
     2
 67
     7
 79
     5
170
     0
171
     0
290
     0
174
     0
 93
       13
 44
0.0
173
     0
291
     1
 45
0.0
1001
ACAD
1000
AcDbSavedByObjectVersion
1070
     0
  0
VISUALSTYLE
  5
11B7
102
{ACAD_XDICTIONARY
360
1735
102
}
102
{ACAD_REACTORS
330
11A6
102
}
330
11A6
100
AcDbVisualStyle
  2
JitterOff
 70
    20
 71
     2
 72
     2
 73
     0
 90
        0
 40
-0.6
 41
-30.0
 62
     5
 63
     7
 74
     1
 91
        4
 64
     7
 65
   257
 75
     1
175
     1
 42
1.0
 92
       10
 66
     7
 43
1.0
 76
     1
 77
     6
 78
     2
 67
     7
 79
     5
170
     0
171
     0
290
     0
174
     0
 93
        1
 44
0.0
173
     0
291
     1
 45
0.0
1001
ACAD
1000
AcDbSavedByObjectVersion
1070
     0
  0
VISUALSTYLE
  5
11B4
102
{ACAD_XDICTIONARY
360
172F
102
}
102
{ACAD_REACTORS
330
11A6
102
}
330
11A6
100
AcDbVisualStyle
  2
Linepattern
 70
    14
 71
     2
 72
     2
 73
     0
 90
        0
 40
-0.6
 41
-30.0
 62
     5
 63
     7
 74
     1
 91
        4
 64
     7
 65
   257
 75
     7
175
     7
 42
1.0
 92
        8
 66
     7
 43
1.0
 76
     1
 77
     6
 78
     2
 67
     7
 79
     5
170
     0
171
     0
290
     0
174
     0
 93
        1
 44
0.0
173
     0
291
     1
 45
0.0
1001
ACAD
1000
AcDbSavedByObjectVersion
1070
     0
  0
VISUALSTYLE
  5
11B8
102
{ACAD_XDICTIONARY
360
1737
102
}
102
{ACAD_REACTORS
330
11A6
102
}
330
11A6
100
AcDbVisualStyle
  2
OverhangOff
 70
    21
 71
     2
 72
     2
 73
     0
 90
        0
 40
-0.6
 41
-30.0
 62
     5
 63
     7
 74
     1
 91
        4
 64
     7
 65
   257
 75
     1
175
     1
 42
1.0
 92
        9
 66
     7
 43
1.0
 76
     1
 77
     6
 78
     2
 67
     7
 79
     5
170
     0
171
     0
290
     0
174
     0
 93
        1
 44
0.0
173
     0
291
     1
 45
0.0
1001
ACAD
1000
AcDbSavedByObjectVersion
1070
     0
  0
VISUALSTYLE
  5
11B0
102
{ACAD_XDICTIONARY
360
1727
102
}
102
{ACAD_REACTORS
330
11A6
102
}
330
11A6
100
AcDbVisualStyle
  2
Realistic
 70
     8
 71
     2
 72
     2
 73
     0
 90
        0
 40
-0.6
 41
-30.0
 62
     5
 63
     7
 74
     1
 91
        0
 64
     7
 65
   257
 75
     1
175
     1
 42
1.0
 92
        8
 66
     8
 43
1.0
 76
     1
 77
     6
 78
     2
 67
     7
 79
     5
170
     0
171
     0
290
     0
174
     0
 93
       13
 44
0.0
173
     0
291
     0
 45
0.0
1001
ACAD
1000
AcDbSavedByObjectVersion
1070
     0
  0
VISUALSTYLE
  5
11B3
102
{ACAD_XDICTIONARY
360
172D
102
}
102
{ACAD_REACTORS
330
11A6
102
}
330
11A6
100
AcDbVisualStyle
  2
Thicken
 70
    13
 71
     2
 72
     2
 73
     0
 90
        0
 40
-0.6
 41
-30.0
 62
     5
 63
     7
 74
     1
 91
        4
 64
     7
 65
   257
 75
     1
175
     1
 42
1.0
 92
       12
 66
     7
 43
1.0
 76
     1
 77
     6
 78
     2
 67
     7
 79
     5
170
     0
171
     0
290
     0
174
     0
 93
        1
 44
0.0
173
     0
291
     1
 45
0.0
1001
ACAD
1000
AcDbSavedByObjectVersion
1070
     0
  0
DICTIONARYVAR
  5
1372
102
{ACAD_REACTORS
330
136F
102
}
330
136F
100
DictionaryVariables
280
     0
  1
1:1
  0
DICTIONARYVAR
  5
1371
102
{ACAD_REACTORS
330
136F
102
}
330
136F
100
DictionaryVariables
280
     0
  1
STANDARD
  0
DICTIONARYVAR
  5
1370
102
{ACAD_REACTORS
330
136F
102
}
330
136F
100
DictionaryVariables
280
     0
  1
STANDARD
  0
DICTIONARYVAR
  5
1375
102
{ACAD_REACTORS
330
136F
102
}
330
136F
100
DictionaryVariables
280
     0
  1
1
  0
DICTIONARYVAR
  5
1374
102
{ACAD_REACTORS
330
136F
102
}
330
136F
100
DictionaryVariables
280
     0
  1
0
  0
DICTIONARYVAR
  5
1373
102
{ACAD_REACTORS
330
136F
102
}
330
136F
100
DictionaryVariables
280
     0
  1
127
  0
DICTIONARYVAR
  5
170C
102
{ACAD_REACTORS
330
136F
102
}
330
136F
100
DictionaryVariables
280
     0
  1
2
  0
XRECORD
  5
1620
102
{ACAD_REACTORS
330
161E
102
}
330
161E
100
AcDbXrecord
280
     1
330
1252
330
1260
330
1263
330
129B
330
1385
  0
DICTIONARY
  5
1253
102
{ACAD_REACTORS
330
6DB
102
}
330
6DB
100
AcDbDictionary
281
     1
  3
PH_GRPMEMBERS
350
1254
  0
DICTIONARY
  5
129E
102
{ACAD_REACTORS
330
6DB
102
}
330
6DB
100
AcDbDictionary
281
     1
  3
$PH$AAAA
350
129F
  3
PH_GRPMEMBERS
350
12A3
  0
DICTIONARY
  5
1386
102
{ACAD_REACTORS
330
6DB
102
}
330
6DB
100
AcDbDictionary
281
     1
  3
PH_GRPMEMBERS
350
1387
  0
DICTIONARY
  5
173E
330
11E4
100
AcDbDictionary
280
     1
281
     1
  3
ACAD_XREC_ROUNDTRIP
360
173F
  0
DICTIONARY
  5
173C
330
11E3
100
AcDbDictionary
280
     1
281
     1
  3
ACAD_XREC_ROUNDTRIP
360
173D
  0
DICTIONARY
  5
1197
330
1196
100
AcDbDictionary
280
     1
281
     1
  3
ACAD_XREC_ROUNDTRIP
360
1713
  3
BUMPTILE
360
1199
  3
DIFFUSETILE
360
1198
  3
OPACITYTILE
360
119C
  3
REFLECTIONTILE
360
119B
  3
REFRACTIONTILE
360
119D
  3
SPECULARTILE
360
119A
  0
DICTIONARY
  5
118F
330
118E
100
AcDbDictionary
280
     1
281
     1
  3
ACAD_XREC_ROUNDTRIP
360
1712
  3
BUMPTILE
360
1191
  3
DIFFUSETILE
360
1190
  3
OPACITYTILE
360
1194
  3
REFLECTIONTILE
360
1193
  3
REFRACTIONTILE
360
1195
  3
SPECULARTILE
360
1192
  0
DICTIONARY
  5
119F
330
119E
100
AcDbDictionary
280
     1
281
     1
  3
ACAD_XREC_ROUNDTRIP
360
1714
  3
BUMPTILE
360
11A1
  3
DIFFUSETILE
360
11A0
  3
OPACITYTILE
360
11A4
  3
REFLECTIONTILE
360
11A3
  3
REFRACTIONTILE
360
11A5
  3
SPECULARTILE
360
11A2
  0
DICTIONARY
  5
1338
330
11BC
100
AcDbDictionary
280
     1
281
     1
  3
ACAD_ROUNDTRIP_2008_TABLESTYLE_CELLSTYLEMAP
360
170D
  3
ACAD_XREC_ROUNDTRIP
360
173B
  0
DICTIONARY
  5
171F
330
11AC
100
AcDbDictionary
280
     1
281
     1
  3
ACAD_XREC_ROUNDTRIP
360
1720
  0
DICTIONARY
  5
1723
330
11AE
100
AcDbDictionary
280
     1
281
     1
  3
ACAD_XREC_ROUNDTRIP
360
1724
  0
DICTIONARY
  5
1721
330
11AD
100
AcDbDictionary
280
     1
281
     1
  3
ACAD_XREC_ROUNDTRIP
360
1722
  0
DICTIONARY
  5
171D
330
11AB
100
AcDbDictionary
280
     1
281
     1
  3
ACAD_XREC_ROUNDTRIP
360
171E
  0
DICTIONARY
  5
172B
330
11B2
100
AcDbDictionary
280
     1
281
     1
  3
ACAD_XREC_ROUNDTRIP
360
172C
  0
DICTIONARY
  5
1733
330
11B6
100
AcDbDictionary
280
     1
281
     1
  3
ACAD_XREC_ROUNDTRIP
360
1734
  0
DICTIONARY
  5
1725
330
11AF
100
AcDbDictionary
280
     1
281
     1
  3
ACAD_XREC_ROUNDTRIP
360
1726
  0
DICTIONARY
  5
1729
330
11B1
100
AcDbDictionary
280
     1
281
     1
  3
ACAD_XREC_ROUNDTRIP
360
172A
  0
DICTIONARY
  5
1739
330
11B9
100
AcDbDictionary
280
     1
281
     1
  3
ACAD_XREC_ROUNDTRIP
360
173A
  0
DICTIONARY
  5
1731
330
11B5
100
AcDbDictionary
280
     1
281
     1
  3
ACAD_XREC_ROUNDTRIP
360
1732
  0
DICTIONARY
  5
1715
330
11A7
100
AcDbDictionary
280
     1
281
     1
  3
ACAD_XREC_ROUNDTRIP
360
1716
  0
DICTIONARY
  5
1717
330
11A8
100
AcDbDictionary
280
     1
281
     1
  3
ACAD_XREC_ROUNDTRIP
360
1718
  0
DICTIONARY
  5
1719
330
11A9
100
AcDbDictionary
280
     1
281
     1
  3
ACAD_XREC_ROUNDTRIP
360
171A
  0
DICTIONARY
  5
171B
330
11AA
100
AcDbDictionary
280
     1
281
     1
  3
ACAD_XREC_ROUNDTRIP
360
171C
  0
DICTIONARY
  5
1735
330
11B7
100
AcDbDictionary
280
     1
281
     1
  3
ACAD_XREC_ROUNDTRIP
360
1736
  0
DICTIONARY
  5
172F
330
11B4
100
AcDbDictionary
280
     1
281
     1
  3
ACAD_XREC_ROUNDTRIP
360
1730
  0
DICTIONARY
  5
1737
330
11B8
100
AcDbDictionary
280
     1
281
     1
  3
ACAD_XREC_ROUNDTRIP
360
1738
  0
DICTIONARY
  5
1727
330
11B0
100
AcDbDictionary
280
     1
281
     1
  3
ACAD_XREC_ROUNDTRIP
360
1728
  0
DICTIONARY
  5
172D
330
11B3
100
AcDbDictionary
280
     1
281
     1
  3
ACAD_XREC_ROUNDTRIP
360
172E
  0
PH_GROUP
  5
1254
102
{ACAD_REACTORS
330
1253
102
}
330
1253
  0
DICTIONARY
  5
129F
102
{ACAD_REACTORS
330
129E
102
}
330
129E
100
AcDbDictionary
281
     1
  3
$PH$AAAA
350
12A0
  3
PH_GRPMEMBERS
350
12A2
  0
PH_GROUP
  5
12A3
102
{ACAD_REACTORS
330
129E
102
}
330
129E
  0
PH_GROUP
  5
1387
102
{ACAD_REACTORS
330
1386
102
}
330
1386
  0
XRECORD
  5
173F
102
{ACAD_REACTORS
330
173E
102
}
330
173E
100
AcDbXrecord
280
     1
102
SHADEPLOT
 70
     0
102
SHADEPLOTRESLEVEL
 70
     2
102
SHADEPLOTCUSTOMDPI
 70
   300
  0
XRECORD
  5
173D
102
{ACAD_REACTORS
330
173C
102
}
330
173C
100
AcDbXrecord
280
     1
102
SHADEPLOT
 70
     0
102
SHADEPLOTRESLEVEL
 70
     2
102
SHADEPLOTCUSTOMDPI
 70
   300
  0
XRECORD
  5
1713
102
{ACAD_REACTORS
330
1197
102
}
330
1197
100
AcDbXrecord
280
     1
102
MATERIAL
148
0.0
149
0.0
149
0.0
 93
        0
 94
      127
282
     0
 72
     0
 77
     0
171
     0
175
     0
179
     0
273
     0
  0
XRECORD
  5
1199
102
{ACAD_REACTORS
330
1197
102
}
330
1197
100
AcDbXrecord
280
     1
270
     1
271
     1
  0
XRECORD
  5
1198
102
{ACAD_REACTORS
330
1197
102
}
330
1197
100
AcDbXrecord
280
     1
270
     1
271
     1
  0
XRECORD
  5
119C
102
{ACAD_REACTORS
330
1197
102
}
330
1197
100
AcDbXrecord
280
     1
270
     1
271
     1
  0
XRECORD
  5
119B
102
{ACAD_REACTORS
330
1197
102
}
330
1197
100
AcDbXrecord
280
     1
270
     1
271
     1
  0
XRECORD
  5
119D
102
{ACAD_REACTORS
330
1197
102
}
330
1197
100
AcDbXrecord
280
     1
270
     1
271
     1
  0
XRECORD
  5
119A
102
{ACAD_REACTORS
330
1197
102
}
330
1197
100
AcDbXrecord
280
     1
270
     1
271
     1
  0
XRECORD
  5
1712
102
{ACAD_REACTORS
330
118F
102
}
330
118F
100
AcDbXrecord
280
     1
102
MATERIAL
148
0.0
149
0.0
149
0.0
 93
        0
 94
      127
282
     0
 72
     0
 77
     0
171
     0
175
     0
179
     0
273
     0
  0
XRECORD
  5
1191
102
{ACAD_REACTORS
330
118F
102
}
330
118F
100
AcDbXrecord
280
     1
270
     1
271
     1
  0
XRECORD
  5
1190
102
{ACAD_REACTORS
330
118F
102
}
330
118F
100
AcDbXrecord
280
     1
270
     1
271
     1
  0
XRECORD
  5
1194
102
{ACAD_REACTORS
330
118F
102
}
330
118F
100
AcDbXrecord
280
     1
270
     1
271
     1
  0
XRECORD
  5
1193
102
{ACAD_REACTORS
330
118F
102
}
330
118F
100
AcDbXrecord
280
     1
270
     1
271
     1
  0
XRECORD
  5
1195
102
{ACAD_REACTORS
330
118F
102
}
330
118F
100
AcDbXrecord
280
     1
270
     1
271
     1
  0
XRECORD
  5
1192
102
{ACAD_REACTORS
330
118F
102
}
330
118F
100
AcDbXrecord
280
     1
270
     1
271
     1
  0
XRECORD
  5
1714
102
{ACAD_REACTORS
330
119F
102
}
330
119F
100
AcDbXrecord
280
     1
102
MATERIAL
148
0.0
149
0.0
149
0.0
 93
        0
 94
      127
282
     0
 72
     0
 77
     0
171
     0
175
     0
179
     0
273
     0
  0
XRECORD
  5
11A1
102
{ACAD_REACTORS
330
119F
102
}
330
119F
100
AcDbXrecord
280
     1
270
     1
271
     1
  0
XRECORD
  5
11A0
102
{ACAD_REACTORS
330
119F
102
}
330
119F
100
AcDbXrecord
280
     1
270
     1
271
     1
  0
XRECORD
  5
11A4
102
{ACAD_REACTORS
330
119F
102
}
330
119F
100
AcDbXrecord
280
     1
270
     1
271
     1
  0
XRECORD
  5
11A3
102
{ACAD_REACTORS
330
119F
102
}
330
119F
100
AcDbXrecord
280
     1
270
     1
271
     1
  0
XRECORD
  5
11A5
102
{ACAD_REACTORS
330
119F
102
}
330
119F
100
AcDbXrecord
280
     1
270
     1
271
     1
  0
XRECORD
  5
11A2
102
{ACAD_REACTORS
330
119F
102
}
330
119F
100
AcDbXrecord
280
     1
270
     1
271
     1
  0
CELLSTYLEMAP
  5
170D
102
{ACAD_REACTORS
330
1338
102
}
330
1338
100
AcDbCellStyleMap
 90
        3
300
CELLSTYLE
  1
TABLEFORMAT_BEGIN
 90
        5
170
     1
 91
        0
 92
    32768
 62
   257
 93
        1
300
CONTENTFORMAT
  1
CONTENTFORMAT_BEGIN
 90
        0
 91
        0
 92
      512
 93
        0
300

 40
0.0
140
1.0
 94
        5
 62
     0
340
10
144
0.25
309
CONTENTFORMAT_END
171
     0
 94
        0
309
TABLEFORMAT_END
  1
CELLSTYLE_BEGIN
 90
        1
 91
        1
300
_TITLE
309
CELLSTYLE_END
300
CELLSTYLE
  1
TABLEFORMAT_BEGIN
 90
        5
170
     1
 91
        0
 92
        0
 62
   257
 93
        1
300
CONTENTFORMAT
  1
CONTENTFORMAT_BEGIN
 90
        0
 91
        0
 92
      512
 93
        0
300

 40
0.0
140
1.0
 94
        5
 62
     0
340
10
144
0.18
309
CONTENTFORMAT_END
171
     0
 94
        0
309
TABLEFORMAT_END
  1
CELLSTYLE_BEGIN
 90
        2
 91
        1
300
_HEADER
309
CELLSTYLE_END
300
CELLSTYLE
  1
TABLEFORMAT_BEGIN
 90
        5
170
     1
 91
        0
 92
        0
 62
   257
 93
        1
300
CONTENTFORMAT
  1
CONTENTFORMAT_BEGIN
 90
        0
 91
        0
 92
      512
 93
        0
300

 40
0.0
140
1.0
 94
        2
 62
     0
340
10
144
0.18
309
CONTENTFORMAT_END
171
     0
 94
        0
309
TABLEFORMAT_END
  1
CELLSTYLE_BEGIN
 90
        3
 91
        2
300
_DATA
309
CELLSTYLE_END
  0
XRECORD
  5
173B
102
{ACAD_REACTORS
330
1338
102
}
330
1338
100
AcDbXrecord
280
     1
102
ACAD_ROUNDTRIP_PRE2007_TABLESTYLE
 90
      512
 91
        0
  1

 92
      512
 93
        0
  2

 94
      512
 95
        0
  3

  0
XRECORD
  5
1720
102
{ACAD_REACTORS
330
171F
102
}
330
171F
100
AcDbXrecord
280
     1
102
RTVSPropertyOp0
 70
     1
102
RTVSPropertyOp1
 70
     1
102
RTVSPropertyOp2
 70
     1
102
RTVSPropertyOp3
 70
     1
102
RTVSPropertyOp4
 70
     1
102
RTVSPropertyOp5
 70
     1
102
RTVSPropertyOp6
 70
     1
102
RTVSPropertyOp7
 70
     1
102
RTVSPropertyOp8
 70
     1
102
RTVSPropertyOp9
 70
     1
102
RTVSPropertyOp10
 70
     1
102
RTVSPropertyOp11
 70
     1
102
RTVSPropertyOp12
 70
     1
102
RTVSPropertyOp13
 70
     1
102
RTVSPropertyOp14
 70
     1
102
RTVSPropertyOp15
 70
     1
102
RTVSPropertyOp16
 70
     1
102
RTVSPropertyOp17
 70
     1
102
RTVSPropertyOp18
 70
     1
102
RTVSPropertyOp19
 70
     1
102
RTVSPropertyOp20
 70
     1
102
RTVSPropertyOp21
 70
     1
102
RTVSPropertyOp22
 70
     1
102
RTVSPropertyOp23
 70
     1
102
RTVSPropertyOp24
 70
     1
102
RTVSPropertyOp25
 70
     1
102
RTVSPropertyOp26
 70
     1
102
RTVSPropertyOp27
 70
     1
  0
XRECORD
  5
1724
102
{ACAD_REACTORS
330
1723
102
}
330
1723
100
AcDbXrecord
280
     1
102
RTVSPropertyOp0
 70
     1
102
RTVSPropertyOp1
 70
     1
102
RTVSPropertyOp2
 70
     1
102
RTVSPropertyOp3
 70
     1
102
RTVSPropertyOp4
 70
     1
102
RTVSPropertyOp5
 70
     1
102
RTVSPropertyOp6
 70
     1
102
RTVSPropertyOp7
 70
     1
102
RTVSPropertyOp8
 70
     1
102
RTVSPropertyOp9
 70
     1
102
RTVSPropertyOp10
 70
     1
102
RTVSPropertyOp11
 70
     1
102
RTVSPropertyOp12
 70
     1
102
RTVSPropertyOp13
 70
     1
102
RTVSPropertyOp14
 70
     1
102
RTVSPropertyOp15
 70
     1
102
RTVSPropertyOp16
 70
     1
102
RTVSPropertyOp17
 70
     1
102
RTVSPropertyOp18
 70
     1
102
RTVSPropertyOp19
 70
     1
102
RTVSPropertyOp20
 70
     1
102
RTVSPropertyOp21
 70
     1
102
RTVSPropertyOp22
 70
     1
102
RTVSPropertyOp23
 70
     1
102
RTVSPropertyOp24
 70
     1
102
RTVSPropertyOp25
 70
     1
102
RTVSPropertyOp26
 70
     1
102
RTVSPropertyOp27
 70
     1
  0
XRECORD
  5
1722
102
{ACAD_REACTORS
330
1721
102
}
330
1721
100
AcDbXrecord
280
     1
102
RTVSPropertyOp0
 70
     1
102
RTVSPropertyOp1
 70
     1
102
RTVSPropertyOp2
 70
     1
102
RTVSPropertyOp3
 70
     1
102
RTVSPropertyOp4
 70
     1
102
RTVSPropertyOp5
 70
     1
102
RTVSPropertyOp6
 70
     1
102
RTVSPropertyOp7
 70
     1
102
RTVSPropertyOp8
 70
     1
102
RTVSPropertyOp9
 70
     1
102
RTVSPropertyOp10
 70
     1
102
RTVSPropertyOp11
 70
     1
102
RTVSPropertyOp12
 70
     1
102
RTVSPropertyOp13
 70
     1
102
RTVSPropertyOp14
 70
     1
102
RTVSPropertyOp15
 70
     1
102
RTVSPropertyOp16
 70
     1
102
RTVSPropertyOp17
 70
     1
102
RTVSPropertyOp18
 70
     1
102
RTVSPropertyOp19
 70
     1
102
RTVSPropertyOp20
 70
     1
102
RTVSPropertyOp21
 70
     1
102
RTVSPropertyOp22
 70
     1
102
RTVSPropertyOp23
 70
     1
102
RTVSPropertyOp24
 70
     1
102
RTVSPropertyOp25
 70
     1
102
RTVSPropertyOp26
 70
     1
102
RTVSPropertyOp27
 70
     1
  0
XRECORD
  5
171E
102
{ACAD_REACTORS
330
171D
102
}
330
171D
100
AcDbXrecord
280
     1
102
RTVSPropertyOp0
 70
     1
102
RTVSPropertyOp1
 70
     1
102
RTVSPropertyOp2
 70
     1
102
RTVSPropertyOp3
 70
     1
102
RTVSPropertyOp4
 70
     1
102
RTVSPropertyOp5
 70
     1
102
RTVSPropertyOp6
 70
     1
102
RTVSPropertyOp7
 70
     1
102
RTVSPropertyOp8
 70
     1
102
RTVSPropertyOp9
 70
     1
102
RTVSPropertyOp10
 70
     1
102
RTVSPropertyOp11
 70
     1
102
RTVSPropertyOp12
 70
     1
102
RTVSPropertyOp13
 70
     1
102
RTVSPropertyOp14
 70
     1
102
RTVSPropertyOp15
 70
     1
102
RTVSPropertyOp16
 70
     1
102
RTVSPropertyOp17
 70
     1
102
RTVSPropertyOp18
 70
     1
102
RTVSPropertyOp19
 70
     1
102
RTVSPropertyOp20
 70
     1
102
RTVSPropertyOp21
 70
     1
102
RTVSPropertyOp22
 70
     1
102
RTVSPropertyOp23
 70
     1
102
RTVSPropertyOp24
 70
     1
102
RTVSPropertyOp25
 70
     1
102
RTVSPropertyOp26
 70
     1
102
RTVSPropertyOp27
 70
     1
  0
XRECORD
  5
172C
102
{ACAD_REACTORS
330
172B
102
}
330
172B
100
AcDbXrecord
280
     1
102
RTVSPropertyOp0
 70
     1
102
RTVSPropertyOp1
 70
     1
102
RTVSPropertyOp2
 70
     1
102
RTVSPropertyOp3
 70
     1
102
RTVSPropertyOp4
 70
     1
102
RTVSPropertyOp5
 70
     1
102
RTVSPropertyOp6
 70
     1
102
RTVSPropertyOp7
 70
     1
102
RTVSPropertyOp8
 70
     1
102
RTVSPropertyOp9
 70
     1
102
RTVSPropertyOp10
 70
     1
102
RTVSPropertyOp11
 70
     1
102
RTVSPropertyOp12
 70
     1
102
RTVSPropertyOp13
 70
     1
102
RTVSPropertyOp14
 70
     1
102
RTVSPropertyOp15
 70
     1
102
RTVSPropertyOp16
 70
     1
102
RTVSPropertyOp17
 70
     1
102
RTVSPropertyOp18
 70
     1
102
RTVSPropertyOp19
 70
     1
102
RTVSPropertyOp20
 70
     1
102
RTVSPropertyOp21
 70
     1
102
RTVSPropertyOp22
 70
     1
102
RTVSPropertyOp23
 70
     1
102
RTVSPropertyOp24
 70
     1
102
RTVSPropertyOp25
 70
     1
102
RTVSPropertyOp26
 70
     1
102
RTVSPropertyOp27
 70
     1
  0
XRECORD
  5
1734
102
{ACAD_REACTORS
330
1733
102
}
330
1733
100
AcDbXrecord
280
     1
102
RTVSPropertyOp0
 70
     1
102
RTVSPropertyOp1
 70
     1
102
RTVSPropertyOp2
 70
     1
102
RTVSPropertyOp3
 70
     1
102
RTVSPropertyOp4
 70
     1
102
RTVSPropertyOp5
 70
     1
102
RTVSPropertyOp6
 70
     1
102
RTVSPropertyOp7
 70
     1
102
RTVSPropertyOp8
 70
     1
102
RTVSPropertyOp9
 70
     1
102
RTVSPropertyOp10
 70
     1
102
RTVSPropertyOp11
 70
     1
102
RTVSPropertyOp12
 70
     1
102
RTVSPropertyOp13
 70
     1
102
RTVSPropertyOp14
 70
     1
102
RTVSPropertyOp15
 70
     1
102
RTVSPropertyOp16
 70
     1
102
RTVSPropertyOp17
 70
     1
102
RTVSPropertyOp18
 70
     1
102
RTVSPropertyOp19
 70
     1
102
RTVSPropertyOp20
 70
     1
102
RTVSPropertyOp21
 70
     1
102
RTVSPropertyOp22
 70
     1
102
RTVSPropertyOp23
 70
     1
102
RTVSPropertyOp24
 70
     1
102
RTVSPropertyOp25
 70
     1
102
RTVSPropertyOp26
 70
     1
102
RTVSPropertyOp27
 70
     1
  0
XRECORD
  5
1726
102
{ACAD_REACTORS
330
1725
102
}
330
1725
100
AcDbXrecord
280
     1
102
RTVSPropertyOp0
 70
     1
102
RTVSPropertyOp1
 70
     1
102
RTVSPropertyOp2
 70
     1
102
RTVSPropertyOp3
 70
     1
102
RTVSPropertyOp4
 70
     1
102
RTVSPropertyOp5
 70
     1
102
RTVSPropertyOp6
 70
     1
102
RTVSPropertyOp7
 70
     1
102
RTVSPropertyOp8
 70
     1
102
RTVSPropertyOp9
 70
     1
102
RTVSPropertyOp10
 70
     1
102
RTVSPropertyOp11
 70
     1
102
RTVSPropertyOp12
 70
     1
102
RTVSPropertyOp13
 70
     1
102
RTVSPropertyOp14
 70
     1
102
RTVSPropertyOp15
 70
     1
102
RTVSPropertyOp16
 70
     1
102
RTVSPropertyOp17
 70
     1
102
RTVSPropertyOp18
 70
     1
102
RTVSPropertyOp19
 70
     1
102
RTVSPropertyOp20
 70
     1
102
RTVSPropertyOp21
 70
     1
102
RTVSPropertyOp22
 70
     1
102
RTVSPropertyOp23
 70
     1
102
RTVSPropertyOp24
 70
     1
102
RTVSPropertyOp25
 70
     1
102
RTVSPropertyOp26
 70
     1
102
RTVSPropertyOp27
 70
     1
  0
XRECORD
  5
172A
102
{ACAD_REACTORS
330
1729
102
}
330
1729
100
AcDbXrecord
280
     1
102
RTVSPropertyOp0
 70
     1
102
RTVSPropertyOp1
 70
     1
102
RTVSPropertyOp2
 70
     1
102
RTVSPropertyOp3
 70
     1
102
RTVSPropertyOp4
 70
     1
102
RTVSPropertyOp5
 70
     1
102
RTVSPropertyOp6
 70
     1
102
RTVSPropertyOp7
 70
     1
102
RTVSPropertyOp8
 70
     1
102
RTVSPropertyOp9
 70
     1
102
RTVSPropertyOp10
 70
     1
102
RTVSPropertyOp11
 70
     1
102
RTVSPropertyOp12
 70
     1
102
RTVSPropertyOp13
 70
     1
102
RTVSPropertyOp14
 70
     1
102
RTVSPropertyOp15
 70
     1
102
RTVSPropertyOp16
 70
     1
102
RTVSPropertyOp17
 70
     1
102
RTVSPropertyOp18
 70
     1
102
RTVSPropertyOp19
 70
     1
102
RTVSPropertyOp20
 70
     1
102
RTVSPropertyOp21
 70
     1
102
RTVSPropertyOp22
 70
     1
102
RTVSPropertyOp23
 70
     1
102
RTVSPropertyOp24
 70
     1
102
RTVSPropertyOp25
 70
     1
102
RTVSPropertyOp26
 70
     1
102
RTVSPropertyOp27
 70
     1
  0
XRECORD
  5
173A
102
{ACAD_REACTORS
330
1739
102
}
330
1739
100
AcDbXrecord
280
     1
102
RTVSPropertyOp0
 70
     0
102
RTVSPropertyOp1
 70
     0
102
RTVSPropertyOp2
 70
     0
102
RTVSPropertyOp3
 70
     0
102
RTVSPropertyOp4
 70
     0
102
RTVSPropertyOp5
 70
     0
102
RTVSPropertyOp6
 70
     0
102
RTVSPropertyOp7
 70
     0
102
RTVSPropertyOp8
 70
     0
102
RTVSPropertyOp9
 70
     0
102
RTVSPropertyOp10
 70
     0
102
RTVSPropertyOp11
 70
     0
102
RTVSPropertyOp12
 70
     0
102
RTVSPropertyOp13
 70
     0
102
RTVSPropertyOp14
 70
     2
102
RTVSPropertyOp15
 70
     0
102
RTVSPropertyOp16
 70
     0
102
RTVSPropertyOp17
 70
     0
102
RTVSPropertyOp18
 70
     0
102
RTVSPropertyOp19
 70
     0
102
RTVSPropertyOp20
 70
     0
102
RTVSPropertyOp21
 70
     0
102
RTVSPropertyOp22
 70
     0
102
RTVSPropertyOp23
 70
     0
102
RTVSPropertyOp24
 70
     0
102
RTVSPropertyOp25
 70
     0
102
RTVSPropertyOp26
 70
     0
102
RTVSPropertyOp27
 70
     0
  0
XRECORD
  5
1732
102
{ACAD_REACTORS
330
1731
102
}
330
1731
100
AcDbXrecord
280
     1
102
RTVSPropertyOp0
 70
     1
102
RTVSPropertyOp1
 70
     1
102
RTVSPropertyOp2
 70
     1
102
RTVSPropertyOp3
 70
     1
102
RTVSPropertyOp4
 70
     1
102
RTVSPropertyOp5
 70
     1
102
RTVSPropertyOp6
 70
     1
102
RTVSPropertyOp7
 70
     1
102
RTVSPropertyOp8
 70
     1
102
RTVSPropertyOp9
 70
     1
102
RTVSPropertyOp10
 70
     1
102
RTVSPropertyOp11
 70
     1
102
RTVSPropertyOp12
 70
     1
102
RTVSPropertyOp13
 70
     1
102
RTVSPropertyOp14
 70
     1
102
RTVSPropertyOp15
 70
     1
102
RTVSPropertyOp16
 70
     1
102
RTVSPropertyOp17
 70
     1
102
RTVSPropertyOp18
 70
     1
102
RTVSPropertyOp19
 70
     1
102
RTVSPropertyOp20
 70
     1
102
RTVSPropertyOp21
 70
     1
102
RTVSPropertyOp22
 70
     1
102
RTVSPropertyOp23
 70
     1
102
RTVSPropertyOp24
 70
     1
102
RTVSPropertyOp25
 70
     1
102
RTVSPropertyOp26
 70
     1
102
RTVSPropertyOp27
 70
     1
  0
XRECORD
  5
1716
102
{ACAD_REACTORS
330
1715
102
}
330
1715
100
AcDbXrecord
280
     1
102
RTVSPropertyOp0
 70
     1
102
RTVSPropertyOp1
 70
     1
102
RTVSPropertyOp2
 70
     1
102
RTVSPropertyOp3
 70
     1
102
RTVSPropertyOp4
 70
     1
102
RTVSPropertyOp5
 70
     1
102
RTVSPropertyOp6
 70
     1
102
RTVSPropertyOp7
 70
     1
102
RTVSPropertyOp8
 70
     1
102
RTVSPropertyOp9
 70
     1
102
RTVSPropertyOp10
 70
     1
102
RTVSPropertyOp11
 70
     1
102
RTVSPropertyOp12
 70
     1
102
RTVSPropertyOp13
 70
     1
102
RTVSPropertyOp14
 70
     1
102
RTVSPropertyOp15
 70
     1
102
RTVSPropertyOp16
 70
     1
102
RTVSPropertyOp17
 70
     1
102
RTVSPropertyOp18
 70
     1
102
RTVSPropertyOp19
 70
     1
102
RTVSPropertyOp20
 70
     1
102
RTVSPropertyOp21
 70
     1
102
RTVSPropertyOp22
 70
     1
102
RTVSPropertyOp23
 70
     1
102
RTVSPropertyOp24
 70
     1
102
RTVSPropertyOp25
 70
     1
102
RTVSPropertyOp26
 70
     1
102
RTVSPropertyOp27
 70
     1
  0
XRECORD
  5
1718
102
{ACAD_REACTORS
330
1717
102
}
330
1717
100
AcDbXrecord
280
     1
102
RTVSPropertyOp0
 70
     1
102
RTVSPropertyOp1
 70
     1
102
RTVSPropertyOp2
 70
     1
102
RTVSPropertyOp3
 70
     1
102
RTVSPropertyOp4
 70
     1
102
RTVSPropertyOp5
 70
     1
102
RTVSPropertyOp6
 70
     1
102
RTVSPropertyOp7
 70
     1
102
RTVSPropertyOp8
 70
     1
102
RTVSPropertyOp9
 70
     1
102
RTVSPropertyOp10
 70
     1
102
RTVSPropertyOp11
 70
     1
102
RTVSPropertyOp12
 70
     1
102
RTVSPropertyOp13
 70
     1
102
RTVSPropertyOp14
 70
     1
102
RTVSPropertyOp15
 70
     1
102
RTVSPropertyOp16
 70
     1
102
RTVSPropertyOp17
 70
     1
102
RTVSPropertyOp18
 70
     1
102
RTVSPropertyOp19
 70
     1
102
RTVSPropertyOp20
 70
     1
102
RTVSPropertyOp21
 70
     1
102
RTVSPropertyOp22
 70
     1
102
RTVSPropertyOp23
 70
     1
102
RTVSPropertyOp24
 70
     1
102
RTVSPropertyOp25
 70
     1
102
RTVSPropertyOp26
 70
     1
102
RTVSPropertyOp27
 70
     1
  0
XRECORD
  5
171A
102
{ACAD_REACTORS
330
1719
102
}
330
1719
100
AcDbXrecord
280
     1
102
RTVSPropertyOp0
 70
     1
102
RTVSPropertyOp1
 70
     1
102
RTVSPropertyOp2
 70
     1
102
RTVSPropertyOp3
 70
     1
102
RTVSPropertyOp4
 70
     1
102
RTVSPropertyOp5
 70
     1
102
RTVSPropertyOp6
 70
     1
102
RTVSPropertyOp7
 70
     1
102
RTVSPropertyOp8
 70
     1
102
RTVSPropertyOp9
 70
     1
102
RTVSPropertyOp10
 70
     1
102
RTVSPropertyOp11
 70
     1
102
RTVSPropertyOp12
 70
     1
102
RTVSPropertyOp13
 70
     1
102
RTVSPropertyOp14
 70
     1
102
RTVSPropertyOp15
 70
     1
102
RTVSPropertyOp16
 70
     1
102
RTVSPropertyOp17
 70
     1
102
RTVSPropertyOp18
 70
     1
102
RTVSPropertyOp19
 70
     1
102
RTVSPropertyOp20
 70
     1
102
RTVSPropertyOp21
 70
     1
102
RTVSPropertyOp22
 70
     1
102
RTVSPropertyOp23
 70
     1
102
RTVSPropertyOp24
 70
     1
102
RTVSPropertyOp25
 70
     1
102
RTVSPropertyOp26
 70
     1
102
RTVSPropertyOp27
 70
     1
  0
XRECORD
  5
171C
102
{ACAD_REACTORS
330
171B
102
}
330
171B
100
AcDbXrecord
280
     1
102
RTVSPropertyOp0
 70
     1
102
RTVSPropertyOp1
 70
     1
102
RTVSPropertyOp2
 70
     1
102
RTVSPropertyOp3
 70
     1
102
RTVSPropertyOp4
 70
     1
102
RTVSPropertyOp5
 70
     1
102
RTVSPropertyOp6
 70
     1
102
RTVSPropertyOp7
 70
     1
102
RTVSPropertyOp8
 70
     1
102
RTVSPropertyOp9
 70
     1
102
RTVSPropertyOp10
 70
     1
102
RTVSPropertyOp11
 70
     1
102
RTVSPropertyOp12
 70
     1
102
RTVSPropertyOp13
 70
     1
102
RTVSPropertyOp14
 70
     1
102
RTVSPropertyOp15
 70
     1
102
RTVSPropertyOp16
 70
     1
102
RTVSPropertyOp17
 70
     1
102
RTVSPropertyOp18
 70
     1
102
RTVSPropertyOp19
 70
     1
102
RTVSPropertyOp20
 70
     1
102
RTVSPropertyOp21
 70
     1
102
RTVSPropertyOp22
 70
     1
102
RTVSPropertyOp23
 70
     1
102
RTVSPropertyOp24
 70
     1
102
RTVSPropertyOp25
 70
     1
102
RTVSPropertyOp26
 70
     1
102
RTVSPropertyOp27
 70
     1
  0
XRECORD
  5
1736
102
{ACAD_REACTORS
330
1735
102
}
330
1735
100
AcDbXrecord
280
     1
102
RTVSPropertyOp0
 70
     0
102
RTVSPropertyOp1
 70
     0
102
RTVSPropertyOp2
 70
     0
102
RTVSPropertyOp3
 70
     0
102
RTVSPropertyOp4
 70
     0
102
RTVSPropertyOp5
 70
     0
102
RTVSPropertyOp6
 70
     0
102
RTVSPropertyOp7
 70
     0
102
RTVSPropertyOp8
 70
     0
102
RTVSPropertyOp9
 70
     0
102
RTVSPropertyOp10
 70
     0
102
RTVSPropertyOp11
 70
     0
102
RTVSPropertyOp12
 70
     0
102
RTVSPropertyOp13
 70
     0
102
RTVSPropertyOp14
 70
     2
102
RTVSPropertyOp15
 70
     0
102
RTVSPropertyOp16
 70
     0
102
RTVSPropertyOp17
 70
     0
102
RTVSPropertyOp18
 70
     0
102
RTVSPropertyOp19
 70
     0
102
RTVSPropertyOp20
 70
     0
102
RTVSPropertyOp21
 70
     0
102
RTVSPropertyOp22
 70
     0
102
RTVSPropertyOp23
 70
     0
102
RTVSPropertyOp24
 70
     0
102
RTVSPropertyOp25
 70
     0
102
RTVSPropertyOp26
 70
     0
102
RTVSPropertyOp27
 70
     0
  0
XRECORD
  5
1730
102
{ACAD_REACTORS
330
172F
102
}
330
172F
100
AcDbXrecord
280
     1
102
RTVSPropertyOp0
 70
     1
102
RTVSPropertyOp1
 70
     1
102
RTVSPropertyOp2
 70
     1
102
RTVSPropertyOp3
 70
     1
102
RTVSPropertyOp4
 70
     1
102
RTVSPropertyOp5
 70
     1
102
RTVSPropertyOp6
 70
     1
102
RTVSPropertyOp7
 70
     1
102
RTVSPropertyOp8
 70
     1
102
RTVSPropertyOp9
 70
     1
102
RTVSPropertyOp10
 70
     1
102
RTVSPropertyOp11
 70
     1
102
RTVSPropertyOp12
 70
     1
102
RTVSPropertyOp13
 70
     1
102
RTVSPropertyOp14
 70
     1
102
RTVSPropertyOp15
 70
     1
102
RTVSPropertyOp16
 70
     1
102
RTVSPropertyOp17
 70
     1
102
RTVSPropertyOp18
 70
     1
102
RTVSPropertyOp19
 70
     1
102
RTVSPropertyOp20
 70
     1
102
RTVSPropertyOp21
 70
     1
102
RTVSPropertyOp22
 70
     1
102
RTVSPropertyOp23
 70
     1
102
RTVSPropertyOp24
 70
     1
102
RTVSPropertyOp25
 70
     1
102
RTVSPropertyOp26
 70
     1
102
RTVSPropertyOp27
 70
     1
  0
XRECORD
  5
1738
102
{ACAD_REACTORS
330
1737
102
}
330
1737
100
AcDbXrecord
280
     1
102
RTVSPropertyOp0
 70
     0
102
RTVSPropertyOp1
 70
     0
102
RTVSPropertyOp2
 70
     0
102
RTVSPropertyOp3
 70
     0
102
RTVSPropertyOp4
 70
     0
102
RTVSPropertyOp5
 70
     0
102
RTVSPropertyOp6
 70
     0
102
RTVSPropertyOp7
 70
     0
102
RTVSPropertyOp8
 70
     0
102
RTVSPropertyOp9
 70
     0
102
RTVSPropertyOp10
 70
     0
102
RTVSPropertyOp11
 70
     0
102
RTVSPropertyOp12
 70
     0
102
RTVSPropertyOp13
 70
     0
102
RTVSPropertyOp14
 70
     2
102
RTVSPropertyOp15
 70
     0
102
RTVSPropertyOp16
 70
     0
102
RTVSPropertyOp17
 70
     0
102
RTVSPropertyOp18
 70
     0
102
RTVSPropertyOp19
 70
     0
102
RTVSPropertyOp20
 70
     0
102
RTVSPropertyOp21
 70
     0
102
RTVSPropertyOp22
 70
     0
102
RTVSPropertyOp23
 70
     0
102
RTVSPropertyOp24
 70
     0
102
RTVSPropertyOp25
 70
     0
102
RTVSPropertyOp26
 70
     0
102
RTVSPropertyOp27
 70
     0
  0
XRECORD
  5
1728
102
{ACAD_REACTORS
330
1727
102
}
330
1727
100
AcDbXrecord
280
     1
102
RTVSPropertyOp0
 70
     1
102
RTVSPropertyOp1
 70
     1
102
RTVSPropertyOp2
 70
     1
102
RTVSPropertyOp3
 70
     1
102
RTVSPropertyOp4
 70
     1
102
RTVSPropertyOp5
 70
     1
102
RTVSPropertyOp6
 70
     1
102
RTVSPropertyOp7
 70
     1
102
RTVSPropertyOp8
 70
     1
102
RTVSPropertyOp9
 70
     1
102
RTVSPropertyOp10
 70
     1
102
RTVSPropertyOp11
 70
     1
102
RTVSPropertyOp12
 70
     1
102
RTVSPropertyOp13
 70
     1
102
RTVSPropertyOp14
 70
     1
102
RTVSPropertyOp15
 70
     1
102
RTVSPropertyOp16
 70
     1
102
RTVSPropertyOp17
 70
     1
102
RTVSPropertyOp18
 70
     1
102
RTVSPropertyOp19
 70
     1
102
RTVSPropertyOp20
 70
     1
102
RTVSPropertyOp21
 70
     1
102
RTVSPropertyOp22
 70
     1
102
RTVSPropertyOp23
 70
     1
102
RTVSPropertyOp24
 70
     1
102
RTVSPropertyOp25
 70
     1
102
RTVSPropertyOp26
 70
     1
102
RTVSPropertyOp27
 70
     1
  0
XRECORD
  5
172E
102
{ACAD_REACTORS
330
172D
102
}
330
172D
100
AcDbXrecord
280
     1
102
RTVSPropertyOp0
 70
     1
102
RTVSPropertyOp1
 70
     1
102
RTVSPropertyOp2
 70
     1
102
RTVSPropertyOp3
 70
     1
102
RTVSPropertyOp4
 70
     1
102
RTVSPropertyOp5
 70
     1
102
RTVSPropertyOp6
 70
     1
102
RTVSPropertyOp7
 70
     1
102
RTVSPropertyOp8
 70
     1
102
RTVSPropertyOp9
 70
     1
102
RTVSPropertyOp10
 70
     1
102
RTVSPropertyOp11
 70
     1
102
RTVSPropertyOp12
 70
     1
102
RTVSPropertyOp13
 70
     1
102
RTVSPropertyOp14
 70
     1
102
RTVSPropertyOp15
 70
     1
102
RTVSPropertyOp16
 70
     1
102
RTVSPropertyOp17
 70
     1
102
RTVSPropertyOp18
 70
     1
102
RTVSPropertyOp19
 70
     1
102
RTVSPropertyOp20
 70
     1
102
RTVSPropertyOp21
 70
     1
102
RTVSPropertyOp22
 70
     1
102
RTVSPropertyOp23
 70
     1
102
RTVSPropertyOp24
 70
     1
102
RTVSPropertyOp25
 70
     1
102
RTVSPropertyOp26
 70
     1
102
RTVSPropertyOp27
 70
     1
  0
DICTIONARY
  5
12A0
102
{ACAD_REACTORS
330
129F
102
}
330
129F
100
AcDbDictionary
281
     1
  3
PH_GRPMEMBERS
350
12A1
  0
PH_GROUP
  5
12A2
102
{ACAD_REACTORS
330
129F
102
}
330
129F
  0
PH_GROUP
  5
12A1
102
{ACAD_REACTORS
330
12A0
102
}
330
12A0
  0
ENDSEC
  0
EOF
