  0
SECTION
  2
HEADER
  9
$ACADVER
  1
AC1009
  9
$INSBASE
 10
0.0
 20
0.0
 30
0.0
  9
$EXTMIN
 10
0.9805307641864828
 20
0.9879462492978063
 30
-0.0015258207003583
  9
$EXTMAX
 10
209.00665356429141
 20
296.01205513371622
 30
0.0000000349246037
  9
$LIMMIN
 10
0.0
 20
0.0
  9
$LIMMAX
 10
420.0
 20
297.0
  9
$ORTHOMODE
 70
     1
  9
$REGENMODE
 70
     1
  9
$FILLMODE
 70
     1
  9
$QTEXTMODE
 70
     0
  9
$MIRRTEXT
 70
     1
  9
$DRAGMODE
 70
     2
  9
$LTSCALE
 40
1.0
  9
$OSMODE
 70
    39
  9
$ATTMODE
 70
     1
  9
$TEXTSIZE
 40
2.5
  9
$TRACEWID
 40
1.0
  9
$TEXTSTYLE
  7
STANDARD
  9
$CLAYER
  8
0
  9
$CELTYPE
  6
CONTINUOUS
  9
$CECOLOR
 62
     5
  9
$DIMSCALE
 40
1.0
  9
$DIMASZ
 40
2.5
  9
$DIMEXO
 40
0.625
  9
$DIMDLI
 40
3.75
  9
$DIMRND
 40
0.0
  9
$DIMDLE
 40
0.0
  9
$DIMEXE
 40
1.25
  9
$DIMTP
 40
0.0
  9
$DIMTM
 40
0.0
  9
$DIMTXT
 40
2.5
  9
$DIMCEN
 40
2.5
  9
$DIMTSZ
 40
0.0
  9
$DIMTOL
 70
     0
  9
$DIMLIM
 70
     0
  9
$DIMTIH
 70
     0
  9
$DIMTOH
 70
     0
  9
$DIMSE1
 70
     0
  9
$DIMSE2
 70
     0
  9
$DIMTAD
 70
     1
  9
$DIMZIN
 70
     0
  9
$DIMBLK
  1

  9
$DIMASO
 70
     1
  9
$DIMSHO
 70
     1
  9
$DIMPOST
  1

  9
$DIMAPOST
  1

  9
$DIMALT
 70
     0
  9
$DIMALTD
 70
     4
  9
$DIMALTF
 40
0.0394
  9
$DIMLFAC
 40
1.0
  9
$DIMTOFL
 70
     1
  9
$DIMTVP
 40
0.0
  9
$DIMTIX
 70
     0
  9
$DIMSOXD
 70
     0
  9
$DIMSAH
 70
     0
  9
$DIMBLK1
  1

  9
$DIMBLK2
  1

  9
$DIMSTYLE
  2
STANDARD
  9
$DIMCLRD
 70
     0
  9
$DIMCLRE
 70
     0
  9
$DIMCLRT
 70
     0
  9
$DIMTFAC
 40
1.0
  9
$DIMGAP
 40
0.625
  9
$LUNITS
 70
     2
  9
$LUPREC
 70
     4
  9
$SKETCHINC
 40
1.0
  9
$FILLETRAD
 40
10.0
  9
$AUNITS
 70
     0
  9
$AUPREC
 70
     0
  9
$MENU
  1
.
  9
$ELEVATION
 40
0.0
  9
$PELEVATION
 40
0.0
  9
$THICKNESS
 40
0.0
  9
$LIMCHECK
 70
     0
  9
$BLIPMODE
 70
     0
  9
$CHAMFERA
 40
10.0
  9
$CHAMFERB
 40
10.0
  9
$SKPOLY
 70
     0
  9
$TDCREATE
 40
2451306.5821197918
  9
$TDUPDATE
 40
2457045.4310822459
  9
$TDINDWG
 40
0.088318125
  9
$TDUSRTIMER
 40
0.088318125
  9
$USRTIMER
 70
     1
  9
$ANGBASE
 50
0.0
  9
$ANGDIR
 70
     0
  9
$PDMODE
 70
    35
  9
$PDSIZE
 40
-2.0
  9
$PLINEWID
 40
0.0
  9
$COORDS
 70
     2
  9
$SPLFRAME
 70
     0
  9
$SPLINETYPE
 70
     6
  9
$SPLINESEGS
 70
     8
  9
$ATTDIA
 70
     0
  9
$ATTREQ
 70
     1
  9
$HANDLING
 70
     1
  9
$HANDSEED
  5
1BE7
  9
$SURFTAB1
 70
     6
  9
$SURFTAB2
 70
     6
  9
$SURFTYPE
 70
     6
  9
$SURFU
 70
     6
  9
$SURFV
 70
     6
  9
$UCSNAME
  2

  9
$UCSORG
 10
0.0
 20
0.0
 30
0.0
  9
$UCSXDIR
 10
1.0
 20
0.0
 30
0.0
  9
$UCSYDIR
 10
0.0
 20
1.0
 30
0.0
  9
$PUCSNAME
  2

  9
$PUCSORG
 10
0.0
 20
0.0
 30
0.0
  9
$PUCSXDIR
 10
1.0
 20
0.0
 30
0.0
  9
$PUCSYDIR
 10
0.0
 20
1.0
 30
0.0
  9
$USERI1
 70
     0
  9
$USERI2
 70
     0
  9
$USERI3
 70
     0
  9
$USERI4
 70
     0
  9
$USERI5
 70
     0
  9
$USERR1
 40
0.0
  9
$USERR2
 40
0.0
  9
$USERR3
 40
0.0
  9
$USERR4
 40
0.0
  9
$USERR5
 40
0.0
  9
$WORLDVIEW
 70
     1
  9
$SHADEDGE
 70
     3
  9
$SHADEDIF
 70
    70
  9
$TILEMODE
 70
     1
  9
$MAXACTVP
 70
    48
  9
$PLIMCHECK
 70
     0
  9
$PEXTMIN
 10
1.0000000000000000E+020
 20
1.0000000000000000E+020
 30
1.0000000000000000E+020
  9
$PEXTMAX
 10
-1.0000000000000000E+020
 20
-1.0000000000000000E+020
 30
-1.0000000000000000E+020
  9
$PLIMMIN
 10
0.0
 20
0.0
  9
$PLIMMAX
 10
420.0
 20
297.0
  9
$UNITMODE
 70
     0
  9
$VISRETAIN
 70
     1
  9
$PLINEGEN
 70
     0
  9
$PSLTSCALE
 70
     1
  0
ENDSEC
  0
SECTION
  2
TABLES
  0
TABLE
  2
VPORT
 70
     1
  0
VPORT
  2
*ACTIVE
 70
     0
 10
0.0
 20
0.0
 11
1.0
 21
1.0
 12
105.0
 22
148.75251773918649
 13
0.0
 23
0.0
 14
10.0
 24
10.0
 15
10.0
 25
10.0
 16
0.0
 26
0.0
 36
1.0
 17
0.0
 27
0.0
 37
0.0
 40
297.62076934422691
 41
1.906175771971496
 42
50.0
 43
0.0
 44
0.0
 50
0.0
 51
0.0
 71
     0
 72
   100
 73
     1
 74
     0
 75
     0
 76
     0
 77
     0
 78
     0
  0
ENDTAB
  0
TABLE
  2
LTYPE
 70
     4
  0
LTYPE
  2
CONTINUOUS
 70
     0
  3
Solid line
 72
    65
 73
     0
 40
0.0
  0
LTYPE
  2
ACAD_ISO04W100
 70
     0
  3
____ . ____ . ____ . ____ . ____ . ____ . ____ 
 72
    65
 73
     4
 40
30.5
 49
24.0
 49
-3.0
 49
0.5
 49
-3.0
  0
LTYPE
  2
ACAD_ISO02W100
 70
     0
  3
ISO Strichlinie __ __ __ __ __ __ __ __ __ __ _
 72
    65
 73
     2
 40
15.0
 49
12.0
 49
-3.0
  0
LTYPE
  2
DASHDOT
 70
     0
  3
__ . __ . __ . __ . __ . __ . __ . __ . __ . __
 72
    65
 73
     4
 40
1.0
 49
0.5
 49
-0.25
 49
0.0
 49
-0.25
  0
ENDTAB
  0
TABLE
  2
LAYER
 70
    11
  0
LAYER
  2
0
 70
     0
 62
     7
  6
CONTINUOUS
  0
LAYER
  2
BZA45776
 70
     0
 62
     7
  6
CONTINUOUS
  0
LAYER
  2
30
 70
     0
 62
     7
  6
CONTINUOUS
  0
LAYER
  2
PH_HILFSELEMENTE
 70
     0
 62
    -7
  6
CONTINUOUS
  0
LAYER
  2
DEFPOINTS
 70
     0
 62
     7
  6
CONTINUOUS
  0
LAYER
  2
MITTEL
 70
     0
 62
     2
  6
DASHDOT
  0
LAYER
  2
BEMASSUNG
 70
     0
 62
     3
  6
CONTINUOUS
  0
LAYER
  2
POSITION
 70
     0
 62
     1
  6
CONTINUOUS
  0
LAYER
  2
BAUTEIL
 70
     0
 62
     7
  6
CONTINUOUS
  0
LAYER
  2
BEZUGSLI
 70
     0
 62
     7
  6
CONTINUOUS
  0
LAYER
  2
MONTAFO
 70
     0
 62
     7
  6
CONTINUOUS
  0
ENDTAB
  0
TABLE
  2
STYLE
 70
     2
  0
STYLE
  2
STANDARD
 70
     0
 40
0.0
 41
1.1999999999999991
 50
0.0
 71
     0
 42
2.5
  3
isocp.shx
  4

  0
ENDTAB
  0
TABLE
  2
VIEW
 70
     0
  0
ENDTAB
  0
TABLE
  2
UCS
 70
     0
  0
ENDTAB
  0
TABLE
  2
APPID
 70
     9
  0
APPID
  2
ACAD
 70
     0
  0
APPID
  2
PHOENIX7010
 70
     0
  0
APPID
  2
DTI_TECHILLU_PROJ
 70
     0
  0
APPID
  2
DTI_TECHILLU
 70
     0
  0
APPID
  2
DTI_TECHILLU_3D
 70
     0
  0
APPID
  2
ACADANNOPO
 70
     0
  0
APPID
  2
ACAD_EXEMPT_FROM_CAD_STANDARDS
 70
     0
  0
APPID
  2
ACAD_PSEXT
 70
     0
  0
APPID
  2
ACAD_MLEADERVER
 70
     0
  0
ENDTAB
  0
TABLE
  2
DIMSTYLE
 70
     5
  0
DIMSTYLE
  2
STANDARD
 70
     0
  3

  4

  5

  6

  7

 40
1.0
 41
0.18
 42
0.0625
 43
0.38
 44
0.18
 45
0.0
 46
0.0
 47
0.0
 48
0.0
140
0.18
141
0.09
142
0.0
143
25.399999999999999
144
1.0
145
0.0
146
1.0
147
0.09
 71
     0
 72
     0
 73
     1
 74
     1
 75
     0
 76
     0
 77
     0
 78
     0
170
     0
171
     2
172
     0
173
     0
174
     0
175
     0
176
     0
177
     0
178
     0
  0
DIMSTYLE
  2
PHOENIX
 70
     0
  3

  4
"
  5

  6
_OPEN15
  7
_OPEN15
 40
1.0
 41
3.7200000000000002
 42
0.0
 43
7.0
 44
1.5
 45
0.0
 46
0.0
 47
0.0
 48
0.0
140
3.5
141
0.0
142
0.0
143
0.0393700787401575
144
1.0
145
0.0
146
0.6666666666666666
147
2.0
 71
     0
 72
     0
 73
     0
 74
     0
 75
     0
 76
     0
 77
     1
 78
     8
170
     0
171
     2
172
     1
173
     1
174
     0
175
     0
176
     1
177
     1
178
     5
  0
DIMSTYLE
  2
PHOENIX$4
 70
     0
  3

  4
"
  5

  6
_OPEN15
  7
_OPEN15
 40
1.0
 41
3.7200000000000002
 42
0.0
 43
7.0
 44
1.5
 45
0.0
 46
0.0
 47
0.0
 48
0.0
140
3.5
141
0.0
142
0.0
143
0.0393700787401575
144
1.0
145
0.0
146
0.6666666666666666
147
2.0
 71
     0
 72
     0
 73
     0
 74
     0
 75
     0
 76
     0
 77
     1
 78
     8
170
     0
171
     2
172
     0
173
     1
174
     0
175
     0
176
     1
177
     1
178
     5
  0
DIMSTYLE
  2
ISO-25
 70
     0
  3

  4

  5

  6

  7

 40
1.0
 41
2.5
 42
0.625
 43
3.75
 44
1.25
 45
0.0
 46
0.0
 47
0.0
 48
0.0
140
2.5
141
2.5
142
0.0
143
0.03937007874016
144
1.0
145
0.0
146
1.0
147
0.625
 71
     0
 72
     0
 73
     0
 74
     0
 75
     0
 76
     0
 77
     1
 78
     8
170
     0
171
     3
172
     1
173
     0
174
     0
175
     0
176
     0
177
     0
178
     0
  0
ENDTAB
  0
ENDSEC
  0
SECTION
  2
BLOCKS
  0
BLOCK
  8
0
  2
$MODEL_SPACE
 70
     0
 10
0.0
 20
0.0
 30
0.0
  3
$MODEL_SPACE
  1

  0
ENDBLK
  5
1A
  8
0
  0
BLOCK
 67
     1
  8
0
  2
$PAPER_SPACE
 70
     0
 10
0.0
 20
0.0
 30
0.0
  3
$PAPER_SPACE
  1

  0
ENDBLK
  5
17
 67
     1
  8
0
  0
BLOCK
  8
0
  2
_OPEN15
 70
     0
 10
1.0
 20
0.0
 30
0.0
  3
_OPEN15
  1

  0
LINE
  5
1D4
  8
0
  6
BYBLOCK
 62
     0
 10
0.0
 20
0.0
 30
0.0
 11
1.0
 21
0.0
 31
0.0
  0
LINE
  5
1D5
  8
0
  6
BYBLOCK
 62
     0
 10
1.0
 20
0.0
 30
0.0
 11
0.0
 21
0.1316524975873958
 31
0.0
  0
LINE
  5
1D6
  8
0
  6
BYBLOCK
 62
     0
 10
1.0
 20
0.0
 30
0.0
 11
0.0
 21
-0.1316524975873958
 31
0.0
  0
ENDBLK
  5
1D8
  8
0
  0
BLOCK
  8
0
 62
     7
  2
PH_GRPBLK
 70
     0
 10
0.0
 20
0.0
 30
0.0
  3
PH_GRPBLK
  1

  0
POINT
  5
1F2
  8
DEFPOINTS
  6
CONTINUOUS
 62
     0
 10
0.0
 20
0.0
 30
0.0
  0
ENDBLK
  5
1F4
  8
0
 62
     7
  0
BLOCK
  8
0
  2
A$C058A46EC
 70
     0
 10
0.0
 20
0.0
 30
0.0
  3
A$C058A46EC
  1

  0
LINE
  5
9AF
  8
BAUTEIL
  6
CONTINUOUS
 62
     6
 10
11.47450056605623
 20
12.39662976530883
 30
0.0
 11
15.47517195277498
 21
10.08684582976195
 31
0.0
  0
LINE
  5
9B0
  8
BAUTEIL
  6
CONTINUOUS
 62
     7
 10
16.387769609024978
 20
13.55995984343383
 30
0.0
 11
11.47450056605623
 21
16.39662976530883
 31
0.0
  0
LINE
  5
9B1
  8
BAUTEIL
  6
CONTINUOUS
 62
     6
 10
17.536695390274978
 20
19.89662976530883
 30
0.0
 11
11.47450056605623
 21
16.39662976530883
 31
0.0
  0
LINE
  5
9B2
  8
BEZUGSLI
 62
     7
 10
9.7424449019937356
 20
6.3966297653088304
 30
0.0
 11
16.237653642228111
 21
10.146645024097889
 31
0.0
  0
LINE
  5
9B3
  8
BEZUGSLI
 62
     7
 10
2.4111765914468601
 20
2.163872196949455
 30
0.0
 11
6.3431529098062347
 21
4.434029057301017
 31
0.0
  0
LINE
  5
9B4
  8
BEZUGSLI
 62
     7
 10
1.0822276168374849
 20
1.39662976530883
 30
0.0
 11
1.8477000289468599
 21
1.838570072926017
 31
0.0
  0
POLYLINE
  5
9B5
  8
MONTAFO
 62
     7
 10
0.3167586385064019
 20
2.7224544040051413
 30
0.0
 66
     1
 70
     8
  0
VERTEX
  8
MONTAFO
  5
15CF
 10
0.316759
 20
2.72245
 30
0.000000
  70
    32
  0
VERTEX
  8
MONTAFO
  5
15D0
 10
0.280121
 20
2.69917
 30
0.000000
  70
    32
  0
VERTEX
  8
MONTAFO
  5
15D1
 10
0.245416
 20
2.67275
 30
0.000000
  70
    32
  0
VERTEX
  8
MONTAFO
  5
15D2
 10
0.212726
 20
2.64326
 30
0.000000
  70
    32
  0
VERTEX
  8
MONTAFO
  5
15D3
 10
0.182132
 20
2.61076
 30
0.000000
  70
    32
  0
VERTEX
  8
MONTAFO
  5
15D4
 10
0.153706
 20
2.57534
 30
0.000000
  70
    32
  0
VERTEX
  8
MONTAFO
  5
15D5
 10
0.127516
 20
2.53708
 30
0.000000
  70
    32
  0
VERTEX
  8
MONTAFO
  5
15D6
 10
0.103627
 20
2.49607
 30
0.000000
  70
    32
  0
VERTEX
  8
MONTAFO
  5
15D7
 10
0.0820953
 20
2.45241
 30
0.000000
  70
    32
  0
VERTEX
  8
MONTAFO
  5
15D8
 10
0.0629729
 20
2.40621
 30
0.000000
  70
    32
  0
VERTEX
  8
MONTAFO
  5
15D9
 10
0.0463060
 20
2.35757
 30
0.000000
  70
    32
  0
VERTEX
  8
MONTAFO
  5
15DA
 10
0.0321347
 20
2.30662
 30
0.000000
  70
    32
  0
VERTEX
  8
MONTAFO
  5
15DB
 10
0.0204932
 20
2.25348
 30
0.000000
  70
    32
  0
VERTEX
  8
MONTAFO
  5
15DC
 10
0.0114095
 20
2.19828
 30
0.000000
  70
    32
  0
VERTEX
  8
MONTAFO
  5
15DD
 10
0.00490551
 20
2.14114
 30
0.000000
  70
    32
  0
VERTEX
  8
MONTAFO
  5
15DE
 10
0.000996867
 20
2.08221
 30
0.000000
  70
    32
  0
VERTEX
  8
MONTAFO
  5
15DF
 10
-0.000306995
 20
2.02163
 30
0.000000
  70
    32
  0
VERTEX
  8
MONTAFO
  5
15E0
 10
0.000997063
 20
1.95954
 30
0.000000
  70
    32
  0
VERTEX
  8
MONTAFO
  5
15E1
 10
0.00490590
 20
1.89610
 30
0.000000
  70
    32
  0
VERTEX
  8
MONTAFO
  5
15E2
 10
0.0114101
 20
1.83145
 30
0.000000
  70
    32
  0
VERTEX
  8
MONTAFO
  5
15E3
 10
0.0204940
 20
1.76576
 30
0.000000
  70
    32
  0
VERTEX
  8
MONTAFO
  5
15E4
 10
0.0321357
 20
1.69917
 30
0.000000
  70
    32
  0
VERTEX
  8
MONTAFO
  5
15E5
 10
0.0463072
 20
1.63186
 30
0.000000
  70
    32
  0
VERTEX
  8
MONTAFO
  5
15E6
 10
0.0629743
 20
1.56398
 30
0.000000
  70
    32
  0
VERTEX
  8
MONTAFO
  5
15E7
 10
0.0820968
 20
1.49570
 30
0.000000
  70
    32
  0
VERTEX
  8
MONTAFO
  5
15E8
 10
0.103629
 20
1.42718
 30
0.000000
  70
    32
  0
VERTEX
  8
MONTAFO
  5
15E9
 10
0.127518
 20
1.35858
 30
0.000000
  70
    32
  0
VERTEX
  8
MONTAFO
  5
15EA
 10
0.153708
 20
1.29008
 30
0.000000
  70
    32
  0
VERTEX
  8
MONTAFO
  5
15EB
 10
0.182134
 20
1.22183
 30
0.000000
  70
    32
  0
VERTEX
  8
MONTAFO
  5
15EC
 10
0.212729
 20
1.15401
 30
0.000000
  70
    32
  0
VERTEX
  8
MONTAFO
  5
15ED
 10
0.245418
 20
1.08677
 30
0.000000
  70
    32
  0
VERTEX
  8
MONTAFO
  5
15EE
 10
0.280124
 20
1.02027
 30
0.000000
  70
    32
  0
VERTEX
  8
MONTAFO
  5
15EF
 10
0.316761
 20
0.954686
 30
0.000000
  70
    32
  0
VERTEX
  8
MONTAFO
  5
15F0
 10
0.355243
 20
0.890163
 30
0.000000
  70
    32
  0
VERTEX
  8
MONTAFO
  5
15F1
 10
0.395476
 20
0.826860
 30
0.000000
  70
    32
  0
VERTEX
  8
MONTAFO
  5
15F2
 10
0.437364
 20
0.764930
 30
0.000000
  70
    32
  0
VERTEX
  8
MONTAFO
  5
15F3
 10
0.480805
 20
0.704522
 30
0.000000
  70
    32
  0
VERTEX
  8
MONTAFO
  5
15F4
 10
0.525695
 20
0.645781
 30
0.000000
  70
    32
  0
VERTEX
  8
MONTAFO
  5
15F5
 10
0.571926
 20
0.588849
 30
0.000000
  70
    32
  0
VERTEX
  8
MONTAFO
  5
15F6
 10
0.619386
 20
0.533863
 30
0.000000
  70
    32
  0
VERTEX
  8
MONTAFO
  5
15F7
 10
0.667961
 20
0.480955
 30
0.000000
  70
    32
  0
VERTEX
  8
MONTAFO
  5
15F8
 10
0.717535
 20
0.430254
 30
0.000000
  70
    32
  0
VERTEX
  8
MONTAFO
  5
15F9
 10
0.767986
 20
0.381880
 30
0.000000
  70
    32
  0
VERTEX
  8
MONTAFO
  5
15FA
 10
0.819195
 20
0.335951
 30
0.000000
  70
    32
  0
VERTEX
  8
MONTAFO
  5
15FB
 10
0.871038
 20
0.292578
 30
0.000000
  70
    32
  0
VERTEX
  8
MONTAFO
  5
15FC
 10
0.923389
 20
0.251864
 30
0.000000
  70
    32
  0
VERTEX
  8
MONTAFO
  5
15FD
 10
0.976123
 20
0.213908
 30
0.000000
  70
    32
  0
VERTEX
  8
MONTAFO
  5
15FE
 10
1.02911
 20
0.178801
 30
0.000000
  70
    32
  0
VERTEX
  8
MONTAFO
  5
15FF
 10
1.08223
 20
0.146628
 30
0.000000
  70
    32
  0
VERTEX
  8
MONTAFO
  5
1600
 10
1.13535
 20
0.117467
 30
0.000000
  70
    32
  0
VERTEX
  8
MONTAFO
  5
1601
 10
1.18834
 20
0.0913870
 30
0.000000
  70
    32
  0
VERTEX
  8
MONTAFO
  5
1602
 10
1.24107
 20
0.0684515
 30
0.000000
  70
    32
  0
VERTEX
  8
MONTAFO
  5
1603
 10
1.29342
 20
0.0487158
 30
0.000000
  70
    32
  0
VERTEX
  8
MONTAFO
  5
1604
 10
1.34526
 20
0.0322273
 30
0.000000
  70
    32
  0
VERTEX
  8
MONTAFO
  5
1605
 10
1.39647
 20
0.0190257
 30
0.000000
  70
    32
  0
VERTEX
  8
MONTAFO
  5
1606
 10
1.44692
 20
0.00914297
 30
0.000000
  70
    32
  0
VERTEX
  8
MONTAFO
  5
1607
 10
1.49650
 20
0.00260277
 30
0.000000
  70
    32
  0
VERTEX
  8
MONTAFO
  5
1608
 10
1.54507
 20
-0.000579093
 30
0.000000
  70
    32
  0
VERTEX
  8
MONTAFO
  5
1609
 10
1.59253
 20
-0.000394957
 30
0.000000
  70
    32
  0
VERTEX
  8
MONTAFO
  5
160A
 10
1.63876
 20
0.00315473
 30
0.000000
  70
    32
  0
VERTEX
  8
MONTAFO
  5
160B
 10
1.68365
 20
0.0100614
 30
0.000000
  70
    32
  0
VERTEX
  8
MONTAFO
  5
160C
 10
1.72709
 20
0.0203085
 30
0.000000
  70
    32
  0
VERTEX
  8
MONTAFO
  5
160D
 10
1.76898
 20
0.0338712
 30
0.000000
  70
    32
  0
VERTEX
  8
MONTAFO
  5
160E
 10
1.80921
 20
0.0507170
 30
0.000000
  70
    32
  0
VERTEX
  8
MONTAFO
  5
160F
 10
1.84770
 20
0.0708051
 30
0.000000
  70
    32
  0
VERTEX
  8
MONTAFO
  5
1610
 10
1.88433
 20
0.0940873
 30
0.000000
  70
    32
  0
VERTEX
  8
MONTAFO
  5
1611
 10
1.91904
 20
0.120507
 30
0.000000
  70
    32
  0
VERTEX
  8
MONTAFO
  5
1612
 10
1.95173
 20
0.150002
 30
0.000000
  70
    32
  0
VERTEX
  8
MONTAFO
  5
1613
 10
1.98232
 20
0.182500
 30
0.000000
  70
    32
  0
VERTEX
  8
MONTAFO
  5
1614
 10
2.01075
 20
0.217922
 30
0.000000
  70
    32
  0
VERTEX
  8
MONTAFO
  5
1615
 10
2.03694
 20
0.256184
 30
0.000000
  70
    32
  0
VERTEX
  8
MONTAFO
  5
1616
 10
2.06083
 20
0.297194
 30
0.000000
  70
    32
  0
VERTEX
  8
MONTAFO
  5
1617
 10
2.08236
 20
0.340852
 30
0.000000
  70
    32
  0
VERTEX
  8
MONTAFO
  5
1618
 10
2.10148
 20
0.387054
 30
0.000000
  70
    32
  0
VERTEX
  8
MONTAFO
  5
1619
 10
2.11815
 20
0.435688
 30
0.000000
  70
    32
  0
VERTEX
  8
MONTAFO
  5
161A
 10
2.13232
 20
0.486637
 30
0.000000
  70
    32
  0
VERTEX
  8
MONTAFO
  5
161B
 10
2.14396
 20
0.539778
 30
0.000000
  70
    32
  0
VERTEX
  8
MONTAFO
  5
161C
 10
2.15305
 20
0.594983
 30
0.000000
  70
    32
  0
VERTEX
  8
MONTAFO
  5
161D
 10
2.15955
 20
0.652120
 30
0.000000
  70
    32
  0
VERTEX
  8
MONTAFO
  5
161E
 10
2.16346
 20
0.711050
 30
0.000000
  70
    32
  0
VERTEX
  8
MONTAFO
  5
161F
 10
2.16476
 20
0.771632
 30
0.000000
  70
    32
  0
VERTEX
  8
MONTAFO
  5
1620
 10
2.16346
 20
0.833719
 30
0.000000
  70
    32
  0
VERTEX
  8
MONTAFO
  5
1621
 10
2.15955
 20
0.897163
 30
0.000000
  70
    32
  0
VERTEX
  8
MONTAFO
  5
1622
 10
2.15305
 20
0.961810
 30
0.000000
  70
    32
  0
VERTEX
  8
MONTAFO
  5
1623
 10
2.14396
 20
1.02750
 30
0.000000
  70
    32
  0
VERTEX
  8
MONTAFO
  5
1624
 10
2.13232
 20
1.09409
 30
0.000000
  70
    32
  0
VERTEX
  8
MONTAFO
  5
1625
 10
2.11815
 20
1.16140
 30
0.000000
  70
    32
  0
VERTEX
  8
MONTAFO
  5
1626
 10
2.10148
 20
1.22928
 30
0.000000
  70
    32
  0
VERTEX
  8
MONTAFO
  5
1627
 10
2.08236
 20
1.29756
 30
0.000000
  70
    32
  0
VERTEX
  8
MONTAFO
  5
1628
 10
2.06083
 20
1.36608
 30
0.000000
  70
    32
  0
VERTEX
  8
MONTAFO
  5
1629
 10
2.03694
 20
1.43468
 30
0.000000
  70
    32
  0
VERTEX
  8
MONTAFO
  5
162A
 10
2.01075
 20
1.50318
 30
0.000000
  70
    32
  0
VERTEX
  8
MONTAFO
  5
162B
 10
1.98232
 20
1.57143
 30
0.000000
  70
    32
  0
VERTEX
  8
MONTAFO
  5
162C
 10
1.95173
 20
1.63925
 30
0.000000
  70
    32
  0
VERTEX
  8
MONTAFO
  5
162D
 10
1.91904
 20
1.70649
 30
0.000000
  70
    32
  0
VERTEX
  8
MONTAFO
  5
162E
 10
1.88433
 20
1.77299
 30
0.000000
  70
    32
  0
VERTEX
  8
MONTAFO
  5
162F
 10
1.84769
 20
1.83857
 30
0.000000
  70
    32
  0
VERTEX
  8
MONTAFO
  5
1630
 10
1.80921
 20
1.90310
 30
0.000000
  70
    32
  0
VERTEX
  8
MONTAFO
  5
1631
 10
1.76898
 20
1.96640
 30
0.000000
  70
    32
  0
VERTEX
  8
MONTAFO
  5
1632
 10
1.72709
 20
2.02833
 30
0.000000
  70
    32
  0
VERTEX
  8
MONTAFO
  5
1633
 10
1.68365
 20
2.08874
 30
0.000000
  70
    32
  0
VERTEX
  8
MONTAFO
  5
1634
 10
1.63876
 20
2.14748
 30
0.000000
  70
    32
  0
VERTEX
  8
MONTAFO
  5
1635
 10
1.59253
 20
2.20441
 30
0.000000
  70
    32
  0
VERTEX
  8
MONTAFO
  5
1636
 10
1.54507
 20
2.25940
 30
0.000000
  70
    32
  0
VERTEX
  8
MONTAFO
  5
1637
 10
1.49649
 20
2.31230
 30
0.000000
  70
    32
  0
VERTEX
  8
MONTAFO
  5
1638
 10
1.44692
 20
2.36301
 30
0.000000
  70
    32
  0
VERTEX
  8
MONTAFO
  5
1639
 10
1.39647
 20
2.41138
 30
0.000000
  70
    32
  0
VERTEX
  8
MONTAFO
  5
163A
 10
1.34526
 20
2.45731
 30
0.000000
  70
    32
  0
VERTEX
  8
MONTAFO
  5
163B
 10
1.29342
 20
2.50068
 30
0.000000
  70
    32
  0
VERTEX
  8
MONTAFO
  5
163C
 10
1.24107
 20
2.54140
 30
0.000000
  70
    32
  0
VERTEX
  8
MONTAFO
  5
163D
 10
1.18833
 20
2.57935
 30
0.000000
  70
    32
  0
VERTEX
  8
MONTAFO
  5
163E
 10
1.13534
 20
2.61446
 30
0.000000
  70
    32
  0
VERTEX
  8
MONTAFO
  5
163F
 10
1.08223
 20
2.64663
 30
0.000000
  70
    32
  0
VERTEX
  8
MONTAFO
  5
1640
 10
1.02911
 20
2.67579
 30
0.000000
  70
    32
  0
VERTEX
  8
MONTAFO
  5
1641
 10
0.976119
 20
2.70187
 30
0.000000
  70
    32
  0
VERTEX
  8
MONTAFO
  5
1642
 10
0.923385
 20
2.72481
 30
0.000000
  70
    32
  0
VERTEX
  8
MONTAFO
  5
1643
 10
0.871034
 20
2.74454
 30
0.000000
  70
    32
  0
VERTEX
  8
MONTAFO
  5
1644
 10
0.819191
 20
2.76103
 30
0.000000
  70
    32
  0
VERTEX
  8
MONTAFO
  5
1645
 10
0.767982
 20
2.77423
 30
0.000000
  70
    32
  0
VERTEX
  8
MONTAFO
  5
1646
 10
0.717531
 20
2.78412
 30
0.000000
  70
    32
  0
VERTEX
  8
MONTAFO
  5
1647
 10
0.667958
 20
2.79066
 30
0.000000
  70
    32
  0
VERTEX
  8
MONTAFO
  5
1648
 10
0.619383
 20
2.79384
 30
0.000000
  70
    32
  0
VERTEX
  8
MONTAFO
  5
1649
 10
0.571923
 20
2.79365
 30
0.000000
  70
    32
  0
VERTEX
  8
MONTAFO
  5
164A
 10
0.525692
 20
2.79010
 30
0.000000
  70
    32
  0
VERTEX
  8
MONTAFO
  5
164B
 10
0.480802
 20
2.78320
 30
0.000000
  70
    32
  0
VERTEX
  8
MONTAFO
  5
164C
 10
0.437361
 20
2.77295
 30
0.000000
  70
    32
  0
VERTEX
  8
MONTAFO
  5
164D
 10
0.395473
 20
2.75939
 30
0.000000
  70
    32
  0
VERTEX
  8
MONTAFO
  5
164E
 10
0.355240
 20
2.74254
 30
0.000000
  70
    32
  0
VERTEX
  8
MONTAFO
  5
164F
 10
0.316759
 20
2.72245
 30
0.000000
  70
    32
  0
SEQEND
  8
MONTAFO
  5
1650
  0
LINE
  5
9B6
  8
BEZUGSLI
 62
     7
 10
7.5774058394937347
 20
5.1466297653088304
 30
0.0
 11
9.0985240035562356
 21
6.024879887379142
 31
0.0
  0
LINE
  5
9B7
  8
BAUTEIL
  6
CONTINUOUS
 62
     6
 10
11.47450056605623
 20
16.39662976530883
 30
0.0
 11
11.47450056605623
 21
12.39662976530883
 31
0.0
  0
LINE
  5
9B8
  8
BAUTEIL
  6
CONTINUOUS
 62
     6
 10
27.062971025040611
 20
12.39662976530883
 30
0.0
 11
27.062971025040611
 21
10.39662976530883
 31
0.0
  0
LINE
  5
9B9
  8
BAUTEIL
  6
CONTINUOUS
 62
     7
 10
21.000776200821861
 20
6.8966297653088304
 30
0.0
 11
21.000776200821861
 21
10.89662976530883
 31
0.0
  0
POLYLINE
  5
9BA
  8
BAUTEIL
  6
CONTINUOUS
 62
     7
 10
17.000115855331639
 20
9.2064249099754516
 30
0.0
 66
     1
 70
     8
  0
VERTEX
  8
BAUTEIL
  5
1651
 10
17.0001
 20
9.20642
 30
0.000000
  70
    32
  0
VERTEX
  8
BAUTEIL
  5
1652
 10
17.0138
 20
9.22748
 30
0.000000
  70
    32
  0
VERTEX
  8
BAUTEIL
  5
1653
 10
17.0267
 20
9.24952
 30
0.000000
  70
    32
  0
VERTEX
  8
BAUTEIL
  5
1654
 10
17.0388
 20
9.27250
 30
0.000000
  70
    32
  0
VERTEX
  8
BAUTEIL
  5
1655
 10
17.0500
 20
9.29642
 30
0.000000
  70
    32
  0
VERTEX
  8
BAUTEIL
  5
1656
 10
17.0603
 20
9.32124
 30
0.000000
  70
    32
  0
VERTEX
  8
BAUTEIL
  5
1657
 10
17.0698
 20
9.34694
 30
0.000000
  70
    32
  0
VERTEX
  8
BAUTEIL
  5
1658
 10
17.0783
 20
9.37350
 30
0.000000
  70
    32
  0
VERTEX
  8
BAUTEIL
  5
1659
 10
17.0860
 20
9.40087
 30
0.000000
  70
    32
  0
VERTEX
  8
BAUTEIL
  5
165A
 10
17.0928
 20
9.42903
 30
0.000000
  70
    32
  0
VERTEX
  8
BAUTEIL
  5
165B
 10
17.0987
 20
9.45796
 30
0.000000
  70
    32
  0
VERTEX
  8
BAUTEIL
  5
165C
 10
17.1036
 20
9.48763
 30
0.000000
  70
    32
  0
VERTEX
  8
BAUTEIL
  5
165D
 10
17.1076
 20
9.51799
 30
0.000000
  70
    32
  0
VERTEX
  8
BAUTEIL
  5
165E
 10
17.1108
 20
9.54902
 30
0.000000
  70
    32
  0
VERTEX
  8
BAUTEIL
  5
165F
 10
17.1129
 20
9.58069
 30
0.000000
  70
    32
  0
VERTEX
  8
BAUTEIL
  5
1660
 10
17.1142
 20
9.61296
 30
0.000000
  70
    32
  0
VERTEX
  8
BAUTEIL
  5
1661
 10
17.1145
 20
9.64580
 30
0.000000
  70
    32
  0
VERTEX
  8
BAUTEIL
  5
1662
 10
17.1139
 20
9.67916
 30
0.000000
  70
    32
  0
VERTEX
  8
BAUTEIL
  5
1663
 10
17.1123
 20
9.71303
 30
0.000000
  70
    32
  0
VERTEX
  8
BAUTEIL
  5
1664
 10
17.1098
 20
9.74736
 30
0.000000
  70
    32
  0
VERTEX
  8
BAUTEIL
  5
1665
 10
17.1064
 20
9.78211
 30
0.000000
  70
    32
  0
VERTEX
  8
BAUTEIL
  5
1666
 10
17.1021
 20
9.81725
 30
0.000000
  70
    32
  0
VERTEX
  8
BAUTEIL
  5
1667
 10
17.0969
 20
9.85274
 30
0.000000
  70
    32
  0
VERTEX
  8
BAUTEIL
  5
1668
 10
17.0907
 20
9.88855
 30
0.000000
  70
    32
  0
VERTEX
  8
BAUTEIL
  5
1669
 10
17.0836
 20
9.92463
 30
0.000000
  70
    32
  0
VERTEX
  8
BAUTEIL
  5
166A
 10
17.0756
 20
9.96094
 30
0.000000
  70
    32
  0
VERTEX
  8
BAUTEIL
  5
166B
 10
17.0668
 20
9.99745
 30
0.000000
  70
    32
  0
VERTEX
  8
BAUTEIL
  5
166C
 10
17.0570
 20
10.0341
 30
0.000000
  70
    32
  0
VERTEX
  8
BAUTEIL
  5
166D
 10
17.0464
 20
10.0709
 30
0.000000
  70
    32
  0
VERTEX
  8
BAUTEIL
  5
166E
 10
17.0349
 20
10.1078
 30
0.000000
  70
    32
  0
VERTEX
  8
BAUTEIL
  5
166F
 10
17.0226
 20
10.1447
 30
0.000000
  70
    32
  0
VERTEX
  8
BAUTEIL
  5
1670
 10
17.0095
 20
10.1816
 30
0.000000
  70
    32
  0
VERTEX
  8
BAUTEIL
  5
1671
 10
16.9955
 20
10.2185
 30
0.000000
  70
    32
  0
VERTEX
  8
BAUTEIL
  5
1672
 10
16.9807
 20
10.2553
 30
0.000000
  70
    32
  0
VERTEX
  8
BAUTEIL
  5
1673
 10
16.9651
 20
10.2920
 30
0.000000
  70
    32
  0
VERTEX
  8
BAUTEIL
  5
1674
 10
16.9488
 20
10.3285
 30
0.000000
  70
    32
  0
VERTEX
  8
BAUTEIL
  5
1675
 10
16.9317
 20
10.3648
 30
0.000000
  70
    32
  0
VERTEX
  8
BAUTEIL
  5
1676
 10
16.9138
 20
10.4009
 30
0.000000
  70
    32
  0
VERTEX
  8
BAUTEIL
  5
1677
 10
16.8952
 20
10.4368
 30
0.000000
  70
    32
  0
VERTEX
  8
BAUTEIL
  5
1678
 10
16.8760
 20
10.4723
 30
0.000000
  70
    32
  0
VERTEX
  8
BAUTEIL
  5
1679
 10
16.8560
 20
10.5075
 30
0.000000
  70
    32
  0
VERTEX
  8
BAUTEIL
  5
167A
 10
16.8354
 20
10.5423
 30
0.000000
  70
    32
  0
VERTEX
  8
BAUTEIL
  5
167B
 10
16.8142
 20
10.5767
 30
0.000000
  70
    32
  0
VERTEX
  8
BAUTEIL
  5
167C
 10
16.7923
 20
10.6106
 30
0.000000
  70
    32
  0
VERTEX
  8
BAUTEIL
  5
167D
 10
16.7699
 20
10.6440
 30
0.000000
  70
    32
  0
VERTEX
  8
BAUTEIL
  5
167E
 10
16.7469
 20
10.6769
 30
0.000000
  70
    32
  0
VERTEX
  8
BAUTEIL
  5
167F
 10
16.7234
 20
10.7092
 30
0.000000
  70
    32
  0
VERTEX
  8
BAUTEIL
  5
1680
 10
16.6993
 20
10.7410
 30
0.000000
  70
    32
  0
VERTEX
  8
BAUTEIL
  5
1681
 10
16.6747
 20
10.7721
 30
0.000000
  70
    32
  0
VERTEX
  8
BAUTEIL
  5
1682
 10
16.6497
 20
10.8025
 30
0.000000
  70
    32
  0
VERTEX
  8
BAUTEIL
  5
1683
 10
16.6243
 20
10.8322
 30
0.000000
  70
    32
  0
VERTEX
  8
BAUTEIL
  5
1684
 10
16.5984
 20
10.8612
 30
0.000000
  70
    32
  0
VERTEX
  8
BAUTEIL
  5
1685
 10
16.5721
 20
10.8895
 30
0.000000
  70
    32
  0
VERTEX
  8
BAUTEIL
  5
1686
 10
16.5455
 20
10.9170
 30
0.000000
  70
    32
  0
VERTEX
  8
BAUTEIL
  5
1687
 10
16.5186
 20
10.9436
 30
0.000000
  70
    32
  0
VERTEX
  8
BAUTEIL
  5
1688
 10
16.4914
 20
10.9694
 30
0.000000
  70
    32
  0
VERTEX
  8
BAUTEIL
  5
1689
 10
16.4638
 20
10.9943
 30
0.000000
  70
    32
  0
VERTEX
  8
BAUTEIL
  5
168A
 10
16.4361
 20
11.0183
 30
0.000000
  70
    32
  0
VERTEX
  8
BAUTEIL
  5
168B
 10
16.4081
 20
11.0414
 30
0.000000
  70
    32
  0
VERTEX
  8
BAUTEIL
  5
168C
 10
16.3800
 20
11.0635
 30
0.000000
  70
    32
  0
VERTEX
  8
BAUTEIL
  5
168D
 10
16.3517
 20
11.0847
 30
0.000000
  70
    32
  0
VERTEX
  8
BAUTEIL
  5
168E
 10
16.3233
 20
11.1049
 30
0.000000
  70
    32
  0
VERTEX
  8
BAUTEIL
  5
168F
 10
16.2948
 20
11.1240
 30
0.000000
  70
    32
  0
VERTEX
  8
BAUTEIL
  5
1690
 10
16.2662
 20
11.1421
 30
0.000000
  70
    32
  0
VERTEX
  8
BAUTEIL
  5
1691
 10
16.2377
 20
11.1592
 30
0.000000
  70
    32
  0
VERTEX
  8
BAUTEIL
  5
1692
 10
16.2091
 20
11.1751
 30
0.000000
  70
    32
  0
VERTEX
  8
BAUTEIL
  5
1693
 10
16.1805
 20
11.1900
 30
0.000000
  70
    32
  0
VERTEX
  8
BAUTEIL
  5
1694
 10
16.1520
 20
11.2038
 30
0.000000
  70
    32
  0
VERTEX
  8
BAUTEIL
  5
1695
 10
16.1236
 20
11.2164
 30
0.000000
  70
    32
  0
VERTEX
  8
BAUTEIL
  5
1696
 10
16.0953
 20
11.2279
 30
0.000000
  70
    32
  0
VERTEX
  8
BAUTEIL
  5
1697
 10
16.0672
 20
11.2383
 30
0.000000
  70
    32
  0
VERTEX
  8
BAUTEIL
  5
1698
 10
16.0392
 20
11.2475
 30
0.000000
  70
    32
  0
VERTEX
  8
BAUTEIL
  5
1699
 10
16.0115
 20
11.2555
 30
0.000000
  70
    32
  0
VERTEX
  8
BAUTEIL
  5
169A
 10
15.9839
 20
11.2623
 30
0.000000
  70
    32
  0
VERTEX
  8
BAUTEIL
  5
169B
 10
15.9567
 20
11.2680
 30
0.000000
  70
    32
  0
VERTEX
  8
BAUTEIL
  5
169C
 10
15.9298
 20
11.2724
 30
0.000000
  70
    32
  0
VERTEX
  8
BAUTEIL
  5
169D
 10
15.9032
 20
11.2757
 30
0.000000
  70
    32
  0
VERTEX
  8
BAUTEIL
  5
169E
 10
15.8769
 20
11.2778
 30
0.000000
  70
    32
  0
VERTEX
  8
BAUTEIL
  5
169F
 10
15.8510
 20
11.2786
 30
0.000000
  70
    32
  0
VERTEX
  8
BAUTEIL
  5
16A0
 10
15.8256
 20
11.2783
 30
0.000000
  70
    32
  0
VERTEX
  8
BAUTEIL
  5
16A1
 10
15.8006
 20
11.2768
 30
0.000000
  70
    32
  0
VERTEX
  8
BAUTEIL
  5
16A2
 10
15.7760
 20
11.2740
 30
0.000000
  70
    32
  0
VERTEX
  8
BAUTEIL
  5
16A3
 10
15.7519
 20
11.2701
 30
0.000000
  70
    32
  0
VERTEX
  8
BAUTEIL
  5
16A4
 10
15.7284
 20
11.2649
 30
0.000000
  70
    32
  0
VERTEX
  8
BAUTEIL
  5
16A5
 10
15.7054
 20
11.2586
 30
0.000000
  70
    32
  0
VERTEX
  8
BAUTEIL
  5
16A6
 10
15.6830
 20
11.2511
 30
0.000000
  70
    32
  0
VERTEX
  8
BAUTEIL
  5
16A7
 10
15.6611
 20
11.2424
 30
0.000000
  70
    32
  0
VERTEX
  8
BAUTEIL
  5
16A8
 10
15.6399
 20
11.2325
 30
0.000000
  70
    32
  0
VERTEX
  8
BAUTEIL
  5
16A9
 10
15.6193
 20
11.2215
 30
0.000000
  70
    32
  0
VERTEX
  8
BAUTEIL
  5
16AA
 10
15.5993
 20
11.2094
 30
0.000000
  70
    32
  0
VERTEX
  8
BAUTEIL
  5
16AB
 10
15.5801
 20
11.1961
 30
0.000000
  70
    32
  0
VERTEX
  8
BAUTEIL
  5
16AC
 10
15.5615
 20
11.1817
 30
0.000000
  70
    32
  0
VERTEX
  8
BAUTEIL
  5
16AD
 10
15.5437
 20
11.1662
 30
0.000000
  70
    32
  0
VERTEX
  8
BAUTEIL
  5
16AE
 10
15.5265
 20
11.1496
 30
0.000000
  70
    32
  0
VERTEX
  8
BAUTEIL
  5
16AF
 10
15.5102
 20
11.1320
 30
0.000000
  70
    32
  0
VERTEX
  8
BAUTEIL
  5
16B0
 10
15.4946
 20
11.1133
 30
0.000000
  70
    32
  0
VERTEX
  8
BAUTEIL
  5
16B1
 10
15.4798
 20
11.0935
 30
0.000000
  70
    32
  0
VERTEX
  8
BAUTEIL
  5
16B2
 10
15.4659
 20
11.0728
 30
0.000000
  70
    32
  0
VERTEX
  8
BAUTEIL
  5
16B3
 10
15.4527
 20
11.0511
 30
0.000000
  70
    32
  0
VERTEX
  8
BAUTEIL
  5
16B4
 10
15.4404
 20
11.0284
 30
0.000000
  70
    32
  0
VERTEX
  8
BAUTEIL
  5
16B5
 10
15.4289
 20
11.0048
 30
0.000000
  70
    32
  0
VERTEX
  8
BAUTEIL
  5
16B6
 10
15.4183
 20
10.9803
 30
0.000000
  70
    32
  0
VERTEX
  8
BAUTEIL
  5
16B7
 10
15.4085
 20
10.9548
 30
0.000000
  70
    32
  0
VERTEX
  8
BAUTEIL
  5
16B8
 10
15.3997
 20
10.9286
 30
0.000000
  70
    32
  0
VERTEX
  8
BAUTEIL
  5
16B9
 10
15.3917
 20
10.9015
 30
0.000000
  70
    32
  0
VERTEX
  8
BAUTEIL
  5
16BA
 10
15.3846
 20
10.8735
 30
0.000000
  70
    32
  0
VERTEX
  8
BAUTEIL
  5
16BB
 10
15.3785
 20
10.8449
 30
0.000000
  70
    32
  0
VERTEX
  8
BAUTEIL
  5
16BC
 10
15.3732
 20
10.8154
 30
0.000000
  70
    32
  0
VERTEX
  8
BAUTEIL
  5
16BD
 10
15.3689
 20
10.7853
 30
0.000000
  70
    32
  0
VERTEX
  8
BAUTEIL
  5
16BE
 10
15.3655
 20
10.7545
 30
0.000000
  70
    32
  0
VERTEX
  8
BAUTEIL
  5
16BF
 10
15.3630
 20
10.7230
 30
0.000000
  70
    32
  0
VERTEX
  8
BAUTEIL
  5
16C0
 10
15.3614
 20
10.6909
 30
0.000000
  70
    32
  0
VERTEX
  8
BAUTEIL
  5
16C1
 10
15.3608
 20
10.6583
 30
0.000000
  70
    32
  0
VERTEX
  8
BAUTEIL
  5
16C2
 10
15.3611
 20
10.6251
 30
0.000000
  70
    32
  0
VERTEX
  8
BAUTEIL
  5
16C3
 10
15.3624
 20
10.5914
 30
0.000000
  70
    32
  0
VERTEX
  8
BAUTEIL
  5
16C4
 10
15.3646
 20
10.5572
 30
0.000000
  70
    32
  0
VERTEX
  8
BAUTEIL
  5
16C5
 10
15.3677
 20
10.5226
 30
0.000000
  70
    32
  0
VERTEX
  8
BAUTEIL
  5
16C6
 10
15.3717
 20
10.4875
 30
0.000000
  70
    32
  0
VERTEX
  8
BAUTEIL
  5
16C7
 10
15.3766
 20
10.4522
 30
0.000000
  70
    32
  0
VERTEX
  8
BAUTEIL
  5
16C8
 10
15.3825
 20
10.4165
 30
0.000000
  70
    32
  0
VERTEX
  8
BAUTEIL
  5
16C9
 10
15.3893
 20
10.3805
 30
0.000000
  70
    32
  0
VERTEX
  8
BAUTEIL
  5
16CA
 10
15.3970
 20
10.3442
 30
0.000000
  70
    32
  0
VERTEX
  8
BAUTEIL
  5
16CB
 10
15.4055
 20
10.3078
 30
0.000000
  70
    32
  0
VERTEX
  8
BAUTEIL
  5
16CC
 10
15.4150
 20
10.2711
 30
0.000000
  70
    32
  0
VERTEX
  8
BAUTEIL
  5
16CD
 10
15.4253
 20
10.2344
 30
0.000000
  70
    32
  0
VERTEX
  8
BAUTEIL
  5
16CE
 10
15.4365
 20
10.1975
 30
0.000000
  70
    32
  0
VERTEX
  8
BAUTEIL
  5
16CF
 10
15.4486
 20
10.1606
 30
0.000000
  70
    32
  0
VERTEX
  8
BAUTEIL
  5
16D0
 10
15.4615
 20
10.1237
 30
0.000000
  70
    32
  0
VERTEX
  8
BAUTEIL
  5
16D1
 10
15.4752
 20
10.0868
 30
0.000000
  70
    32
  0
SEQEND
  8
BAUTEIL
  5
16D2
  0
POLYLINE
  5
9BB
  8
BAUTEIL
  6
CONTINUOUS
 62
     7
 10
18.302162956244434
 20
9.5708348287622691
 30
0.0
 66
     1
 70
     8
  0
VERTEX
  8
BAUTEIL
  5
16D3
 10
18.3022
 20
9.57083
 30
0.000000
  70
    32
  0
VERTEX
  8
BAUTEIL
  5
16D4
 10
18.3207
 20
9.58208
 30
0.000000
  70
    32
  0
VERTEX
  8
BAUTEIL
  5
16D5
 10
18.3388
 20
9.59412
 30
0.000000
  70
    32
  0
VERTEX
  8
BAUTEIL
  5
16D6
 10
18.3564
 20
9.60694
 30
0.000000
  70
    32
  0
VERTEX
  8
BAUTEIL
  5
16D7
 10
18.3735
 20
9.62054
 30
0.000000
  70
    32
  0
VERTEX
  8
BAUTEIL
  5
16D8
 10
18.3901
 20
9.63490
 30
0.000000
  70
    32
  0
VERTEX
  8
BAUTEIL
  5
16D9
 10
18.4062
 20
9.65003
 30
0.000000
  70
    32
  0
VERTEX
  8
BAUTEIL
  5
16DA
 10
18.4218
 20
9.66591
 30
0.000000
  70
    32
  0
VERTEX
  8
BAUTEIL
  5
16DB
 10
18.4368
 20
9.68253
 30
0.000000
  70
    32
  0
VERTEX
  8
BAUTEIL
  5
16DC
 10
18.4513
 20
9.69988
 30
0.000000
  70
    32
  0
VERTEX
  8
BAUTEIL
  5
16DD
 10
18.4652
 20
9.71795
 30
0.000000
  70
    32
  0
VERTEX
  8
BAUTEIL
  5
16DE
 10
18.4786
 20
9.73673
 30
0.000000
  70
    32
  0
VERTEX
  8
BAUTEIL
  5
16DF
 10
18.4914
 20
9.75621
 30
0.000000
  70
    32
  0
VERTEX
  8
BAUTEIL
  5
16E0
 10
18.5036
 20
9.77638
 30
0.000000
  70
    32
  0
VERTEX
  8
BAUTEIL
  5
16E1
 10
18.5153
 20
9.79722
 30
0.000000
  70
    32
  0
VERTEX
  8
BAUTEIL
  5
16E2
 10
18.5264
 20
9.81872
 30
0.000000
  70
    32
  0
VERTEX
  8
BAUTEIL
  5
16E3
 10
18.5368
 20
9.84088
 30
0.000000
  70
    32
  0
VERTEX
  8
BAUTEIL
  5
16E4
 10
18.5467
 20
9.86367
 30
0.000000
  70
    32
  0
VERTEX
  8
BAUTEIL
  5
16E5
 10
18.5559
 20
9.88708
 30
0.000000
  70
    32
  0
VERTEX
  8
BAUTEIL
  5
16E6
 10
18.5646
 20
9.91110
 30
0.000000
  70
    32
  0
VERTEX
  8
BAUTEIL
  5
16E7
 10
18.5726
 20
9.93571
 30
0.000000
  70
    32
  0
VERTEX
  8
BAUTEIL
  5
16E8
 10
18.5800
 20
9.96090
 30
0.000000
  70
    32
  0
VERTEX
  8
BAUTEIL
  5
16E9
 10
18.5868
 20
9.98666
 30
0.000000
  70
    32
  0
VERTEX
  8
BAUTEIL
  5
16EA
 10
18.5929
 20
10.0130
 30
0.000000
  70
    32
  0
VERTEX
  8
BAUTEIL
  5
16EB
 10
18.5984
 20
10.0398
 30
0.000000
  70
    32
  0
VERTEX
  8
BAUTEIL
  5
16EC
 10
18.6033
 20
10.0672
 30
0.000000
  70
    32
  0
VERTEX
  8
BAUTEIL
  5
16ED
 10
18.6075
 20
10.0950
 30
0.000000
  70
    32
  0
VERTEX
  8
BAUTEIL
  5
16EE
 10
18.6111
 20
10.1233
 30
0.000000
  70
    32
  0
VERTEX
  8
BAUTEIL
  5
16EF
 10
18.6140
 20
10.1521
 30
0.000000
  70
    32
  0
VERTEX
  8
BAUTEIL
  5
16F0
 10
18.6163
 20
10.1814
 30
0.000000
  70
    32
  0
VERTEX
  8
BAUTEIL
  5
16F1
 10
18.6179
 20
10.2111
 30
0.000000
  70
    32
  0
VERTEX
  8
BAUTEIL
  5
16F2
 10
18.6189
 20
10.2412
 30
0.000000
  70
    32
  0
VERTEX
  8
BAUTEIL
  5
16F3
 10
18.6192
 20
10.2717
 30
0.000000
  70
    32
  0
VERTEX
  8
BAUTEIL
  5
16F4
 10
18.6189
 20
10.3025
 30
0.000000
  70
    32
  0
VERTEX
  8
BAUTEIL
  5
16F5
 10
18.6179
 20
10.3337
 30
0.000000
  70
    32
  0
VERTEX
  8
BAUTEIL
  5
16F6
 10
18.6163
 20
10.3653
 30
0.000000
  70
    32
  0
VERTEX
  8
BAUTEIL
  5
16F7
 10
18.6140
 20
10.3972
 30
0.000000
  70
    32
  0
VERTEX
  8
BAUTEIL
  5
16F8
 10
18.6111
 20
10.4294
 30
0.000000
  70
    32
  0
VERTEX
  8
BAUTEIL
  5
16F9
 10
18.6075
 20
10.4618
 30
0.000000
  70
    32
  0
VERTEX
  8
BAUTEIL
  5
16FA
 10
18.6033
 20
10.4946
 30
0.000000
  70
    32
  0
VERTEX
  8
BAUTEIL
  5
16FB
 10
18.5984
 20
10.5275
 30
0.000000
  70
    32
  0
VERTEX
  8
BAUTEIL
  5
16FC
 10
18.5929
 20
10.5607
 30
0.000000
  70
    32
  0
VERTEX
  8
BAUTEIL
  5
16FD
 10
18.5868
 20
10.5941
 30
0.000000
  70
    32
  0
VERTEX
  8
BAUTEIL
  5
16FE
 10
18.5800
 20
10.6277
 30
0.000000
  70
    32
  0
VERTEX
  8
BAUTEIL
  5
16FF
 10
18.5726
 20
10.6614
 30
0.000000
  70
    32
  0
VERTEX
  8
BAUTEIL
  5
1700
 10
18.5646
 20
10.6953
 30
0.000000
  70
    32
  0
VERTEX
  8
BAUTEIL
  5
1701
 10
18.5560
 20
10.7293
 30
0.000000
  70
    32
  0
VERTEX
  8
BAUTEIL
  5
1702
 10
18.5467
 20
10.7634
 30
0.000000
  70
    32
  0
VERTEX
  8
BAUTEIL
  5
1703
 10
18.5368
 20
10.7976
 30
0.000000
  70
    32
  0
VERTEX
  8
BAUTEIL
  5
1704
 10
18.5264
 20
10.8318
 30
0.000000
  70
    32
  0
VERTEX
  8
BAUTEIL
  5
1705
 10
18.5153
 20
10.8661
 30
0.000000
  70
    32
  0
VERTEX
  8
BAUTEIL
  5
1706
 10
18.5036
 20
10.9004
 30
0.000000
  70
    32
  0
VERTEX
  8
BAUTEIL
  5
1707
 10
18.4914
 20
10.9347
 30
0.000000
  70
    32
  0
VERTEX
  8
BAUTEIL
  5
1708
 10
18.4786
 20
10.9690
 30
0.000000
  70
    32
  0
VERTEX
  8
BAUTEIL
  5
1709
 10
18.4652
 20
11.0032
 30
0.000000
  70
    32
  0
VERTEX
  8
BAUTEIL
  5
170A
 10
18.4513
 20
11.0374
 30
0.000000
  70
    32
  0
VERTEX
  8
BAUTEIL
  5
170B
 10
18.4368
 20
11.0714
 30
0.000000
  70
    32
  0
VERTEX
  8
BAUTEIL
  5
170C
 10
18.4218
 20
11.1054
 30
0.000000
  70
    32
  0
VERTEX
  8
BAUTEIL
  5
170D
 10
18.4062
 20
11.1393
 30
0.000000
  70
    32
  0
VERTEX
  8
BAUTEIL
  5
170E
 10
18.3901
 20
11.1730
 30
0.000000
  70
    32
  0
VERTEX
  8
BAUTEIL
  5
170F
 10
18.3735
 20
11.2065
 30
0.000000
  70
    32
  0
VERTEX
  8
BAUTEIL
  5
1710
 10
18.3564
 20
11.2399
 30
0.000000
  70
    32
  0
VERTEX
  8
BAUTEIL
  5
1711
 10
18.3388
 20
11.2730
 30
0.000000
  70
    32
  0
VERTEX
  8
BAUTEIL
  5
1712
 10
18.3207
 20
11.3059
 30
0.000000
  70
    32
  0
VERTEX
  8
BAUTEIL
  5
1713
 10
18.3022
 20
11.3386
 30
0.000000
  70
    32
  0
VERTEX
  8
BAUTEIL
  5
1714
 10
18.2832
 20
11.3710
 30
0.000000
  70
    32
  0
VERTEX
  8
BAUTEIL
  5
1715
 10
18.2637
 20
11.4031
 30
0.000000
  70
    32
  0
VERTEX
  8
BAUTEIL
  5
1716
 10
18.2438
 20
11.4349
 30
0.000000
  70
    32
  0
VERTEX
  8
BAUTEIL
  5
1717
 10
18.2235
 20
11.4664
 30
0.000000
  70
    32
  0
VERTEX
  8
BAUTEIL
  5
1718
 10
18.2027
 20
11.4976
 30
0.000000
  70
    32
  0
VERTEX
  8
BAUTEIL
  5
1719
 10
18.1816
 20
11.5283
 30
0.000000
  70
    32
  0
VERTEX
  8
BAUTEIL
  5
171A
 10
18.1600
 20
11.5587
 30
0.000000
  70
    32
  0
VERTEX
  8
BAUTEIL
  5
171B
 10
18.1381
 20
11.5887
 30
0.000000
  70
    32
  0
VERTEX
  8
BAUTEIL
  5
171C
 10
18.1159
 20
11.6183
 30
0.000000
  70
    32
  0
VERTEX
  8
BAUTEIL
  5
171D
 10
18.0932
 20
11.6475
 30
0.000000
  70
    32
  0
VERTEX
  8
BAUTEIL
  5
171E
 10
18.0703
 20
11.6762
 30
0.000000
  70
    32
  0
VERTEX
  8
BAUTEIL
  5
171F
 10
18.0470
 20
11.7044
 30
0.000000
  70
    32
  0
VERTEX
  8
BAUTEIL
  5
1720
 10
18.0234
 20
11.7322
 30
0.000000
  70
    32
  0
VERTEX
  8
BAUTEIL
  5
1721
 10
17.9996
 20
11.7594
 30
0.000000
  70
    32
  0
VERTEX
  8
BAUTEIL
  5
1722
 10
17.9754
 20
11.7861
 30
0.000000
  70
    32
  0
VERTEX
  8
BAUTEIL
  5
1723
 10
17.9510
 20
11.8123
 30
0.000000
  70
    32
  0
VERTEX
  8
BAUTEIL
  5
1724
 10
17.9263
 20
11.8379
 30
0.000000
  70
    32
  0
VERTEX
  8
BAUTEIL
  5
1725
 10
17.9014
 20
11.8630
 30
0.000000
  70
    32
  0
VERTEX
  8
BAUTEIL
  5
1726
 10
17.8763
 20
11.8875
 30
0.000000
  70
    32
  0
VERTEX
  8
BAUTEIL
  5
1727
 10
17.8510
 20
11.9114
 30
0.000000
  70
    32
  0
VERTEX
  8
BAUTEIL
  5
1728
 10
17.8254
 20
11.9347
 30
0.000000
  70
    32
  0
VERTEX
  8
BAUTEIL
  5
1729
 10
17.7998
 20
11.9573
 30
0.000000
  70
    32
  0
VERTEX
  8
BAUTEIL
  5
172A
 10
17.7739
 20
11.9793
 30
0.000000
  70
    32
  0
VERTEX
  8
BAUTEIL
  5
172B
 10
17.7479
 20
12.0007
 30
0.000000
  70
    32
  0
VERTEX
  8
BAUTEIL
  5
172C
 10
17.7218
 20
12.0214
 30
0.000000
  70
    32
  0
VERTEX
  8
BAUTEIL
  5
172D
 10
17.6956
 20
12.0414
 30
0.000000
  70
    32
  0
VERTEX
  8
BAUTEIL
  5
172E
 10
17.6692
 20
12.0607
 30
0.000000
  70
    32
  0
VERTEX
  8
BAUTEIL
  5
172F
 10
17.6428
 20
12.0794
 30
0.000000
  70
    32
  0
VERTEX
  8
BAUTEIL
  5
1730
 10
17.6164
 20
12.0973
 30
0.000000
  70
    32
  0
VERTEX
  8
BAUTEIL
  5
1731
 10
17.5898
 20
12.1145
 30
0.000000
  70
    32
  0
VERTEX
  8
BAUTEIL
  5
1732
 10
17.5633
 20
12.1309
 30
0.000000
  70
    32
  0
VERTEX
  8
BAUTEIL
  5
1733
 10
17.5367
 20
12.1466
 30
0.000000
  70
    32
  0
VERTEX
  8
BAUTEIL
  5
1734
 10
17.5102
 20
12.1616
 30
0.000000
  70
    32
  0
VERTEX
  8
BAUTEIL
  5
1735
 10
17.4836
 20
12.1758
 30
0.000000
  70
    32
  0
VERTEX
  8
BAUTEIL
  5
1736
 10
17.4571
 20
12.1892
 30
0.000000
  70
    32
  0
VERTEX
  8
BAUTEIL
  5
1737
 10
17.4306
 20
12.2019
 30
0.000000
  70
    32
  0
VERTEX
  8
BAUTEIL
  5
1738
 10
17.4042
 20
12.2138
 30
0.000000
  70
    32
  0
VERTEX
  8
BAUTEIL
  5
1739
 10
17.3779
 20
12.2248
 30
0.000000
  70
    32
  0
VERTEX
  8
BAUTEIL
  5
173A
 10
17.3517
 20
12.2351
 30
0.000000
  70
    32
  0
VERTEX
  8
BAUTEIL
  5
173B
 10
17.3255
 20
12.2446
 30
0.000000
  70
    32
  0
VERTEX
  8
BAUTEIL
  5
173C
 10
17.2995
 20
12.2532
 30
0.000000
  70
    32
  0
VERTEX
  8
BAUTEIL
  5
173D
 10
17.2737
 20
12.2611
 30
0.000000
  70
    32
  0
VERTEX
  8
BAUTEIL
  5
173E
 10
17.2480
 20
12.2681
 30
0.000000
  70
    32
  0
VERTEX
  8
BAUTEIL
  5
173F
 10
17.2225
 20
12.2743
 30
0.000000
  70
    32
  0
VERTEX
  8
BAUTEIL
  5
1740
 10
17.1972
 20
12.2796
 30
0.000000
  70
    32
  0
VERTEX
  8
BAUTEIL
  5
1741
 10
17.1720
 20
12.2841
 30
0.000000
  70
    32
  0
VERTEX
  8
BAUTEIL
  5
1742
 10
17.1471
 20
12.2878
 30
0.000000
  70
    32
  0
VERTEX
  8
BAUTEIL
  5
1743
 10
17.1225
 20
12.2907
 30
0.000000
  70
    32
  0
VERTEX
  8
BAUTEIL
  5
1744
 10
17.0980
 20
12.2927
 30
0.000000
  70
    32
  0
VERTEX
  8
BAUTEIL
  5
1745
 10
17.0739
 20
12.2939
 30
0.000000
  70
    32
  0
VERTEX
  8
BAUTEIL
  5
1746
 10
17.0500
 20
12.2942
 30
0.000000
  70
    32
  0
VERTEX
  8
BAUTEIL
  5
1747
 10
17.0264
 20
12.2937
 30
0.000000
  70
    32
  0
VERTEX
  8
BAUTEIL
  5
1748
 10
17.0031
 20
12.2923
 30
0.000000
  70
    32
  0
VERTEX
  8
BAUTEIL
  5
1749
 10
16.9802
 20
12.2901
 30
0.000000
  70
    32
  0
VERTEX
  8
BAUTEIL
  5
174A
 10
16.9576
 20
12.2871
 30
0.000000
  70
    32
  0
VERTEX
  8
BAUTEIL
  5
174B
 10
16.9353
 20
12.2832
 30
0.000000
  70
    32
  0
VERTEX
  8
BAUTEIL
  5
174C
 10
16.9134
 20
12.2785
 30
0.000000
  70
    32
  0
VERTEX
  8
BAUTEIL
  5
174D
 10
16.8919
 20
12.2730
 30
0.000000
  70
    32
  0
VERTEX
  8
BAUTEIL
  5
174E
 10
16.8707
 20
12.2666
 30
0.000000
  70
    32
  0
VERTEX
  8
BAUTEIL
  5
174F
 10
16.8500
 20
12.2594
 30
0.000000
  70
    32
  0
VERTEX
  8
BAUTEIL
  5
1750
 10
16.8296
 20
12.2514
 30
0.000000
  70
    32
  0
VERTEX
  8
BAUTEIL
  5
1751
 10
16.8097
 20
12.2426
 30
0.000000
  70
    32
  0
VERTEX
  8
BAUTEIL
  5
1752
 10
16.7903
 20
12.2329
 30
0.000000
  70
    32
  0
VERTEX
  8
BAUTEIL
  5
1753
 10
16.7713
 20
12.2225
 30
0.000000
  70
    32
  0
SEQEND
  8
BAUTEIL
  5
1754
  0
POLYLINE
  5
9BC
  8
BAUTEIL
  6
CONTINUOUS
 62
     7
 10
16.841299133528132
 20
9.0637717718248485
 30
0.0
 66
     1
 70
     8
  0
VERTEX
  8
BAUTEIL
  5
1755
 10
16.8413
 20
9.06377
 30
0.000000
  70
    32
  0
VERTEX
  8
BAUTEIL
  5
1756
 10
16.8779
 20
9.05013
 30
0.000000
  70
    32
  0
VERTEX
  8
BAUTEIL
  5
1757
 10
16.9143
 20
9.03808
 30
0.000000
  70
    32
  0
VERTEX
  8
BAUTEIL
  5
1758
 10
16.9503
 20
9.02763
 30
0.000000
  70
    32
  0
VERTEX
  8
BAUTEIL
  5
1759
 10
16.9861
 20
9.01879
 30
0.000000
  70
    32
  0
VERTEX
  8
BAUTEIL
  5
175A
 10
17.0214
 20
9.01158
 30
0.000000
  70
    32
  0
VERTEX
  8
BAUTEIL
  5
175B
 10
17.0564
 20
9.00600
 30
0.000000
  70
    32
  0
VERTEX
  8
BAUTEIL
  5
175C
 10
17.0909
 20
9.00207
 30
0.000000
  70
    32
  0
VERTEX
  8
BAUTEIL
  5
175D
 10
17.1249
 20
8.99977
 30
0.000000
  70
    32
  0
VERTEX
  8
BAUTEIL
  5
175E
 10
17.1584
 20
8.99913
 30
0.000000
  70
    32
  0
VERTEX
  8
BAUTEIL
  5
175F
 10
17.1913
 20
9.00013
 30
0.000000
  70
    32
  0
VERTEX
  8
BAUTEIL
  5
1760
 10
17.2236
 20
9.00278
 30
0.000000
  70
    32
  0
VERTEX
  8
BAUTEIL
  5
1761
 10
17.2552
 20
9.00707
 30
0.000000
  70
    32
  0
VERTEX
  8
BAUTEIL
  5
1762
 10
17.2861
 20
9.01300
 30
0.000000
  70
    32
  0
VERTEX
  8
BAUTEIL
  5
1763
 10
17.3163
 20
9.02057
 30
0.000000
  70
    32
  0
VERTEX
  8
BAUTEIL
  5
1764
 10
17.3458
 20
9.02975
 30
0.000000
  70
    32
  0
VERTEX
  8
BAUTEIL
  5
1765
 10
17.3745
 20
9.04055
 30
0.000000
  70
    32
  0
VERTEX
  8
BAUTEIL
  5
1766
 10
17.4023
 20
9.05295
 30
0.000000
  70
    32
  0
VERTEX
  8
BAUTEIL
  5
1767
 10
17.4293
 20
9.06693
 30
0.000000
  70
    32
  0
VERTEX
  8
BAUTEIL
  5
1768
 10
17.4553
 20
9.08248
 30
0.000000
  70
    32
  0
VERTEX
  8
BAUTEIL
  5
1769
 10
17.4805
 20
9.09958
 30
0.000000
  70
    32
  0
VERTEX
  8
BAUTEIL
  5
176A
 10
17.5047
 20
9.11821
 30
0.000000
  70
    32
  0
VERTEX
  8
BAUTEIL
  5
176B
 10
17.5279
 20
9.13835
 30
0.000000
  70
    32
  0
VERTEX
  8
BAUTEIL
  5
176C
 10
17.5501
 20
9.15997
 30
0.000000
  70
    32
  0
VERTEX
  8
BAUTEIL
  5
176D
 10
17.5712
 20
9.18305
 30
0.000000
  70
    32
  0
VERTEX
  8
BAUTEIL
  5
176E
 10
17.5913
 20
9.20756
 30
0.000000
  70
    32
  0
VERTEX
  8
BAUTEIL
  5
176F
 10
17.6103
 20
9.23347
 30
0.000000
  70
    32
  0
VERTEX
  8
BAUTEIL
  5
1770
 10
17.6282
 20
9.26076
 30
0.000000
  70
    32
  0
VERTEX
  8
BAUTEIL
  5
1771
 10
17.6450
 20
9.28938
 30
0.000000
  70
    32
  0
VERTEX
  8
BAUTEIL
  5
1772
 10
17.6606
 20
9.31931
 30
0.000000
  70
    32
  0
VERTEX
  8
BAUTEIL
  5
1773
 10
17.6751
 20
9.35051
 30
0.000000
  70
    32
  0
VERTEX
  8
BAUTEIL
  5
1774
 10
17.6883
 20
9.38295
 30
0.000000
  70
    32
  0
VERTEX
  8
BAUTEIL
  5
1775
 10
17.7004
 20
9.41658
 30
0.000000
  70
    32
  0
VERTEX
  8
BAUTEIL
  5
1776
 10
17.7113
 20
9.45136
 30
0.000000
  70
    32
  0
VERTEX
  8
BAUTEIL
  5
1777
 10
17.7209
 20
9.48726
 30
0.000000
  70
    32
  0
VERTEX
  8
BAUTEIL
  5
1778
 10
17.7293
 20
9.52423
 30
0.000000
  70
    32
  0
VERTEX
  8
BAUTEIL
  5
1779
 10
17.7364
 20
9.56224
 30
0.000000
  70
    32
  0
VERTEX
  8
BAUTEIL
  5
177A
 10
17.7423
 20
9.60122
 30
0.000000
  70
    32
  0
VERTEX
  8
BAUTEIL
  5
177B
 10
17.7470
 20
9.64114
 30
0.000000
  70
    32
  0
VERTEX
  8
BAUTEIL
  5
177C
 10
17.7503
 20
9.68196
 30
0.000000
  70
    32
  0
VERTEX
  8
BAUTEIL
  5
177D
 10
17.7524
 20
9.72362
 30
0.000000
  70
    32
  0
VERTEX
  8
BAUTEIL
  5
177E
 10
17.7532
 20
9.76607
 30
0.000000
  70
    32
  0
VERTEX
  8
BAUTEIL
  5
177F
 10
17.7527
 20
9.80926
 30
0.000000
  70
    32
  0
VERTEX
  8
BAUTEIL
  5
1780
 10
17.7510
 20
9.85315
 30
0.000000
  70
    32
  0
VERTEX
  8
BAUTEIL
  5
1781
 10
17.7479
 20
9.89768
 30
0.000000
  70
    32
  0
VERTEX
  8
BAUTEIL
  5
1782
 10
17.7437
 20
9.94279
 30
0.000000
  70
    32
  0
VERTEX
  8
BAUTEIL
  5
1783
 10
17.7381
 20
9.98845
 30
0.000000
  70
    32
  0
VERTEX
  8
BAUTEIL
  5
1784
 10
17.7313
 20
10.0346
 30
0.000000
  70
    32
  0
VERTEX
  8
BAUTEIL
  5
1785
 10
17.7232
 20
10.0811
 30
0.000000
  70
    32
  0
VERTEX
  8
BAUTEIL
  5
1786
 10
17.7139
 20
10.1281
 30
0.000000
  70
    32
  0
VERTEX
  8
BAUTEIL
  5
1787
 10
17.7034
 20
10.1753
 30
0.000000
  70
    32
  0
VERTEX
  8
BAUTEIL
  5
1788
 10
17.6916
 20
10.2228
 30
0.000000
  70
    32
  0
VERTEX
  8
BAUTEIL
  5
1789
 10
17.6787
 20
10.2705
 30
0.000000
  70
    32
  0
VERTEX
  8
BAUTEIL
  5
178A
 10
17.6645
 20
10.3184
 30
0.000000
  70
    32
  0
VERTEX
  8
BAUTEIL
  5
178B
 10
17.6492
 20
10.3664
 30
0.000000
  70
    32
  0
VERTEX
  8
BAUTEIL
  5
178C
 10
17.6327
 20
10.4144
 30
0.000000
  70
    32
  0
VERTEX
  8
BAUTEIL
  5
178D
 10
17.6151
 20
10.4623
 30
0.000000
  70
    32
  0
VERTEX
  8
BAUTEIL
  5
178E
 10
17.5964
 20
10.5102
 30
0.000000
  70
    32
  0
VERTEX
  8
BAUTEIL
  5
178F
 10
17.5766
 20
10.5580
 30
0.000000
  70
    32
  0
VERTEX
  8
BAUTEIL
  5
1790
 10
17.5557
 20
10.6056
 30
0.000000
  70
    32
  0
VERTEX
  8
BAUTEIL
  5
1791
 10
17.5337
 20
10.6529
 30
0.000000
  70
    32
  0
VERTEX
  8
BAUTEIL
  5
1792
 10
17.5108
 20
10.6999
 30
0.000000
  70
    32
  0
VERTEX
  8
BAUTEIL
  5
1793
 10
17.4869
 20
10.7466
 30
0.000000
  70
    32
  0
VERTEX
  8
BAUTEIL
  5
1794
 10
17.4620
 20
10.7928
 30
0.000000
  70
    32
  0
VERTEX
  8
BAUTEIL
  5
1795
 10
17.4361
 20
10.8386
 30
0.000000
  70
    32
  0
VERTEX
  8
BAUTEIL
  5
1796
 10
17.4094
 20
10.8839
 30
0.000000
  70
    32
  0
VERTEX
  8
BAUTEIL
  5
1797
 10
17.3818
 20
10.9285
 30
0.000000
  70
    32
  0
VERTEX
  8
BAUTEIL
  5
1798
 10
17.3534
 20
10.9726
 30
0.000000
  70
    32
  0
VERTEX
  8
BAUTEIL
  5
1799
 10
17.3241
 20
11.0160
 30
0.000000
  70
    32
  0
VERTEX
  8
BAUTEIL
  5
179A
 10
17.2941
 20
11.0586
 30
0.000000
  70
    32
  0
VERTEX
  8
BAUTEIL
  5
179B
 10
17.2633
 20
11.1005
 30
0.000000
  70
    32
  0
VERTEX
  8
BAUTEIL
  5
179C
 10
17.2319
 20
11.1416
 30
0.000000
  70
    32
  0
VERTEX
  8
BAUTEIL
  5
179D
 10
17.1998
 20
11.1817
 30
0.000000
  70
    32
  0
VERTEX
  8
BAUTEIL
  5
179E
 10
17.1670
 20
11.2209
 30
0.000000
  70
    32
  0
VERTEX
  8
BAUTEIL
  5
179F
 10
17.1337
 20
11.2592
 30
0.000000
  70
    32
  0
VERTEX
  8
BAUTEIL
  5
17A0
 10
17.0998
 20
11.2965
 30
0.000000
  70
    32
  0
VERTEX
  8
BAUTEIL
  5
17A1
 10
17.0655
 20
11.3326
 30
0.000000
  70
    32
  0
VERTEX
  8
BAUTEIL
  5
17A2
 10
17.0306
 20
11.3677
 30
0.000000
  70
    32
  0
VERTEX
  8
BAUTEIL
  5
17A3
 10
16.9953
 20
11.4017
 30
0.000000
  70
    32
  0
VERTEX
  8
BAUTEIL
  5
17A4
 10
16.9597
 20
11.4344
 30
0.000000
  70
    32
  0
VERTEX
  8
BAUTEIL
  5
17A5
 10
16.9237
 20
11.4659
 30
0.000000
  70
    32
  0
VERTEX
  8
BAUTEIL
  5
17A6
 10
16.8874
 20
11.4962
 30
0.000000
  70
    32
  0
VERTEX
  8
BAUTEIL
  5
17A7
 10
16.8509
 20
11.5252
 30
0.000000
  70
    32
  0
VERTEX
  8
BAUTEIL
  5
17A8
 10
16.8141
 20
11.5528
 30
0.000000
  70
    32
  0
VERTEX
  8
BAUTEIL
  5
17A9
 10
16.7772
 20
11.5791
 30
0.000000
  70
    32
  0
VERTEX
  8
BAUTEIL
  5
17AA
 10
16.7401
 20
11.6040
 30
0.000000
  70
    32
  0
VERTEX
  8
BAUTEIL
  5
17AB
 10
16.7030
 20
11.6274
 30
0.000000
  70
    32
  0
VERTEX
  8
BAUTEIL
  5
17AC
 10
16.6658
 20
11.6494
 30
0.000000
  70
    32
  0
VERTEX
  8
BAUTEIL
  5
17AD
 10
16.6287
 20
11.6700
 30
0.000000
  70
    32
  0
VERTEX
  8
BAUTEIL
  5
17AE
 10
16.5915
 20
11.6890
 30
0.000000
  70
    32
  0
VERTEX
  8
BAUTEIL
  5
17AF
 10
16.5545
 20
11.7065
 30
0.000000
  70
    32
  0
VERTEX
  8
BAUTEIL
  5
17B0
 10
16.5176
 20
11.7225
 30
0.000000
  70
    32
  0
VERTEX
  8
BAUTEIL
  5
17B1
 10
16.4809
 20
11.7369
 30
0.000000
  70
    32
  0
VERTEX
  8
BAUTEIL
  5
17B2
 10
16.4444
 20
11.7497
 30
0.000000
  70
    32
  0
VERTEX
  8
BAUTEIL
  5
17B3
 10
16.4082
 20
11.7609
 30
0.000000
  70
    32
  0
VERTEX
  8
BAUTEIL
  5
17B4
 10
16.3723
 20
11.7705
 30
0.000000
  70
    32
  0
VERTEX
  8
BAUTEIL
  5
17B5
 10
16.3368
 20
11.7785
 30
0.000000
  70
    32
  0
VERTEX
  8
BAUTEIL
  5
17B6
 10
16.3016
 20
11.7849
 30
0.000000
  70
    32
  0
VERTEX
  8
BAUTEIL
  5
17B7
 10
16.2669
 20
11.7896
 30
0.000000
  70
    32
  0
VERTEX
  8
BAUTEIL
  5
17B8
 10
16.2326
 20
11.7927
 30
0.000000
  70
    32
  0
VERTEX
  8
BAUTEIL
  5
17B9
 10
16.1989
 20
11.7941
 30
0.000000
  70
    32
  0
VERTEX
  8
BAUTEIL
  5
17BA
 10
16.1657
 20
11.7939
 30
0.000000
  70
    32
  0
VERTEX
  8
BAUTEIL
  5
17BB
 10
16.1331
 20
11.7920
 30
0.000000
  70
    32
  0
VERTEX
  8
BAUTEIL
  5
17BC
 10
16.1012
 20
11.7885
 30
0.000000
  70
    32
  0
VERTEX
  8
BAUTEIL
  5
17BD
 10
16.0699
 20
11.7834
 30
0.000000
  70
    32
  0
VERTEX
  8
BAUTEIL
  5
17BE
 10
16.0394
 20
11.7766
 30
0.000000
  70
    32
  0
VERTEX
  8
BAUTEIL
  5
17BF
 10
16.0095
 20
11.7682
 30
0.000000
  70
    32
  0
VERTEX
  8
BAUTEIL
  5
17C0
 10
15.9805
 20
11.7581
 30
0.000000
  70
    32
  0
VERTEX
  8
BAUTEIL
  5
17C1
 10
15.9523
 20
11.7465
 30
0.000000
  70
    32
  0
VERTEX
  8
BAUTEIL
  5
17C2
 10
15.9249
 20
11.7333
 30
0.000000
  70
    32
  0
VERTEX
  8
BAUTEIL
  5
17C3
 10
15.8984
 20
11.7185
 30
0.000000
  70
    32
  0
VERTEX
  8
BAUTEIL
  5
17C4
 10
15.8728
 20
11.7021
 30
0.000000
  70
    32
  0
VERTEX
  8
BAUTEIL
  5
17C5
 10
15.8481
 20
11.6842
 30
0.000000
  70
    32
  0
VERTEX
  8
BAUTEIL
  5
17C6
 10
15.8245
 20
11.6648
 30
0.000000
  70
    32
  0
VERTEX
  8
BAUTEIL
  5
17C7
 10
15.8018
 20
11.6439
 30
0.000000
  70
    32
  0
VERTEX
  8
BAUTEIL
  5
17C8
 10
15.7801
 20
11.6215
 30
0.000000
  70
    32
  0
VERTEX
  8
BAUTEIL
  5
17C9
 10
15.7595
 20
11.5977
 30
0.000000
  70
    32
  0
VERTEX
  8
BAUTEIL
  5
17CA
 10
15.7400
 20
11.5724
 30
0.000000
  70
    32
  0
VERTEX
  8
BAUTEIL
  5
17CB
 10
15.7215
 20
11.5458
 30
0.000000
  70
    32
  0
VERTEX
  8
BAUTEIL
  5
17CC
 10
15.7042
 20
11.5178
 30
0.000000
  70
    32
  0
VERTEX
  8
BAUTEIL
  5
17CD
 10
15.6881
 20
11.4885
 30
0.000000
  70
    32
  0
VERTEX
  8
BAUTEIL
  5
17CE
 10
15.6730
 20
11.4579
 30
0.000000
  70
    32
  0
VERTEX
  8
BAUTEIL
  5
17CF
 10
15.6592
 20
11.4261
 30
0.000000
  70
    32
  0
VERTEX
  8
BAUTEIL
  5
17D0
 10
15.6465
 20
11.3930
 30
0.000000
  70
    32
  0
VERTEX
  8
BAUTEIL
  5
17D1
 10
15.6351
 20
11.3588
 30
0.000000
  70
    32
  0
VERTEX
  8
BAUTEIL
  5
17D2
 10
15.6249
 20
11.3234
 30
0.000000
  70
    32
  0
VERTEX
  8
BAUTEIL
  5
17D3
 10
15.6159
 20
11.2869
 30
0.000000
  70
    32
  0
VERTEX
  8
BAUTEIL
  5
17D4
 10
15.6082
 20
11.2494
 30
0.000000
  70
    32
  0
VERTEX
  8
BAUTEIL
  5
17D5
 10
15.6017
 20
11.2109
 30
0.000000
  70
    32
  0
SEQEND
  8
BAUTEIL
  5
17D6
  0
LINE
  5
9BD
  8
BAUTEIL
  6
CONTINUOUS
 62
     6
 10
21.520429521134361
 20
5.9966663864025804
 30
0.0
 11
25.504133134415611
 21
8.2966541793713304
 31
0.0
  0
LINE
  5
9BE
  8
BAUTEIL
  6
CONTINUOUS
 62
     7
 10
27.062971025040611
 20
10.39662976530883
 30
0.0
 11
21.000776200821861
 21
6.8966297653088304
 31
0.0
  0
LINE
  5
9BF
  8
BAUTEIL
  6
CONTINUOUS
 62
     6
 10
18.685590653946861
 20
8.2332996871838304
 30
0.0
 11
21.000776200821861
 21
6.8966297653088304
 31
0.0
  0
LINE
  5
9C0
  8
BAUTEIL
  6
CONTINUOUS
 62
     7
 10
18.548353105118728
 20
8.2160572555432054
 30
0.0
 11
18.359418778946861
 21
7.8216480758557054
 31
0.0
  0
POLYLINE
  5
9C1
  8
BAUTEIL
  6
CONTINUOUS
 62
     6
 10
18.359402651869832
 20
7.8216283493456178
 30
0.0
 66
     1
 70
     8
  0
VERTEX
  8
BAUTEIL
  5
17D7
 10
18.3594
 20
7.82163
 30
0.000000
  70
    32
  0
VERTEX
  8
BAUTEIL
  5
17D8
 10
18.3600
 20
7.82467
 30
0.000000
  70
    32
  0
VERTEX
  8
BAUTEIL
  5
17D9
 10
18.3606
 20
7.82770
 30
0.000000
  70
    32
  0
VERTEX
  8
BAUTEIL
  5
17DA
 10
18.3612
 20
7.83074
 30
0.000000
  70
    32
  0
VERTEX
  8
BAUTEIL
  5
17DB
 10
18.3618
 20
7.83378
 30
0.000000
  70
    32
  0
VERTEX
  8
BAUTEIL
  5
17DC
 10
18.3625
 20
7.83682
 30
0.000000
  70
    32
  0
VERTEX
  8
BAUTEIL
  5
17DD
 10
18.3631
 20
7.83986
 30
0.000000
  70
    32
  0
VERTEX
  8
BAUTEIL
  5
17DE
 10
18.3637
 20
7.84290
 30
0.000000
  70
    32
  0
VERTEX
  8
BAUTEIL
  5
17DF
 10
18.3643
 20
7.84594
 30
0.000000
  70
    32
  0
VERTEX
  8
BAUTEIL
  5
17E0
 10
18.3649
 20
7.84898
 30
0.000000
  70
    32
  0
VERTEX
  8
BAUTEIL
  5
17E1
 10
18.3655
 20
7.85202
 30
0.000000
  70
    32
  0
VERTEX
  8
BAUTEIL
  5
17E2
 10
18.3661
 20
7.85506
 30
0.000000
  70
    32
  0
VERTEX
  8
BAUTEIL
  5
17E3
 10
18.3667
 20
7.85811
 30
0.000000
  70
    32
  0
VERTEX
  8
BAUTEIL
  5
17E4
 10
18.3673
 20
7.86115
 30
0.000000
  70
    32
  0
VERTEX
  8
BAUTEIL
  5
17E5
 10
18.3679
 20
7.86419
 30
0.000000
  70
    32
  0
VERTEX
  8
BAUTEIL
  5
17E6
 10
18.3685
 20
7.86723
 30
0.000000
  70
    32
  0
VERTEX
  8
BAUTEIL
  5
17E7
 10
18.3691
 20
7.87028
 30
0.000000
  70
    32
  0
VERTEX
  8
BAUTEIL
  5
17E8
 10
18.3697
 20
7.87332
 30
0.000000
  70
    32
  0
VERTEX
  8
BAUTEIL
  5
17E9
 10
18.3703
 20
7.87637
 30
0.000000
  70
    32
  0
VERTEX
  8
BAUTEIL
  5
17EA
 10
18.3709
 20
7.87941
 30
0.000000
  70
    32
  0
VERTEX
  8
BAUTEIL
  5
17EB
 10
18.3715
 20
7.88246
 30
0.000000
  70
    32
  0
VERTEX
  8
BAUTEIL
  5
17EC
 10
18.3721
 20
7.88550
 30
0.000000
  70
    32
  0
VERTEX
  8
BAUTEIL
  5
17ED
 10
18.3727
 20
7.88855
 30
0.000000
  70
    32
  0
VERTEX
  8
BAUTEIL
  5
17EE
 10
18.3734
 20
7.89160
 30
0.000000
  70
    32
  0
VERTEX
  8
BAUTEIL
  5
17EF
 10
18.3740
 20
7.89464
 30
0.000000
  70
    32
  0
VERTEX
  8
BAUTEIL
  5
17F0
 10
18.3746
 20
7.89769
 30
0.000000
  70
    32
  0
VERTEX
  8
BAUTEIL
  5
17F1
 10
18.3751
 20
7.90074
 30
0.000000
  70
    32
  0
VERTEX
  8
BAUTEIL
  5
17F2
 10
18.3757
 20
7.90379
 30
0.000000
  70
    32
  0
VERTEX
  8
BAUTEIL
  5
17F3
 10
18.3763
 20
7.90683
 30
0.000000
  70
    32
  0
VERTEX
  8
BAUTEIL
  5
17F4
 10
18.3769
 20
7.90988
 30
0.000000
  70
    32
  0
VERTEX
  8
BAUTEIL
  5
17F5
 10
18.3775
 20
7.91293
 30
0.000000
  70
    32
  0
VERTEX
  8
BAUTEIL
  5
17F6
 10
18.3781
 20
7.91598
 30
0.000000
  70
    32
  0
VERTEX
  8
BAUTEIL
  5
17F7
 10
18.3787
 20
7.91903
 30
0.000000
  70
    32
  0
VERTEX
  8
BAUTEIL
  5
17F8
 10
18.3793
 20
7.92208
 30
0.000000
  70
    32
  0
VERTEX
  8
BAUTEIL
  5
17F9
 10
18.3799
 20
7.92514
 30
0.000000
  70
    32
  0
VERTEX
  8
BAUTEIL
  5
17FA
 10
18.3805
 20
7.92819
 30
0.000000
  70
    32
  0
VERTEX
  8
BAUTEIL
  5
17FB
 10
18.3811
 20
7.93124
 30
0.000000
  70
    32
  0
VERTEX
  8
BAUTEIL
  5
17FC
 10
18.3817
 20
7.93429
 30
0.000000
  70
    32
  0
VERTEX
  8
BAUTEIL
  5
17FD
 10
18.3823
 20
7.93734
 30
0.000000
  70
    32
  0
VERTEX
  8
BAUTEIL
  5
17FE
 10
18.3829
 20
7.94040
 30
0.000000
  70
    32
  0
VERTEX
  8
BAUTEIL
  5
17FF
 10
18.3835
 20
7.94345
 30
0.000000
  70
    32
  0
VERTEX
  8
BAUTEIL
  5
1800
 10
18.3841
 20
7.94651
 30
0.000000
  70
    32
  0
VERTEX
  8
BAUTEIL
  5
1801
 10
18.3847
 20
7.94956
 30
0.000000
  70
    32
  0
VERTEX
  8
BAUTEIL
  5
1802
 10
18.3853
 20
7.95261
 30
0.000000
  70
    32
  0
VERTEX
  8
BAUTEIL
  5
1803
 10
18.3859
 20
7.95567
 30
0.000000
  70
    32
  0
VERTEX
  8
BAUTEIL
  5
1804
 10
18.3864
 20
7.95873
 30
0.000000
  70
    32
  0
VERTEX
  8
BAUTEIL
  5
1805
 10
18.3870
 20
7.96178
 30
0.000000
  70
    32
  0
VERTEX
  8
BAUTEIL
  5
1806
 10
18.3876
 20
7.96484
 30
0.000000
  70
    32
  0
VERTEX
  8
BAUTEIL
  5
1807
 10
18.3882
 20
7.96790
 30
0.000000
  70
    32
  0
VERTEX
  8
BAUTEIL
  5
1808
 10
18.3888
 20
7.97095
 30
0.000000
  70
    32
  0
VERTEX
  8
BAUTEIL
  5
1809
 10
18.3894
 20
7.97401
 30
0.000000
  70
    32
  0
VERTEX
  8
BAUTEIL
  5
180A
 10
18.3900
 20
7.97707
 30
0.000000
  70
    32
  0
VERTEX
  8
BAUTEIL
  5
180B
 10
18.3906
 20
7.98013
 30
0.000000
  70
    32
  0
VERTEX
  8
BAUTEIL
  5
180C
 10
18.3911
 20
7.98319
 30
0.000000
  70
    32
  0
VERTEX
  8
BAUTEIL
  5
180D
 10
18.3917
 20
7.98625
 30
0.000000
  70
    32
  0
VERTEX
  8
BAUTEIL
  5
180E
 10
18.3923
 20
7.98931
 30
0.000000
  70
    32
  0
VERTEX
  8
BAUTEIL
  5
180F
 10
18.3929
 20
7.99237
 30
0.000000
  70
    32
  0
VERTEX
  8
BAUTEIL
  5
1810
 10
18.3935
 20
7.99543
 30
0.000000
  70
    32
  0
VERTEX
  8
BAUTEIL
  5
1811
 10
18.3941
 20
7.99849
 30
0.000000
  70
    32
  0
VERTEX
  8
BAUTEIL
  5
1812
 10
18.3946
 20
8.00155
 30
0.000000
  70
    32
  0
VERTEX
  8
BAUTEIL
  5
1813
 10
18.3952
 20
8.00461
 30
0.000000
  70
    32
  0
VERTEX
  8
BAUTEIL
  5
1814
 10
18.3958
 20
8.00767
 30
0.000000
  70
    32
  0
VERTEX
  8
BAUTEIL
  5
1815
 10
18.3964
 20
8.01074
 30
0.000000
  70
    32
  0
VERTEX
  8
BAUTEIL
  5
1816
 10
18.3970
 20
8.01380
 30
0.000000
  70
    32
  0
VERTEX
  8
BAUTEIL
  5
1817
 10
18.3975
 20
8.01686
 30
0.000000
  70
    32
  0
VERTEX
  8
BAUTEIL
  5
1818
 10
18.3981
 20
8.01993
 30
0.000000
  70
    32
  0
VERTEX
  8
BAUTEIL
  5
1819
 10
18.3987
 20
8.02299
 30
0.000000
  70
    32
  0
VERTEX
  8
BAUTEIL
  5
181A
 10
18.3993
 20
8.02606
 30
0.000000
  70
    32
  0
VERTEX
  8
BAUTEIL
  5
181B
 10
18.3999
 20
8.02912
 30
0.000000
  70
    32
  0
VERTEX
  8
BAUTEIL
  5
181C
 10
18.4004
 20
8.03219
 30
0.000000
  70
    32
  0
VERTEX
  8
BAUTEIL
  5
181D
 10
18.4010
 20
8.03525
 30
0.000000
  70
    32
  0
VERTEX
  8
BAUTEIL
  5
181E
 10
18.4016
 20
8.03832
 30
0.000000
  70
    32
  0
VERTEX
  8
BAUTEIL
  5
181F
 10
18.4022
 20
8.04139
 30
0.000000
  70
    32
  0
VERTEX
  8
BAUTEIL
  5
1820
 10
18.4027
 20
8.04445
 30
0.000000
  70
    32
  0
VERTEX
  8
BAUTEIL
  5
1821
 10
18.4033
 20
8.04752
 30
0.000000
  70
    32
  0
VERTEX
  8
BAUTEIL
  5
1822
 10
18.4039
 20
8.05059
 30
0.000000
  70
    32
  0
VERTEX
  8
BAUTEIL
  5
1823
 10
18.4045
 20
8.05366
 30
0.000000
  70
    32
  0
VERTEX
  8
BAUTEIL
  5
1824
 10
18.4050
 20
8.05673
 30
0.000000
  70
    32
  0
VERTEX
  8
BAUTEIL
  5
1825
 10
18.4056
 20
8.05979
 30
0.000000
  70
    32
  0
VERTEX
  8
BAUTEIL
  5
1826
 10
18.4062
 20
8.06286
 30
0.000000
  70
    32
  0
VERTEX
  8
BAUTEIL
  5
1827
 10
18.4068
 20
8.06593
 30
0.000000
  70
    32
  0
VERTEX
  8
BAUTEIL
  5
1828
 10
18.4073
 20
8.06900
 30
0.000000
  70
    32
  0
VERTEX
  8
BAUTEIL
  5
1829
 10
18.4079
 20
8.07208
 30
0.000000
  70
    32
  0
VERTEX
  8
BAUTEIL
  5
182A
 10
18.4085
 20
8.07515
 30
0.000000
  70
    32
  0
VERTEX
  8
BAUTEIL
  5
182B
 10
18.4090
 20
8.07822
 30
0.000000
  70
    32
  0
VERTEX
  8
BAUTEIL
  5
182C
 10
18.4096
 20
8.08129
 30
0.000000
  70
    32
  0
VERTEX
  8
BAUTEIL
  5
182D
 10
18.4102
 20
8.08436
 30
0.000000
  70
    32
  0
VERTEX
  8
BAUTEIL
  5
182E
 10
18.4107
 20
8.08744
 30
0.000000
  70
    32
  0
VERTEX
  8
BAUTEIL
  5
182F
 10
18.4113
 20
8.09051
 30
0.000000
  70
    32
  0
VERTEX
  8
BAUTEIL
  5
1830
 10
18.4119
 20
8.09358
 30
0.000000
  70
    32
  0
VERTEX
  8
BAUTEIL
  5
1831
 10
18.4124
 20
8.09666
 30
0.000000
  70
    32
  0
VERTEX
  8
BAUTEIL
  5
1832
 10
18.4130
 20
8.09973
 30
0.000000
  70
    32
  0
VERTEX
  8
BAUTEIL
  5
1833
 10
18.4136
 20
8.10281
 30
0.000000
  70
    32
  0
VERTEX
  8
BAUTEIL
  5
1834
 10
18.4141
 20
8.10588
 30
0.000000
  70
    32
  0
VERTEX
  8
BAUTEIL
  5
1835
 10
18.4147
 20
8.10896
 30
0.000000
  70
    32
  0
VERTEX
  8
BAUTEIL
  5
1836
 10
18.4153
 20
8.11203
 30
0.000000
  70
    32
  0
VERTEX
  8
BAUTEIL
  5
1837
 10
18.4158
 20
8.11511
 30
0.000000
  70
    32
  0
VERTEX
  8
BAUTEIL
  5
1838
 10
18.4164
 20
8.11819
 30
0.000000
  70
    32
  0
VERTEX
  8
BAUTEIL
  5
1839
 10
18.4170
 20
8.12127
 30
0.000000
  70
    32
  0
VERTEX
  8
BAUTEIL
  5
183A
 10
18.4175
 20
8.12434
 30
0.000000
  70
    32
  0
VERTEX
  8
BAUTEIL
  5
183B
 10
18.4181
 20
8.12742
 30
0.000000
  70
    32
  0
VERTEX
  8
BAUTEIL
  5
183C
 10
18.4186
 20
8.13050
 30
0.000000
  70
    32
  0
VERTEX
  8
BAUTEIL
  5
183D
 10
18.4192
 20
8.13358
 30
0.000000
  70
    32
  0
VERTEX
  8
BAUTEIL
  5
183E
 10
18.4198
 20
8.13666
 30
0.000000
  70
    32
  0
VERTEX
  8
BAUTEIL
  5
183F
 10
18.4203
 20
8.13974
 30
0.000000
  70
    32
  0
VERTEX
  8
BAUTEIL
  5
1840
 10
18.4209
 20
8.14282
 30
0.000000
  70
    32
  0
VERTEX
  8
BAUTEIL
  5
1841
 10
18.4214
 20
8.14590
 30
0.000000
  70
    32
  0
VERTEX
  8
BAUTEIL
  5
1842
 10
18.4220
 20
8.14898
 30
0.000000
  70
    32
  0
VERTEX
  8
BAUTEIL
  5
1843
 10
18.4226
 20
8.15206
 30
0.000000
  70
    32
  0
VERTEX
  8
BAUTEIL
  5
1844
 10
18.4231
 20
8.15514
 30
0.000000
  70
    32
  0
VERTEX
  8
BAUTEIL
  5
1845
 10
18.4237
 20
8.15823
 30
0.000000
  70
    32
  0
VERTEX
  8
BAUTEIL
  5
1846
 10
18.4242
 20
8.16131
 30
0.000000
  70
    32
  0
VERTEX
  8
BAUTEIL
  5
1847
 10
18.4248
 20
8.16439
 30
0.000000
  70
    32
  0
VERTEX
  8
BAUTEIL
  5
1848
 10
18.4253
 20
8.16748
 30
0.000000
  70
    32
  0
VERTEX
  8
BAUTEIL
  5
1849
 10
18.4259
 20
8.17056
 30
0.000000
  70
    32
  0
VERTEX
  8
BAUTEIL
  5
184A
 10
18.4264
 20
8.17364
 30
0.000000
  70
    32
  0
VERTEX
  8
BAUTEIL
  5
184B
 10
18.4270
 20
8.17673
 30
0.000000
  70
    32
  0
VERTEX
  8
BAUTEIL
  5
184C
 10
18.4276
 20
8.17981
 30
0.000000
  70
    32
  0
VERTEX
  8
BAUTEIL
  5
184D
 10
18.4281
 20
8.18290
 30
0.000000
  70
    32
  0
VERTEX
  8
BAUTEIL
  5
184E
 10
18.4287
 20
8.18599
 30
0.000000
  70
    32
  0
VERTEX
  8
BAUTEIL
  5
184F
 10
18.4292
 20
8.18907
 30
0.000000
  70
    32
  0
VERTEX
  8
BAUTEIL
  5
1850
 10
18.4298
 20
8.19216
 30
0.000000
  70
    32
  0
VERTEX
  8
BAUTEIL
  5
1851
 10
18.4303
 20
8.19525
 30
0.000000
  70
    32
  0
VERTEX
  8
BAUTEIL
  5
1852
 10
18.4309
 20
8.19833
 30
0.000000
  70
    32
  0
VERTEX
  8
BAUTEIL
  5
1853
 10
18.4314
 20
8.20142
 30
0.000000
  70
    32
  0
VERTEX
  8
BAUTEIL
  5
1854
 10
18.4320
 20
8.20451
 30
0.000000
  70
    32
  0
VERTEX
  8
BAUTEIL
  5
1855
 10
18.4325
 20
8.20760
 30
0.000000
  70
    32
  0
VERTEX
  8
BAUTEIL
  5
1856
 10
18.4331
 20
8.21069
 30
0.000000
  70
    32
  0
VERTEX
  8
BAUTEIL
  5
1857
 10
18.4336
 20
8.21378
 30
0.000000
  70
    32
  0
SEQEND
  8
BAUTEIL
  5
1858
  0
POLYLINE
  5
9C2
  8
BAUTEIL
  6
CONTINUOUS
 62
     6
 10
16.822863677554309
 20
9.0547485116423907
 30
0.0
 66
     1
 70
     8
  0
VERTEX
  8
BAUTEIL
  5
1859
 10
16.8229
 20
9.05475
 30
0.000000
  70
    32
  0
VERTEX
  8
BAUTEIL
  5
185A
 10
16.8372
 20
9.04053
 30
0.000000
  70
    32
  0
VERTEX
  8
BAUTEIL
  5
185B
 10
16.8515
 20
9.02640
 30
0.000000
  70
    32
  0
VERTEX
  8
BAUTEIL
  5
185C
 10
16.8659
 20
9.01238
 30
0.000000
  70
    32
  0
VERTEX
  8
BAUTEIL
  5
185D
 10
16.8803
 20
8.99845
 30
0.000000
  70
    32
  0
VERTEX
  8
BAUTEIL
  5
185E
 10
16.8947
 20
8.98463
 30
0.000000
  70
    32
  0
VERTEX
  8
BAUTEIL
  5
185F
 10
16.9092
 20
8.97091
 30
0.000000
  70
    32
  0
VERTEX
  8
BAUTEIL
  5
1860
 10
16.9237
 20
8.95730
 30
0.000000
  70
    32
  0
VERTEX
  8
BAUTEIL
  5
1861
 10
16.9382
 20
8.94379
 30
0.000000
  70
    32
  0
VERTEX
  8
BAUTEIL
  5
1862
 10
16.9528
 20
8.93038
 30
0.000000
  70
    32
  0
VERTEX
  8
BAUTEIL
  5
1863
 10
16.9674
 20
8.91707
 30
0.000000
  70
    32
  0
VERTEX
  8
BAUTEIL
  5
1864
 10
16.9821
 20
8.90388
 30
0.000000
  70
    32
  0
VERTEX
  8
BAUTEIL
  5
1865
 10
16.9967
 20
8.89079
 30
0.000000
  70
    32
  0
VERTEX
  8
BAUTEIL
  5
1866
 10
17.0114
 20
8.87780
 30
0.000000
  70
    32
  0
VERTEX
  8
BAUTEIL
  5
1867
 10
17.0261
 20
8.86493
 30
0.000000
  70
    32
  0
VERTEX
  8
BAUTEIL
  5
1868
 10
17.0409
 20
8.85216
 30
0.000000
  70
    32
  0
VERTEX
  8
BAUTEIL
  5
1869
 10
17.0557
 20
8.83951
 30
0.000000
  70
    32
  0
VERTEX
  8
BAUTEIL
  5
186A
 10
17.0705
 20
8.82696
 30
0.000000
  70
    32
  0
VERTEX
  8
BAUTEIL
  5
186B
 10
17.0853
 20
8.81452
 30
0.000000
  70
    32
  0
VERTEX
  8
BAUTEIL
  5
186C
 10
17.1002
 20
8.80220
 30
0.000000
  70
    32
  0
VERTEX
  8
BAUTEIL
  5
186D
 10
17.1150
 20
8.78999
 30
0.000000
  70
    32
  0
VERTEX
  8
BAUTEIL
  5
186E
 10
17.1299
 20
8.77789
 30
0.000000
  70
    32
  0
VERTEX
  8
BAUTEIL
  5
186F
 10
17.1449
 20
8.76590
 30
0.000000
  70
    32
  0
VERTEX
  8
BAUTEIL
  5
1870
 10
17.1598
 20
8.75403
 30
0.000000
  70
    32
  0
VERTEX
  8
BAUTEIL
  5
1871
 10
17.1748
 20
8.74227
 30
0.000000
  70
    32
  0
VERTEX
  8
BAUTEIL
  5
1872
 10
17.1897
 20
8.73063
 30
0.000000
  70
    32
  0
VERTEX
  8
BAUTEIL
  5
1873
 10
17.2047
 20
8.71910
 30
0.000000
  70
    32
  0
VERTEX
  8
BAUTEIL
  5
1874
 10
17.2198
 20
8.70769
 30
0.000000
  70
    32
  0
VERTEX
  8
BAUTEIL
  5
1875
 10
17.2348
 20
8.69640
 30
0.000000
  70
    32
  0
VERTEX
  8
BAUTEIL
  5
1876
 10
17.2498
 20
8.68522
 30
0.000000
  70
    32
  0
VERTEX
  8
BAUTEIL
  5
1877
 10
17.2649
 20
8.67417
 30
0.000000
  70
    32
  0
VERTEX
  8
BAUTEIL
  5
1878
 10
17.2800
 20
8.66323
 30
0.000000
  70
    32
  0
VERTEX
  8
BAUTEIL
  5
1879
 10
17.2951
 20
8.65241
 30
0.000000
  70
    32
  0
VERTEX
  8
BAUTEIL
  5
187A
 10
17.3102
 20
8.64171
 30
0.000000
  70
    32
  0
VERTEX
  8
BAUTEIL
  5
187B
 10
17.3253
 20
8.63113
 30
0.000000
  70
    32
  0
VERTEX
  8
BAUTEIL
  5
187C
 10
17.3404
 20
8.62068
 30
0.000000
  70
    32
  0
VERTEX
  8
BAUTEIL
  5
187D
 10
17.3556
 20
8.61034
 30
0.000000
  70
    32
  0
VERTEX
  8
BAUTEIL
  5
187E
 10
17.3707
 20
8.60013
 30
0.000000
  70
    32
  0
VERTEX
  8
BAUTEIL
  5
187F
 10
17.3859
 20
8.59004
 30
0.000000
  70
    32
  0
VERTEX
  8
BAUTEIL
  5
1880
 10
17.4010
 20
8.58007
 30
0.000000
  70
    32
  0
VERTEX
  8
BAUTEIL
  5
1881
 10
17.4162
 20
8.57023
 30
0.000000
  70
    32
  0
VERTEX
  8
BAUTEIL
  5
1882
 10
17.4314
 20
8.56051
 30
0.000000
  70
    32
  0
VERTEX
  8
BAUTEIL
  5
1883
 10
17.4466
 20
8.55092
 30
0.000000
  70
    32
  0
VERTEX
  8
BAUTEIL
  5
1884
 10
17.4618
 20
8.54145
 30
0.000000
  70
    32
  0
VERTEX
  8
BAUTEIL
  5
1885
 10
17.4770
 20
8.53211
 30
0.000000
  70
    32
  0
VERTEX
  8
BAUTEIL
  5
1886
 10
17.4922
 20
8.52290
 30
0.000000
  70
    32
  0
VERTEX
  8
BAUTEIL
  5
1887
 10
17.5074
 20
8.51381
 30
0.000000
  70
    32
  0
VERTEX
  8
BAUTEIL
  5
1888
 10
17.5226
 20
8.50485
 30
0.000000
  70
    32
  0
VERTEX
  8
BAUTEIL
  5
1889
 10
17.5378
 20
8.49601
 30
0.000000
  70
    32
  0
VERTEX
  8
BAUTEIL
  5
188A
 10
17.5530
 20
8.48731
 30
0.000000
  70
    32
  0
VERTEX
  8
BAUTEIL
  5
188B
 10
17.5682
 20
8.47874
 30
0.000000
  70
    32
  0
VERTEX
  8
BAUTEIL
  5
188C
 10
17.5834
 20
8.47029
 30
0.000000
  70
    32
  0
VERTEX
  8
BAUTEIL
  5
188D
 10
17.5986
 20
8.46197
 30
0.000000
  70
    32
  0
VERTEX
  8
BAUTEIL
  5
188E
 10
17.6138
 20
8.45379
 30
0.000000
  70
    32
  0
VERTEX
  8
BAUTEIL
  5
188F
 10
17.6290
 20
8.44573
 30
0.000000
  70
    32
  0
VERTEX
  8
BAUTEIL
  5
1890
 10
17.6441
 20
8.43781
 30
0.000000
  70
    32
  0
VERTEX
  8
BAUTEIL
  5
1891
 10
17.6593
 20
8.43002
 30
0.000000
  70
    32
  0
VERTEX
  8
BAUTEIL
  5
1892
 10
17.6745
 20
8.42236
 30
0.000000
  70
    32
  0
VERTEX
  8
BAUTEIL
  5
1893
 10
17.6897
 20
8.41483
 30
0.000000
  70
    32
  0
VERTEX
  8
BAUTEIL
  5
1894
 10
17.7048
 20
8.40743
 30
0.000000
  70
    32
  0
VERTEX
  8
BAUTEIL
  5
1895
 10
17.7200
 20
8.40017
 30
0.000000
  70
    32
  0
VERTEX
  8
BAUTEIL
  5
1896
 10
17.7351
 20
8.39304
 30
0.000000
  70
    32
  0
VERTEX
  8
BAUTEIL
  5
1897
 10
17.7502
 20
8.38605
 30
0.000000
  70
    32
  0
VERTEX
  8
BAUTEIL
  5
1898
 10
17.7654
 20
8.37919
 30
0.000000
  70
    32
  0
VERTEX
  8
BAUTEIL
  5
1899
 10
17.7805
 20
8.37246
 30
0.000000
  70
    32
  0
VERTEX
  8
BAUTEIL
  5
189A
 10
17.7955
 20
8.36587
 30
0.000000
  70
    32
  0
VERTEX
  8
BAUTEIL
  5
189B
 10
17.8106
 20
8.35942
 30
0.000000
  70
    32
  0
VERTEX
  8
BAUTEIL
  5
189C
 10
17.8257
 20
8.35310
 30
0.000000
  70
    32
  0
VERTEX
  8
BAUTEIL
  5
189D
 10
17.8407
 20
8.34691
 30
0.000000
  70
    32
  0
VERTEX
  8
BAUTEIL
  5
189E
 10
17.8558
 20
8.34087
 30
0.000000
  70
    32
  0
VERTEX
  8
BAUTEIL
  5
189F
 10
17.8708
 20
8.33496
 30
0.000000
  70
    32
  0
VERTEX
  8
BAUTEIL
  5
18A0
 10
17.8858
 20
8.32918
 30
0.000000
  70
    32
  0
VERTEX
  8
BAUTEIL
  5
18A1
 10
17.9008
 20
8.32355
 30
0.000000
  70
    32
  0
VERTEX
  8
BAUTEIL
  5
18A2
 10
17.9157
 20
8.31805
 30
0.000000
  70
    32
  0
VERTEX
  8
BAUTEIL
  5
18A3
 10
17.9307
 20
8.31269
 30
0.000000
  70
    32
  0
VERTEX
  8
BAUTEIL
  5
18A4
 10
17.9456
 20
8.30747
 30
0.000000
  70
    32
  0
VERTEX
  8
BAUTEIL
  5
18A5
 10
17.9605
 20
8.30239
 30
0.000000
  70
    32
  0
VERTEX
  8
BAUTEIL
  5
18A6
 10
17.9753
 20
8.29744
 30
0.000000
  70
    32
  0
VERTEX
  8
BAUTEIL
  5
18A7
 10
17.9902
 20
8.29264
 30
0.000000
  70
    32
  0
VERTEX
  8
BAUTEIL
  5
18A8
 10
18.0050
 20
8.28797
 30
0.000000
  70
    32
  0
VERTEX
  8
BAUTEIL
  5
18A9
 10
18.0198
 20
8.28344
 30
0.000000
  70
    32
  0
VERTEX
  8
BAUTEIL
  5
18AA
 10
18.0346
 20
8.27906
 30
0.000000
  70
    32
  0
VERTEX
  8
BAUTEIL
  5
18AB
 10
18.0493
 20
8.27481
 30
0.000000
  70
    32
  0
VERTEX
  8
BAUTEIL
  5
18AC
 10
18.0640
 20
8.27070
 30
0.000000
  70
    32
  0
VERTEX
  8
BAUTEIL
  5
18AD
 10
18.0787
 20
8.26674
 30
0.000000
  70
    32
  0
VERTEX
  8
BAUTEIL
  5
18AE
 10
18.0934
 20
8.26291
 30
0.000000
  70
    32
  0
VERTEX
  8
BAUTEIL
  5
18AF
 10
18.1080
 20
8.25923
 30
0.000000
  70
    32
  0
VERTEX
  8
BAUTEIL
  5
18B0
 10
18.1226
 20
8.25569
 30
0.000000
  70
    32
  0
VERTEX
  8
BAUTEIL
  5
18B1
 10
18.1372
 20
8.25228
 30
0.000000
  70
    32
  0
VERTEX
  8
BAUTEIL
  5
18B2
 10
18.1517
 20
8.24902
 30
0.000000
  70
    32
  0
VERTEX
  8
BAUTEIL
  5
18B3
 10
18.1663
 20
8.24591
 30
0.000000
  70
    32
  0
VERTEX
  8
BAUTEIL
  5
18B4
 10
18.1807
 20
8.24293
 30
0.000000
  70
    32
  0
VERTEX
  8
BAUTEIL
  5
18B5
 10
18.1952
 20
8.24009
 30
0.000000
  70
    32
  0
VERTEX
  8
BAUTEIL
  5
18B6
 10
18.2096
 20
8.23740
 30
0.000000
  70
    32
  0
VERTEX
  8
BAUTEIL
  5
18B7
 10
18.2239
 20
8.23485
 30
0.000000
  70
    32
  0
VERTEX
  8
BAUTEIL
  5
18B8
 10
18.2383
 20
8.23244
 30
0.000000
  70
    32
  0
VERTEX
  8
BAUTEIL
  5
18B9
 10
18.2525
 20
8.23018
 30
0.000000
  70
    32
  0
VERTEX
  8
BAUTEIL
  5
18BA
 10
18.2668
 20
8.22805
 30
0.000000
  70
    32
  0
VERTEX
  8
BAUTEIL
  5
18BB
 10
18.2810
 20
8.22607
 30
0.000000
  70
    32
  0
VERTEX
  8
BAUTEIL
  5
18BC
 10
18.2952
 20
8.22424
 30
0.000000
  70
    32
  0
VERTEX
  8
BAUTEIL
  5
18BD
 10
18.3093
 20
8.22254
 30
0.000000
  70
    32
  0
VERTEX
  8
BAUTEIL
  5
18BE
 10
18.3234
 20
8.22099
 30
0.000000
  70
    32
  0
VERTEX
  8
BAUTEIL
  5
18BF
 10
18.3375
 20
8.21958
 30
0.000000
  70
    32
  0
VERTEX
  8
BAUTEIL
  5
18C0
 10
18.3515
 20
8.21832
 30
0.000000
  70
    32
  0
VERTEX
  8
BAUTEIL
  5
18C1
 10
18.3654
 20
8.21720
 30
0.000000
  70
    32
  0
VERTEX
  8
BAUTEIL
  5
18C2
 10
18.3794
 20
8.21622
 30
0.000000
  70
    32
  0
VERTEX
  8
BAUTEIL
  5
18C3
 10
18.3932
 20
8.21538
 30
0.000000
  70
    32
  0
VERTEX
  8
BAUTEIL
  5
18C4
 10
18.4071
 20
8.21469
 30
0.000000
  70
    32
  0
VERTEX
  8
BAUTEIL
  5
18C5
 10
18.4208
 20
8.21414
 30
0.000000
  70
    32
  0
VERTEX
  8
BAUTEIL
  5
18C6
 10
18.4346
 20
8.21374
 30
0.000000
  70
    32
  0
VERTEX
  8
BAUTEIL
  5
18C7
 10
18.4483
 20
8.21348
 30
0.000000
  70
    32
  0
VERTEX
  8
BAUTEIL
  5
18C8
 10
18.4619
 20
8.21336
 30
0.000000
  70
    32
  0
VERTEX
  8
BAUTEIL
  5
18C9
 10
18.4755
 20
8.21339
 30
0.000000
  70
    32
  0
VERTEX
  8
BAUTEIL
  5
18CA
 10
18.4890
 20
8.21356
 30
0.000000
  70
    32
  0
VERTEX
  8
BAUTEIL
  5
18CB
 10
18.5025
 20
8.21387
 30
0.000000
  70
    32
  0
VERTEX
  8
BAUTEIL
  5
18CC
 10
18.5160
 20
8.21433
 30
0.000000
  70
    32
  0
VERTEX
  8
BAUTEIL
  5
18CD
 10
18.5293
 20
8.21493
 30
0.000000
  70
    32
  0
VERTEX
  8
BAUTEIL
  5
18CE
 10
18.5427
 20
8.21567
 30
0.000000
  70
    32
  0
VERTEX
  8
BAUTEIL
  5
18CF
 10
18.5560
 20
8.21656
 30
0.000000
  70
    32
  0
VERTEX
  8
BAUTEIL
  5
18D0
 10
18.5692
 20
8.21759
 30
0.000000
  70
    32
  0
VERTEX
  8
BAUTEIL
  5
18D1
 10
18.5823
 20
8.21877
 30
0.000000
  70
    32
  0
VERTEX
  8
BAUTEIL
  5
18D2
 10
18.5954
 20
8.22008
 30
0.000000
  70
    32
  0
VERTEX
  8
BAUTEIL
  5
18D3
 10
18.6085
 20
8.22154
 30
0.000000
  70
    32
  0
VERTEX
  8
BAUTEIL
  5
18D4
 10
18.6215
 20
8.22315
 30
0.000000
  70
    32
  0
VERTEX
  8
BAUTEIL
  5
18D5
 10
18.6344
 20
8.22489
 30
0.000000
  70
    32
  0
VERTEX
  8
BAUTEIL
  5
18D6
 10
18.6473
 20
8.22678
 30
0.000000
  70
    32
  0
VERTEX
  8
BAUTEIL
  5
18D7
 10
18.6601
 20
8.22882
 30
0.000000
  70
    32
  0
VERTEX
  8
BAUTEIL
  5
18D8
 10
18.6729
 20
8.23099
 30
0.000000
  70
    32
  0
VERTEX
  8
BAUTEIL
  5
18D9
 10
18.6856
 20
8.23331
 30
0.000000
  70
    32
  0
SEQEND
  8
BAUTEIL
  5
18DA
  0
LINE
  5
9C3
  8
BAUTEIL
  6
CONTINUOUS
 62
     6
 10
18.359418778946861
 20
7.8216480758557054
 30
0.0
 11
18.879011064103111
 21
8.1216358688244554
 31
0.0
  0
POLYLINE
  5
9C4
  8
BAUTEIL
  6
CONTINUOUS
 62
     6
 10
15.475194339909095
 20
10.086830468334734
 30
0.0
 66
     1
 70
     8
  0
VERTEX
  8
BAUTEIL
  5
18DB
 10
15.4752
 20
10.0868
 30
0.000000
  70
    32
  0
VERTEX
  8
BAUTEIL
  5
18DC
 10
15.4824
 20
10.0682
 30
0.000000
  70
    32
  0
VERTEX
  8
BAUTEIL
  5
18DD
 10
15.4899
 20
10.0496
 30
0.000000
  70
    32
  0
VERTEX
  8
BAUTEIL
  5
18DE
 10
15.4975
 20
10.0311
 30
0.000000
  70
    32
  0
VERTEX
  8
BAUTEIL
  5
18DF
 10
15.5054
 20
10.0125
 30
0.000000
  70
    32
  0
VERTEX
  8
BAUTEIL
  5
18E0
 10
15.5134
 20
9.99403
 30
0.000000
  70
    32
  0
VERTEX
  8
BAUTEIL
  5
18E1
 10
15.5216
 20
9.97557
 30
0.000000
  70
    32
  0
VERTEX
  8
BAUTEIL
  5
18E2
 10
15.5301
 20
9.95717
 30
0.000000
  70
    32
  0
VERTEX
  8
BAUTEIL
  5
18E3
 10
15.5387
 20
9.93881
 30
0.000000
  70
    32
  0
VERTEX
  8
BAUTEIL
  5
18E4
 10
15.5475
 20
9.92051
 30
0.000000
  70
    32
  0
VERTEX
  8
BAUTEIL
  5
18E5
 10
15.5565
 20
9.90227
 30
0.000000
  70
    32
  0
VERTEX
  8
BAUTEIL
  5
18E6
 10
15.5657
 20
9.88409
 30
0.000000
  70
    32
  0
VERTEX
  8
BAUTEIL
  5
18E7
 10
15.5751
 20
9.86599
 30
0.000000
  70
    32
  0
VERTEX
  8
BAUTEIL
  5
18E8
 10
15.5846
 20
9.84796
 30
0.000000
  70
    32
  0
VERTEX
  8
BAUTEIL
  5
18E9
 10
15.5944
 20
9.83002
 30
0.000000
  70
    32
  0
VERTEX
  8
BAUTEIL
  5
18EA
 10
15.6043
 20
9.81216
 30
0.000000
  70
    32
  0
VERTEX
  8
BAUTEIL
  5
18EB
 10
15.6143
 20
9.79439
 30
0.000000
  70
    32
  0
VERTEX
  8
BAUTEIL
  5
18EC
 10
15.6246
 20
9.77672
 30
0.000000
  70
    32
  0
VERTEX
  8
BAUTEIL
  5
18ED
 10
15.6350
 20
9.75914
 30
0.000000
  70
    32
  0
VERTEX
  8
BAUTEIL
  5
18EE
 10
15.6456
 20
9.74168
 30
0.000000
  70
    32
  0
VERTEX
  8
BAUTEIL
  5
18EF
 10
15.6563
 20
9.72432
 30
0.000000
  70
    32
  0
VERTEX
  8
BAUTEIL
  5
18F0
 10
15.6672
 20
9.70707
 30
0.000000
  70
    32
  0
VERTEX
  8
BAUTEIL
  5
18F1
 10
15.6782
 20
9.68995
 30
0.000000
  70
    32
  0
VERTEX
  8
BAUTEIL
  5
18F2
 10
15.6894
 20
9.67295
 30
0.000000
  70
    32
  0
VERTEX
  8
BAUTEIL
  5
18F3
 10
15.7008
 20
9.65608
 30
0.000000
  70
    32
  0
VERTEX
  8
BAUTEIL
  5
18F4
 10
15.7123
 20
9.63934
 30
0.000000
  70
    32
  0
VERTEX
  8
BAUTEIL
  5
18F5
 10
15.7239
 20
9.62274
 30
0.000000
  70
    32
  0
VERTEX
  8
BAUTEIL
  5
18F6
 10
15.7357
 20
9.60628
 30
0.000000
  70
    32
  0
VERTEX
  8
BAUTEIL
  5
18F7
 10
15.7476
 20
9.58997
 30
0.000000
  70
    32
  0
VERTEX
  8
BAUTEIL
  5
18F8
 10
15.7596
 20
9.57381
 30
0.000000
  70
    32
  0
VERTEX
  8
BAUTEIL
  5
18F9
 10
15.7718
 20
9.55780
 30
0.000000
  70
    32
  0
VERTEX
  8
BAUTEIL
  5
18FA
 10
15.7841
 20
9.54196
 30
0.000000
  70
    32
  0
VERTEX
  8
BAUTEIL
  5
18FB
 10
15.7965
 20
9.52628
 30
0.000000
  70
    32
  0
VERTEX
  8
BAUTEIL
  5
18FC
 10
15.8091
 20
9.51077
 30
0.000000
  70
    32
  0
VERTEX
  8
BAUTEIL
  5
18FD
 10
15.8217
 20
9.49542
 30
0.000000
  70
    32
  0
VERTEX
  8
BAUTEIL
  5
18FE
 10
15.8345
 20
9.48026
 30
0.000000
  70
    32
  0
VERTEX
  8
BAUTEIL
  5
18FF
 10
15.8474
 20
9.46528
 30
0.000000
  70
    32
  0
VERTEX
  8
BAUTEIL
  5
1900
 10
15.8604
 20
9.45048
 30
0.000000
  70
    32
  0
VERTEX
  8
BAUTEIL
  5
1901
 10
15.8735
 20
9.43587
 30
0.000000
  70
    32
  0
VERTEX
  8
BAUTEIL
  5
1902
 10
15.8867
 20
9.42145
 30
0.000000
  70
    32
  0
VERTEX
  8
BAUTEIL
  5
1903
 10
15.9000
 20
9.40724
 30
0.000000
  70
    32
  0
VERTEX
  8
BAUTEIL
  5
1904
 10
15.9133
 20
9.39322
 30
0.000000
  70
    32
  0
VERTEX
  8
BAUTEIL
  5
1905
 10
15.9268
 20
9.37940
 30
0.000000
  70
    32
  0
VERTEX
  8
BAUTEIL
  5
1906
 10
15.9403
 20
9.36580
 30
0.000000
  70
    32
  0
VERTEX
  8
BAUTEIL
  5
1907
 10
15.9540
 20
9.35240
 30
0.000000
  70
    32
  0
VERTEX
  8
BAUTEIL
  5
1908
 10
15.9677
 20
9.33922
 30
0.000000
  70
    32
  0
VERTEX
  8
BAUTEIL
  5
1909
 10
15.9814
 20
9.32626
 30
0.000000
  70
    32
  0
VERTEX
  8
BAUTEIL
  5
190A
 10
15.9953
 20
9.31353
 30
0.000000
  70
    32
  0
VERTEX
  8
BAUTEIL
  5
190B
 10
16.0092
 20
9.30102
 30
0.000000
  70
    32
  0
VERTEX
  8
BAUTEIL
  5
190C
 10
16.0232
 20
9.28873
 30
0.000000
  70
    32
  0
VERTEX
  8
BAUTEIL
  5
190D
 10
16.0372
 20
9.27669
 30
0.000000
  70
    32
  0
VERTEX
  8
BAUTEIL
  5
190E
 10
16.0513
 20
9.26487
 30
0.000000
  70
    32
  0
VERTEX
  8
BAUTEIL
  5
190F
 10
16.0654
 20
9.25330
 30
0.000000
  70
    32
  0
VERTEX
  8
BAUTEIL
  5
1910
 10
16.0796
 20
9.24197
 30
0.000000
  70
    32
  0
VERTEX
  8
BAUTEIL
  5
1911
 10
16.0939
 20
9.23088
 30
0.000000
  70
    32
  0
VERTEX
  8
BAUTEIL
  5
1912
 10
16.1081
 20
9.22005
 30
0.000000
  70
    32
  0
VERTEX
  8
BAUTEIL
  5
1913
 10
16.1224
 20
9.20946
 30
0.000000
  70
    32
  0
VERTEX
  8
BAUTEIL
  5
1914
 10
16.1368
 20
9.19913
 30
0.000000
  70
    32
  0
VERTEX
  8
BAUTEIL
  5
1915
 10
16.1511
 20
9.18906
 30
0.000000
  70
    32
  0
VERTEX
  8
BAUTEIL
  5
1916
 10
16.1655
 20
9.17924
 30
0.000000
  70
    32
  0
VERTEX
  8
BAUTEIL
  5
1917
 10
16.1799
 20
9.16969
 30
0.000000
  70
    32
  0
VERTEX
  8
BAUTEIL
  5
1918
 10
16.1943
 20
9.16040
 30
0.000000
  70
    32
  0
VERTEX
  8
BAUTEIL
  5
1919
 10
16.2088
 20
9.15138
 30
0.000000
  70
    32
  0
VERTEX
  8
BAUTEIL
  5
191A
 10
16.2232
 20
9.14264
 30
0.000000
  70
    32
  0
VERTEX
  8
BAUTEIL
  5
191B
 10
16.2377
 20
9.13416
 30
0.000000
  70
    32
  0
VERTEX
  8
BAUTEIL
  5
191C
 10
16.2521
 20
9.12596
 30
0.000000
  70
    32
  0
VERTEX
  8
BAUTEIL
  5
191D
 10
16.2665
 20
9.11803
 30
0.000000
  70
    32
  0
VERTEX
  8
BAUTEIL
  5
191E
 10
16.2810
 20
9.11039
 30
0.000000
  70
    32
  0
VERTEX
  8
BAUTEIL
  5
191F
 10
16.2954
 20
9.10302
 30
0.000000
  70
    32
  0
VERTEX
  8
BAUTEIL
  5
1920
 10
16.3098
 20
9.09594
 30
0.000000
  70
    32
  0
VERTEX
  8
BAUTEIL
  5
1921
 10
16.3242
 20
9.08915
 30
0.000000
  70
    32
  0
VERTEX
  8
BAUTEIL
  5
1922
 10
16.3385
 20
9.08264
 30
0.000000
  70
    32
  0
VERTEX
  8
BAUTEIL
  5
1923
 10
16.3529
 20
9.07642
 30
0.000000
  70
    32
  0
VERTEX
  8
BAUTEIL
  5
1924
 10
16.3672
 20
9.07049
 30
0.000000
  70
    32
  0
VERTEX
  8
BAUTEIL
  5
1925
 10
16.3814
 20
9.06485
 30
0.000000
  70
    32
  0
VERTEX
  8
BAUTEIL
  5
1926
 10
16.3957
 20
9.05950
 30
0.000000
  70
    32
  0
VERTEX
  8
BAUTEIL
  5
1927
 10
16.4099
 20
9.05445
 30
0.000000
  70
    32
  0
VERTEX
  8
BAUTEIL
  5
1928
 10
16.4240
 20
9.04970
 30
0.000000
  70
    32
  0
VERTEX
  8
BAUTEIL
  5
1929
 10
16.4381
 20
9.04525
 30
0.000000
  70
    32
  0
VERTEX
  8
BAUTEIL
  5
192A
 10
16.4521
 20
9.04109
 30
0.000000
  70
    32
  0
VERTEX
  8
BAUTEIL
  5
192B
 10
16.4661
 20
9.03723
 30
0.000000
  70
    32
  0
VERTEX
  8
BAUTEIL
  5
192C
 10
16.4800
 20
9.03368
 30
0.000000
  70
    32
  0
VERTEX
  8
BAUTEIL
  5
192D
 10
16.4939
 20
9.03042
 30
0.000000
  70
    32
  0
VERTEX
  8
BAUTEIL
  5
192E
 10
16.5076
 20
9.02747
 30
0.000000
  70
    32
  0
VERTEX
  8
BAUTEIL
  5
192F
 10
16.5213
 20
9.02483
 30
0.000000
  70
    32
  0
VERTEX
  8
BAUTEIL
  5
1930
 10
16.5350
 20
9.02248
 30
0.000000
  70
    32
  0
VERTEX
  8
BAUTEIL
  5
1931
 10
16.5485
 20
9.02045
 30
0.000000
  70
    32
  0
VERTEX
  8
BAUTEIL
  5
1932
 10
16.5620
 20
9.01872
 30
0.000000
  70
    32
  0
VERTEX
  8
BAUTEIL
  5
1933
 10
16.5754
 20
9.01729
 30
0.000000
  70
    32
  0
VERTEX
  8
BAUTEIL
  5
1934
 10
16.5886
 20
9.01617
 30
0.000000
  70
    32
  0
VERTEX
  8
BAUTEIL
  5
1935
 10
16.6018
 20
9.01536
 30
0.000000
  70
    32
  0
VERTEX
  8
BAUTEIL
  5
1936
 10
16.6149
 20
9.01485
 30
0.000000
  70
    32
  0
VERTEX
  8
BAUTEIL
  5
1937
 10
16.6279
 20
9.01465
 30
0.000000
  70
    32
  0
VERTEX
  8
BAUTEIL
  5
1938
 10
16.6408
 20
9.01476
 30
0.000000
  70
    32
  0
VERTEX
  8
BAUTEIL
  5
1939
 10
16.6536
 20
9.01518
 30
0.000000
  70
    32
  0
VERTEX
  8
BAUTEIL
  5
193A
 10
16.6662
 20
9.01590
 30
0.000000
  70
    32
  0
VERTEX
  8
BAUTEIL
  5
193B
 10
16.6788
 20
9.01693
 30
0.000000
  70
    32
  0
VERTEX
  8
BAUTEIL
  5
193C
 10
16.6912
 20
9.01827
 30
0.000000
  70
    32
  0
VERTEX
  8
BAUTEIL
  5
193D
 10
16.7035
 20
9.01991
 30
0.000000
  70
    32
  0
VERTEX
  8
BAUTEIL
  5
193E
 10
16.7157
 20
9.02186
 30
0.000000
  70
    32
  0
VERTEX
  8
BAUTEIL
  5
193F
 10
16.7277
 20
9.02411
 30
0.000000
  70
    32
  0
VERTEX
  8
BAUTEIL
  5
1940
 10
16.7396
 20
9.02667
 30
0.000000
  70
    32
  0
VERTEX
  8
BAUTEIL
  5
1941
 10
16.7514
 20
9.02953
 30
0.000000
  70
    32
  0
VERTEX
  8
BAUTEIL
  5
1942
 10
16.7630
 20
9.03270
 30
0.000000
  70
    32
  0
VERTEX
  8
BAUTEIL
  5
1943
 10
16.7745
 20
9.03617
 30
0.000000
  70
    32
  0
VERTEX
  8
BAUTEIL
  5
1944
 10
16.7859
 20
9.03993
 30
0.000000
  70
    32
  0
VERTEX
  8
BAUTEIL
  5
1945
 10
16.7971
 20
9.04400
 30
0.000000
  70
    32
  0
VERTEX
  8
BAUTEIL
  5
1946
 10
16.8081
 20
9.04837
 30
0.000000
  70
    32
  0
VERTEX
  8
BAUTEIL
  5
1947
 10
16.8190
 20
9.05304
 30
0.000000
  70
    32
  0
VERTEX
  8
BAUTEIL
  5
1948
 10
16.8297
 20
9.05800
 30
0.000000
  70
    32
  0
VERTEX
  8
BAUTEIL
  5
1949
 10
16.8403
 20
9.06326
 30
0.000000
  70
    32
  0
VERTEX
  8
BAUTEIL
  5
194A
 10
16.8507
 20
9.06881
 30
0.000000
  70
    32
  0
VERTEX
  8
BAUTEIL
  5
194B
 10
16.8610
 20
9.07466
 30
0.000000
  70
    32
  0
VERTEX
  8
BAUTEIL
  5
194C
 10
16.8710
 20
9.08079
 30
0.000000
  70
    32
  0
VERTEX
  8
BAUTEIL
  5
194D
 10
16.8809
 20
9.08722
 30
0.000000
  70
    32
  0
VERTEX
  8
BAUTEIL
  5
194E
 10
16.8907
 20
9.09393
 30
0.000000
  70
    32
  0
VERTEX
  8
BAUTEIL
  5
194F
 10
16.9002
 20
9.10093
 30
0.000000
  70
    32
  0
VERTEX
  8
BAUTEIL
  5
1950
 10
16.9096
 20
9.10821
 30
0.000000
  70
    32
  0
VERTEX
  8
BAUTEIL
  5
1951
 10
16.9188
 20
9.11578
 30
0.000000
  70
    32
  0
VERTEX
  8
BAUTEIL
  5
1952
 10
16.9278
 20
9.12362
 30
0.000000
  70
    32
  0
VERTEX
  8
BAUTEIL
  5
1953
 10
16.9366
 20
9.13174
 30
0.000000
  70
    32
  0
VERTEX
  8
BAUTEIL
  5
1954
 10
16.9452
 20
9.14014
 30
0.000000
  70
    32
  0
VERTEX
  8
BAUTEIL
  5
1955
 10
16.9537
 20
9.14881
 30
0.000000
  70
    32
  0
VERTEX
  8
BAUTEIL
  5
1956
 10
16.9619
 20
9.15775
 30
0.000000
  70
    32
  0
VERTEX
  8
BAUTEIL
  5
1957
 10
16.9699
 20
9.16696
 30
0.000000
  70
    32
  0
VERTEX
  8
BAUTEIL
  5
1958
 10
16.9778
 20
9.17643
 30
0.000000
  70
    32
  0
VERTEX
  8
BAUTEIL
  5
1959
 10
16.9854
 20
9.18617
 30
0.000000
  70
    32
  0
VERTEX
  8
BAUTEIL
  5
195A
 10
16.9929
 20
9.19617
 30
0.000000
  70
    32
  0
VERTEX
  8
BAUTEIL
  5
195B
 10
17.0001
 20
9.20642
 30
0.000000
  70
    32
  0
SEQEND
  8
BAUTEIL
  5
195C
  0
LINE
  5
9C5
  8
BAUTEIL
  6
CONTINUOUS
 62
     7
 10
17.436139970353111
 20
9.0708241012463304
 30
0.0
 11
18.302167802384361
 21
9.5708241012463304
 31
0.0
  0
POLYLINE
  5
9C6
  8
BAUTEIL
  6
CONTINUOUS
 62
     6
 10
21.52041078519758
 20
5.996633718324702
 30
0.0
 66
     1
 70
     8
  0
VERTEX
  8
BAUTEIL
  5
195D
 10
21.5204
 20
5.99663
 30
0.000000
  70
    32
  0
VERTEX
  8
BAUTEIL
  5
195E
 10
21.5224
 20
6.00669
 30
0.000000
  70
    32
  0
VERTEX
  8
BAUTEIL
  5
195F
 10
21.5245
 20
6.01675
 30
0.000000
  70
    32
  0
VERTEX
  8
BAUTEIL
  5
1960
 10
21.5265
 20
6.02682
 30
0.000000
  70
    32
  0
VERTEX
  8
BAUTEIL
  5
1961
 10
21.5285
 20
6.03689
 30
0.000000
  70
    32
  0
VERTEX
  8
BAUTEIL
  5
1962
 10
21.5305
 20
6.04697
 30
0.000000
  70
    32
  0
VERTEX
  8
BAUTEIL
  5
1963
 10
21.5325
 20
6.05705
 30
0.000000
  70
    32
  0
VERTEX
  8
BAUTEIL
  5
1964
 10
21.5345
 20
6.06714
 30
0.000000
  70
    32
  0
VERTEX
  8
BAUTEIL
  5
1965
 10
21.5364
 20
6.07723
 30
0.000000
  70
    32
  0
VERTEX
  8
BAUTEIL
  5
1966
 10
21.5384
 20
6.08732
 30
0.000000
  70
    32
  0
VERTEX
  8
BAUTEIL
  5
1967
 10
21.5404
 20
6.09742
 30
0.000000
  70
    32
  0
VERTEX
  8
BAUTEIL
  5
1968
 10
21.5424
 20
6.10752
 30
0.000000
  70
    32
  0
VERTEX
  8
BAUTEIL
  5
1969
 10
21.5443
 20
6.11763
 30
0.000000
  70
    32
  0
VERTEX
  8
BAUTEIL
  5
196A
 10
21.5463
 20
6.12774
 30
0.000000
  70
    32
  0
VERTEX
  8
BAUTEIL
  5
196B
 10
21.5482
 20
6.13786
 30
0.000000
  70
    32
  0
VERTEX
  8
BAUTEIL
  5
196C
 10
21.5502
 20
6.14798
 30
0.000000
  70
    32
  0
VERTEX
  8
BAUTEIL
  5
196D
 10
21.5521
 20
6.15811
 30
0.000000
  70
    32
  0
VERTEX
  8
BAUTEIL
  5
196E
 10
21.5541
 20
6.16824
 30
0.000000
  70
    32
  0
VERTEX
  8
BAUTEIL
  5
196F
 10
21.5560
 20
6.17837
 30
0.000000
  70
    32
  0
VERTEX
  8
BAUTEIL
  5
1970
 10
21.5579
 20
6.18851
 30
0.000000
  70
    32
  0
VERTEX
  8
BAUTEIL
  5
1971
 10
21.5598
 20
6.19866
 30
0.000000
  70
    32
  0
VERTEX
  8
BAUTEIL
  5
1972
 10
21.5618
 20
6.20881
 30
0.000000
  70
    32
  0
VERTEX
  8
BAUTEIL
  5
1973
 10
21.5637
 20
6.21896
 30
0.000000
  70
    32
  0
VERTEX
  8
BAUTEIL
  5
1974
 10
21.5656
 20
6.22912
 30
0.000000
  70
    32
  0
VERTEX
  8
BAUTEIL
  5
1975
 10
21.5675
 20
6.23928
 30
0.000000
  70
    32
  0
VERTEX
  8
BAUTEIL
  5
1976
 10
21.5693
 20
6.24945
 30
0.000000
  70
    32
  0
VERTEX
  8
BAUTEIL
  5
1977
 10
21.5712
 20
6.25962
 30
0.000000
  70
    32
  0
VERTEX
  8
BAUTEIL
  5
1978
 10
21.5731
 20
6.26979
 30
0.000000
  70
    32
  0
VERTEX
  8
BAUTEIL
  5
1979
 10
21.5750
 20
6.27997
 30
0.000000
  70
    32
  0
VERTEX
  8
BAUTEIL
  5
197A
 10
21.5769
 20
6.29016
 30
0.000000
  70
    32
  0
VERTEX
  8
BAUTEIL
  5
197B
 10
21.5787
 20
6.30035
 30
0.000000
  70
    32
  0
VERTEX
  8
BAUTEIL
  5
197C
 10
21.5806
 20
6.31054
 30
0.000000
  70
    32
  0
VERTEX
  8
BAUTEIL
  5
197D
 10
21.5824
 20
6.32074
 30
0.000000
  70
    32
  0
VERTEX
  8
BAUTEIL
  5
197E
 10
21.5843
 20
6.33094
 30
0.000000
  70
    32
  0
VERTEX
  8
BAUTEIL
  5
197F
 10
21.5861
 20
6.34115
 30
0.000000
  70
    32
  0
VERTEX
  8
BAUTEIL
  5
1980
 10
21.5879
 20
6.35136
 30
0.000000
  70
    32
  0
VERTEX
  8
BAUTEIL
  5
1981
 10
21.5898
 20
6.36157
 30
0.000000
  70
    32
  0
VERTEX
  8
BAUTEIL
  5
1982
 10
21.5916
 20
6.37179
 30
0.000000
  70
    32
  0
VERTEX
  8
BAUTEIL
  5
1983
 10
21.5934
 20
6.38202
 30
0.000000
  70
    32
  0
VERTEX
  8
BAUTEIL
  5
1984
 10
21.5952
 20
6.39225
 30
0.000000
  70
    32
  0
VERTEX
  8
BAUTEIL
  5
1985
 10
21.5970
 20
6.40248
 30
0.000000
  70
    32
  0
VERTEX
  8
BAUTEIL
  5
1986
 10
21.5988
 20
6.41272
 30
0.000000
  70
    32
  0
VERTEX
  8
BAUTEIL
  5
1987
 10
21.6006
 20
6.42296
 30
0.000000
  70
    32
  0
VERTEX
  8
BAUTEIL
  5
1988
 10
21.6024
 20
6.43321
 30
0.000000
  70
    32
  0
VERTEX
  8
BAUTEIL
  5
1989
 10
21.6042
 20
6.44346
 30
0.000000
  70
    32
  0
VERTEX
  8
BAUTEIL
  5
198A
 10
21.6060
 20
6.45371
 30
0.000000
  70
    32
  0
VERTEX
  8
BAUTEIL
  5
198B
 10
21.6078
 20
6.46397
 30
0.000000
  70
    32
  0
VERTEX
  8
BAUTEIL
  5
198C
 10
21.6095
 20
6.47424
 30
0.000000
  70
    32
  0
VERTEX
  8
BAUTEIL
  5
198D
 10
21.6113
 20
6.48451
 30
0.000000
  70
    32
  0
VERTEX
  8
BAUTEIL
  5
198E
 10
21.6130
 20
6.49478
 30
0.000000
  70
    32
  0
VERTEX
  8
BAUTEIL
  5
198F
 10
21.6148
 20
6.50506
 30
0.000000
  70
    32
  0
VERTEX
  8
BAUTEIL
  5
1990
 10
21.6165
 20
6.51534
 30
0.000000
  70
    32
  0
VERTEX
  8
BAUTEIL
  5
1991
 10
21.6183
 20
6.52563
 30
0.000000
  70
    32
  0
VERTEX
  8
BAUTEIL
  5
1992
 10
21.6200
 20
6.53592
 30
0.000000
  70
    32
  0
VERTEX
  8
BAUTEIL
  5
1993
 10
21.6217
 20
6.54621
 30
0.000000
  70
    32
  0
VERTEX
  8
BAUTEIL
  5
1994
 10
21.6235
 20
6.55651
 30
0.000000
  70
    32
  0
VERTEX
  8
BAUTEIL
  5
1995
 10
21.6252
 20
6.56681
 30
0.000000
  70
    32
  0
VERTEX
  8
BAUTEIL
  5
1996
 10
21.6269
 20
6.57712
 30
0.000000
  70
    32
  0
VERTEX
  8
BAUTEIL
  5
1997
 10
21.6286
 20
6.58743
 30
0.000000
  70
    32
  0
VERTEX
  8
BAUTEIL
  5
1998
 10
21.6303
 20
6.59775
 30
0.000000
  70
    32
  0
VERTEX
  8
BAUTEIL
  5
1999
 10
21.6320
 20
6.60807
 30
0.000000
  70
    32
  0
VERTEX
  8
BAUTEIL
  5
199A
 10
21.6337
 20
6.61840
 30
0.000000
  70
    32
  0
VERTEX
  8
BAUTEIL
  5
199B
 10
21.6354
 20
6.62873
 30
0.000000
  70
    32
  0
VERTEX
  8
BAUTEIL
  5
199C
 10
21.6370
 20
6.63906
 30
0.000000
  70
    32
  0
VERTEX
  8
BAUTEIL
  5
199D
 10
21.6387
 20
6.64940
 30
0.000000
  70
    32
  0
VERTEX
  8
BAUTEIL
  5
199E
 10
21.6404
 20
6.65974
 30
0.000000
  70
    32
  0
VERTEX
  8
BAUTEIL
  5
199F
 10
21.6420
 20
6.67009
 30
0.000000
  70
    32
  0
VERTEX
  8
BAUTEIL
  5
19A0
 10
21.6437
 20
6.68044
 30
0.000000
  70
    32
  0
VERTEX
  8
BAUTEIL
  5
19A1
 10
21.6453
 20
6.69080
 30
0.000000
  70
    32
  0
VERTEX
  8
BAUTEIL
  5
19A2
 10
21.6470
 20
6.70116
 30
0.000000
  70
    32
  0
VERTEX
  8
BAUTEIL
  5
19A3
 10
21.6486
 20
6.71153
 30
0.000000
  70
    32
  0
VERTEX
  8
BAUTEIL
  5
19A4
 10
21.6502
 20
6.72189
 30
0.000000
  70
    32
  0
VERTEX
  8
BAUTEIL
  5
19A5
 10
21.6519
 20
6.73227
 30
0.000000
  70
    32
  0
VERTEX
  8
BAUTEIL
  5
19A6
 10
21.6535
 20
6.74265
 30
0.000000
  70
    32
  0
VERTEX
  8
BAUTEIL
  5
19A7
 10
21.6551
 20
6.75303
 30
0.000000
  70
    32
  0
VERTEX
  8
BAUTEIL
  5
19A8
 10
21.6567
 20
6.76341
 30
0.000000
  70
    32
  0
VERTEX
  8
BAUTEIL
  5
19A9
 10
21.6583
 20
6.77380
 30
0.000000
  70
    32
  0
VERTEX
  8
BAUTEIL
  5
19AA
 10
21.6599
 20
6.78420
 30
0.000000
  70
    32
  0
VERTEX
  8
BAUTEIL
  5
19AB
 10
21.6615
 20
6.79460
 30
0.000000
  70
    32
  0
VERTEX
  8
BAUTEIL
  5
19AC
 10
21.6631
 20
6.80500
 30
0.000000
  70
    32
  0
VERTEX
  8
BAUTEIL
  5
19AD
 10
21.6647
 20
6.81541
 30
0.000000
  70
    32
  0
VERTEX
  8
BAUTEIL
  5
19AE
 10
21.6663
 20
6.82582
 30
0.000000
  70
    32
  0
VERTEX
  8
BAUTEIL
  5
19AF
 10
21.6678
 20
6.83624
 30
0.000000
  70
    32
  0
VERTEX
  8
BAUTEIL
  5
19B0
 10
21.6694
 20
6.84666
 30
0.000000
  70
    32
  0
VERTEX
  8
BAUTEIL
  5
19B1
 10
21.6710
 20
6.85708
 30
0.000000
  70
    32
  0
VERTEX
  8
BAUTEIL
  5
19B2
 10
21.6725
 20
6.86751
 30
0.000000
  70
    32
  0
VERTEX
  8
BAUTEIL
  5
19B3
 10
21.6741
 20
6.87795
 30
0.000000
  70
    32
  0
VERTEX
  8
BAUTEIL
  5
19B4
 10
21.6756
 20
6.88838
 30
0.000000
  70
    32
  0
VERTEX
  8
BAUTEIL
  5
19B5
 10
21.6771
 20
6.89883
 30
0.000000
  70
    32
  0
VERTEX
  8
BAUTEIL
  5
19B6
 10
21.6787
 20
6.90927
 30
0.000000
  70
    32
  0
VERTEX
  8
BAUTEIL
  5
19B7
 10
21.6802
 20
6.91972
 30
0.000000
  70
    32
  0
VERTEX
  8
BAUTEIL
  5
19B8
 10
21.6817
 20
6.93018
 30
0.000000
  70
    32
  0
VERTEX
  8
BAUTEIL
  5
19B9
 10
21.6832
 20
6.94064
 30
0.000000
  70
    32
  0
VERTEX
  8
BAUTEIL
  5
19BA
 10
21.6847
 20
6.95110
 30
0.000000
  70
    32
  0
VERTEX
  8
BAUTEIL
  5
19BB
 10
21.6862
 20
6.96157
 30
0.000000
  70
    32
  0
VERTEX
  8
BAUTEIL
  5
19BC
 10
21.6877
 20
6.97204
 30
0.000000
  70
    32
  0
VERTEX
  8
BAUTEIL
  5
19BD
 10
21.6892
 20
6.98252
 30
0.000000
  70
    32
  0
VERTEX
  8
BAUTEIL
  5
19BE
 10
21.6907
 20
6.99300
 30
0.000000
  70
    32
  0
VERTEX
  8
BAUTEIL
  5
19BF
 10
21.6922
 20
7.00348
 30
0.000000
  70
    32
  0
VERTEX
  8
BAUTEIL
  5
19C0
 10
21.6937
 20
7.01397
 30
0.000000
  70
    32
  0
VERTEX
  8
BAUTEIL
  5
19C1
 10
21.6951
 20
7.02446
 30
0.000000
  70
    32
  0
VERTEX
  8
BAUTEIL
  5
19C2
 10
21.6966
 20
7.03496
 30
0.000000
  70
    32
  0
VERTEX
  8
BAUTEIL
  5
19C3
 10
21.6981
 20
7.04546
 30
0.000000
  70
    32
  0
VERTEX
  8
BAUTEIL
  5
19C4
 10
21.6995
 20
7.05597
 30
0.000000
  70
    32
  0
VERTEX
  8
BAUTEIL
  5
19C5
 10
21.7010
 20
7.06648
 30
0.000000
  70
    32
  0
VERTEX
  8
BAUTEIL
  5
19C6
 10
21.7024
 20
7.07699
 30
0.000000
  70
    32
  0
VERTEX
  8
BAUTEIL
  5
19C7
 10
21.7038
 20
7.08751
 30
0.000000
  70
    32
  0
VERTEX
  8
BAUTEIL
  5
19C8
 10
21.7053
 20
7.09803
 30
0.000000
  70
    32
  0
VERTEX
  8
BAUTEIL
  5
19C9
 10
21.7067
 20
7.10856
 30
0.000000
  70
    32
  0
VERTEX
  8
BAUTEIL
  5
19CA
 10
21.7081
 20
7.11909
 30
0.000000
  70
    32
  0
VERTEX
  8
BAUTEIL
  5
19CB
 10
21.7095
 20
7.12963
 30
0.000000
  70
    32
  0
VERTEX
  8
BAUTEIL
  5
19CC
 10
21.7109
 20
7.14016
 30
0.000000
  70
    32
  0
VERTEX
  8
BAUTEIL
  5
19CD
 10
21.7123
 20
7.15071
 30
0.000000
  70
    32
  0
VERTEX
  8
BAUTEIL
  5
19CE
 10
21.7137
 20
7.16126
 30
0.000000
  70
    32
  0
VERTEX
  8
BAUTEIL
  5
19CF
 10
21.7151
 20
7.17181
 30
0.000000
  70
    32
  0
VERTEX
  8
BAUTEIL
  5
19D0
 10
21.7165
 20
7.18236
 30
0.000000
  70
    32
  0
VERTEX
  8
BAUTEIL
  5
19D1
 10
21.7179
 20
7.19292
 30
0.000000
  70
    32
  0
VERTEX
  8
BAUTEIL
  5
19D2
 10
21.7193
 20
7.20349
 30
0.000000
  70
    32
  0
VERTEX
  8
BAUTEIL
  5
19D3
 10
21.7206
 20
7.21406
 30
0.000000
  70
    32
  0
VERTEX
  8
BAUTEIL
  5
19D4
 10
21.7220
 20
7.22463
 30
0.000000
  70
    32
  0
VERTEX
  8
BAUTEIL
  5
19D5
 10
21.7234
 20
7.23521
 30
0.000000
  70
    32
  0
VERTEX
  8
BAUTEIL
  5
19D6
 10
21.7247
 20
7.24579
 30
0.000000
  70
    32
  0
VERTEX
  8
BAUTEIL
  5
19D7
 10
21.7261
 20
7.25637
 30
0.000000
  70
    32
  0
VERTEX
  8
BAUTEIL
  5
19D8
 10
21.7274
 20
7.26696
 30
0.000000
  70
    32
  0
VERTEX
  8
BAUTEIL
  5
19D9
 10
21.7287
 20
7.27755
 30
0.000000
  70
    32
  0
VERTEX
  8
BAUTEIL
  5
19DA
 10
21.7301
 20
7.28815
 30
0.000000
  70
    32
  0
VERTEX
  8
BAUTEIL
  5
19DB
 10
21.7314
 20
7.29875
 30
0.000000
  70
    32
  0
VERTEX
  8
BAUTEIL
  5
19DC
 10
21.7327
 20
7.30936
 30
0.000000
  70
    32
  0
VERTEX
  8
BAUTEIL
  5
19DD
 10
21.7340
 20
7.31997
 30
0.000000
  70
    32
  0
SEQEND
  8
BAUTEIL
  5
19DE
  0
LINE
  5
9C7
  8
BAUTEIL
  6
CONTINUOUS
 62
     7
 10
22.315107255509361
 20
7.6554798629650804
 30
0.0
 11
21.520399003556239
 21
5.9966358688244554
 31
0.0
  0
LINE
  5
9C8
  8
BAUTEIL
  6
CONTINUOUS
 62
     6
 10
26.298810868790611
 20
9.9554676559338304
 30
0.0
 11
25.504133134415611
 21
8.2966541793713304
 31
0.0
  0
LINE
  5
9C9
  8
BAUTEIL
  6
CONTINUOUS
 62
     7
 10
22.646222978165611
 20
12.34664197234008
 30
0.0
 11
26.629957109024989
 21
14.64662976530883
 31
0.0
  0
LINE
  5
9CA
  8
BAUTEIL
  6
CONTINUOUS
 62
     6
 10
21.520429521134361
 20
15.99660535124633
 30
0.0
 11
25.504133134415611
 21
18.29659314421508
 31
0.0
  0
LINE
  5
9CB
  8
BAUTEIL
  6
CONTINUOUS
 62
     7
 10
21.000776200821861
 20
10.89662976530883
 30
0.0
 11
27.062971025040611
 21
14.39662976530883
 31
0.0
  0
LINE
  5
9CC
  8
BAUTEIL
  6
CONTINUOUS
 62
     7
 10
18.965650468399978
 20
15.85616345671508
 30
0.0
 11
18.359418778946861
 21
17.821648075855698
 31
0.0
  0
POLYLINE
  5
9CD
  8
BAUTEIL
  6
CONTINUOUS
 62
     7
 10
18.691156552541717
 20
14.779885007758523
 30
0.0
 66
     1
 70
     8
  0
VERTEX
  8
BAUTEIL
  5
19DF
 10
18.6912
 20
14.7799
 30
0.000000
  70
    32
  0
VERTEX
  8
BAUTEIL
  5
19E0
 10
18.6899
 20
14.8030
 30
0.000000
  70
    32
  0
VERTEX
  8
BAUTEIL
  5
19E1
 10
18.6887
 20
14.8262
 30
0.000000
  70
    32
  0
VERTEX
  8
BAUTEIL
  5
19E2
 10
18.6875
 20
14.8493
 30
0.000000
  70
    32
  0
VERTEX
  8
BAUTEIL
  5
19E3
 10
18.6862
 20
14.8725
 30
0.000000
  70
    32
  0
VERTEX
  8
BAUTEIL
  5
19E4
 10
18.6849
 20
14.8957
 30
0.000000
  70
    32
  0
VERTEX
  8
BAUTEIL
  5
19E5
 10
18.6836
 20
14.9189
 30
0.000000
  70
    32
  0
VERTEX
  8
BAUTEIL
  5
19E6
 10
18.6822
 20
14.9421
 30
0.000000
  70
    32
  0
VERTEX
  8
BAUTEIL
  5
19E7
 10
18.6809
 20
14.9653
 30
0.000000
  70
    32
  0
VERTEX
  8
BAUTEIL
  5
19E8
 10
18.6795
 20
14.9886
 30
0.000000
  70
    32
  0
VERTEX
  8
BAUTEIL
  5
19E9
 10
18.6781
 20
15.0118
 30
0.000000
  70
    32
  0
VERTEX
  8
BAUTEIL
  5
19EA
 10
18.6766
 20
15.0351
 30
0.000000
  70
    32
  0
VERTEX
  8
BAUTEIL
  5
19EB
 10
18.6752
 20
15.0583
 30
0.000000
  70
    32
  0
VERTEX
  8
BAUTEIL
  5
19EC
 10
18.6737
 20
15.0816
 30
0.000000
  70
    32
  0
VERTEX
  8
BAUTEIL
  5
19ED
 10
18.6722
 20
15.1049
 30
0.000000
  70
    32
  0
VERTEX
  8
BAUTEIL
  5
19EE
 10
18.6707
 20
15.1282
 30
0.000000
  70
    32
  0
VERTEX
  8
BAUTEIL
  5
19EF
 10
18.6692
 20
15.1515
 30
0.000000
  70
    32
  0
VERTEX
  8
BAUTEIL
  5
19F0
 10
18.6676
 20
15.1748
 30
0.000000
  70
    32
  0
VERTEX
  8
BAUTEIL
  5
19F1
 10
18.6660
 20
15.1981
 30
0.000000
  70
    32
  0
VERTEX
  8
BAUTEIL
  5
19F2
 10
18.6644
 20
15.2214
 30
0.000000
  70
    32
  0
VERTEX
  8
BAUTEIL
  5
19F3
 10
18.6628
 20
15.2448
 30
0.000000
  70
    32
  0
VERTEX
  8
BAUTEIL
  5
19F4
 10
18.6611
 20
15.2682
 30
0.000000
  70
    32
  0
VERTEX
  8
BAUTEIL
  5
19F5
 10
18.6595
 20
15.2915
 30
0.000000
  70
    32
  0
VERTEX
  8
BAUTEIL
  5
19F6
 10
18.6578
 20
15.3149
 30
0.000000
  70
    32
  0
VERTEX
  8
BAUTEIL
  5
19F7
 10
18.6561
 20
15.3383
 30
0.000000
  70
    32
  0
VERTEX
  8
BAUTEIL
  5
19F8
 10
18.6543
 20
15.3617
 30
0.000000
  70
    32
  0
VERTEX
  8
BAUTEIL
  5
19F9
 10
18.6526
 20
15.3851
 30
0.000000
  70
    32
  0
VERTEX
  8
BAUTEIL
  5
19FA
 10
18.6508
 20
15.4085
 30
0.000000
  70
    32
  0
VERTEX
  8
BAUTEIL
  5
19FB
 10
18.6490
 20
15.4319
 30
0.000000
  70
    32
  0
VERTEX
  8
BAUTEIL
  5
19FC
 10
18.6472
 20
15.4554
 30
0.000000
  70
    32
  0
VERTEX
  8
BAUTEIL
  5
19FD
 10
18.6453
 20
15.4788
 30
0.000000
  70
    32
  0
VERTEX
  8
BAUTEIL
  5
19FE
 10
18.6435
 20
15.5023
 30
0.000000
  70
    32
  0
VERTEX
  8
BAUTEIL
  5
19FF
 10
18.6416
 20
15.5258
 30
0.000000
  70
    32
  0
VERTEX
  8
BAUTEIL
  5
1A00
 10
18.6397
 20
15.5492
 30
0.000000
  70
    32
  0
VERTEX
  8
BAUTEIL
  5
1A01
 10
18.6377
 20
15.5727
 30
0.000000
  70
    32
  0
VERTEX
  8
BAUTEIL
  5
1A02
 10
18.6358
 20
15.5962
 30
0.000000
  70
    32
  0
VERTEX
  8
BAUTEIL
  5
1A03
 10
18.6338
 20
15.6197
 30
0.000000
  70
    32
  0
VERTEX
  8
BAUTEIL
  5
1A04
 10
18.6318
 20
15.6433
 30
0.000000
  70
    32
  0
VERTEX
  8
BAUTEIL
  5
1A05
 10
18.6298
 20
15.6668
 30
0.000000
  70
    32
  0
VERTEX
  8
BAUTEIL
  5
1A06
 10
18.6278
 20
15.6903
 30
0.000000
  70
    32
  0
VERTEX
  8
BAUTEIL
  5
1A07
 10
18.6257
 20
15.7139
 30
0.000000
  70
    32
  0
VERTEX
  8
BAUTEIL
  5
1A08
 10
18.6236
 20
15.7375
 30
0.000000
  70
    32
  0
VERTEX
  8
BAUTEIL
  5
1A09
 10
18.6215
 20
15.7610
 30
0.000000
  70
    32
  0
VERTEX
  8
BAUTEIL
  5
1A0A
 10
18.6194
 20
15.7846
 30
0.000000
  70
    32
  0
VERTEX
  8
BAUTEIL
  5
1A0B
 10
18.6172
 20
15.8082
 30
0.000000
  70
    32
  0
VERTEX
  8
BAUTEIL
  5
1A0C
 10
18.6151
 20
15.8318
 30
0.000000
  70
    32
  0
VERTEX
  8
BAUTEIL
  5
1A0D
 10
18.6129
 20
15.8554
 30
0.000000
  70
    32
  0
VERTEX
  8
BAUTEIL
  5
1A0E
 10
18.6107
 20
15.8790
 30
0.000000
  70
    32
  0
VERTEX
  8
BAUTEIL
  5
1A0F
 10
18.6084
 20
15.9027
 30
0.000000
  70
    32
  0
VERTEX
  8
BAUTEIL
  5
1A10
 10
18.6062
 20
15.9263
 30
0.000000
  70
    32
  0
VERTEX
  8
BAUTEIL
  5
1A11
 10
18.6039
 20
15.9499
 30
0.000000
  70
    32
  0
VERTEX
  8
BAUTEIL
  5
1A12
 10
18.6016
 20
15.9736
 30
0.000000
  70
    32
  0
VERTEX
  8
BAUTEIL
  5
1A13
 10
18.5993
 20
15.9973
 30
0.000000
  70
    32
  0
VERTEX
  8
BAUTEIL
  5
1A14
 10
18.5969
 20
16.0209
 30
0.000000
  70
    32
  0
VERTEX
  8
BAUTEIL
  5
1A15
 10
18.5946
 20
16.0446
 30
0.000000
  70
    32
  0
VERTEX
  8
BAUTEIL
  5
1A16
 10
18.5922
 20
16.0683
 30
0.000000
  70
    32
  0
VERTEX
  8
BAUTEIL
  5
1A17
 10
18.5898
 20
16.0920
 30
0.000000
  70
    32
  0
VERTEX
  8
BAUTEIL
  5
1A18
 10
18.5873
 20
16.1157
 30
0.000000
  70
    32
  0
VERTEX
  8
BAUTEIL
  5
1A19
 10
18.5849
 20
16.1395
 30
0.000000
  70
    32
  0
VERTEX
  8
BAUTEIL
  5
1A1A
 10
18.5824
 20
16.1632
 30
0.000000
  70
    32
  0
VERTEX
  8
BAUTEIL
  5
1A1B
 10
18.5799
 20
16.1869
 30
0.000000
  70
    32
  0
VERTEX
  8
BAUTEIL
  5
1A1C
 10
18.5774
 20
16.2107
 30
0.000000
  70
    32
  0
VERTEX
  8
BAUTEIL
  5
1A1D
 10
18.5748
 20
16.2345
 30
0.000000
  70
    32
  0
VERTEX
  8
BAUTEIL
  5
1A1E
 10
18.5723
 20
16.2582
 30
0.000000
  70
    32
  0
VERTEX
  8
BAUTEIL
  5
1A1F
 10
18.5697
 20
16.2820
 30
0.000000
  70
    32
  0
VERTEX
  8
BAUTEIL
  5
1A20
 10
18.5671
 20
16.3058
 30
0.000000
  70
    32
  0
VERTEX
  8
BAUTEIL
  5
1A21
 10
18.5645
 20
16.3296
 30
0.000000
  70
    32
  0
VERTEX
  8
BAUTEIL
  5
1A22
 10
18.5618
 20
16.3534
 30
0.000000
  70
    32
  0
VERTEX
  8
BAUTEIL
  5
1A23
 10
18.5592
 20
16.3772
 30
0.000000
  70
    32
  0
VERTEX
  8
BAUTEIL
  5
1A24
 10
18.5565
 20
16.4010
 30
0.000000
  70
    32
  0
VERTEX
  8
BAUTEIL
  5
1A25
 10
18.5537
 20
16.4249
 30
0.000000
  70
    32
  0
VERTEX
  8
BAUTEIL
  5
1A26
 10
18.5510
 20
16.4487
 30
0.000000
  70
    32
  0
VERTEX
  8
BAUTEIL
  5
1A27
 10
18.5483
 20
16.4726
 30
0.000000
  70
    32
  0
VERTEX
  8
BAUTEIL
  5
1A28
 10
18.5455
 20
16.4964
 30
0.000000
  70
    32
  0
VERTEX
  8
BAUTEIL
  5
1A29
 10
18.5427
 20
16.5203
 30
0.000000
  70
    32
  0
VERTEX
  8
BAUTEIL
  5
1A2A
 10
18.5399
 20
16.5442
 30
0.000000
  70
    32
  0
VERTEX
  8
BAUTEIL
  5
1A2B
 10
18.5370
 20
16.5681
 30
0.000000
  70
    32
  0
VERTEX
  8
BAUTEIL
  5
1A2C
 10
18.5341
 20
16.5920
 30
0.000000
  70
    32
  0
VERTEX
  8
BAUTEIL
  5
1A2D
 10
18.5313
 20
16.6159
 30
0.000000
  70
    32
  0
VERTEX
  8
BAUTEIL
  5
1A2E
 10
18.5284
 20
16.6398
 30
0.000000
  70
    32
  0
VERTEX
  8
BAUTEIL
  5
1A2F
 10
18.5254
 20
16.6637
 30
0.000000
  70
    32
  0
VERTEX
  8
BAUTEIL
  5
1A30
 10
18.5225
 20
16.6876
 30
0.000000
  70
    32
  0
VERTEX
  8
BAUTEIL
  5
1A31
 10
18.5195
 20
16.7116
 30
0.000000
  70
    32
  0
VERTEX
  8
BAUTEIL
  5
1A32
 10
18.5165
 20
16.7355
 30
0.000000
  70
    32
  0
VERTEX
  8
BAUTEIL
  5
1A33
 10
18.5135
 20
16.7595
 30
0.000000
  70
    32
  0
VERTEX
  8
BAUTEIL
  5
1A34
 10
18.5104
 20
16.7834
 30
0.000000
  70
    32
  0
VERTEX
  8
BAUTEIL
  5
1A35
 10
18.5074
 20
16.8074
 30
0.000000
  70
    32
  0
VERTEX
  8
BAUTEIL
  5
1A36
 10
18.5043
 20
16.8314
 30
0.000000
  70
    32
  0
VERTEX
  8
BAUTEIL
  5
1A37
 10
18.5012
 20
16.8554
 30
0.000000
  70
    32
  0
VERTEX
  8
BAUTEIL
  5
1A38
 10
18.4981
 20
16.8794
 30
0.000000
  70
    32
  0
VERTEX
  8
BAUTEIL
  5
1A39
 10
18.4949
 20
16.9034
 30
0.000000
  70
    32
  0
VERTEX
  8
BAUTEIL
  5
1A3A
 10
18.4918
 20
16.9274
 30
0.000000
  70
    32
  0
VERTEX
  8
BAUTEIL
  5
1A3B
 10
18.4886
 20
16.9514
 30
0.000000
  70
    32
  0
VERTEX
  8
BAUTEIL
  5
1A3C
 10
18.4854
 20
16.9755
 30
0.000000
  70
    32
  0
VERTEX
  8
BAUTEIL
  5
1A3D
 10
18.4821
 20
16.9995
 30
0.000000
  70
    32
  0
VERTEX
  8
BAUTEIL
  5
1A3E
 10
18.4789
 20
17.0236
 30
0.000000
  70
    32
  0
VERTEX
  8
BAUTEIL
  5
1A3F
 10
18.4756
 20
17.0476
 30
0.000000
  70
    32
  0
VERTEX
  8
BAUTEIL
  5
1A40
 10
18.4723
 20
17.0717
 30
0.000000
  70
    32
  0
VERTEX
  8
BAUTEIL
  5
1A41
 10
18.4690
 20
17.0958
 30
0.000000
  70
    32
  0
VERTEX
  8
BAUTEIL
  5
1A42
 10
18.4656
 20
17.1198
 30
0.000000
  70
    32
  0
VERTEX
  8
BAUTEIL
  5
1A43
 10
18.4623
 20
17.1439
 30
0.000000
  70
    32
  0
VERTEX
  8
BAUTEIL
  5
1A44
 10
18.4589
 20
17.1680
 30
0.000000
  70
    32
  0
VERTEX
  8
BAUTEIL
  5
1A45
 10
18.4555
 20
17.1921
 30
0.000000
  70
    32
  0
VERTEX
  8
BAUTEIL
  5
1A46
 10
18.4521
 20
17.2163
 30
0.000000
  70
    32
  0
VERTEX
  8
BAUTEIL
  5
1A47
 10
18.4486
 20
17.2404
 30
0.000000
  70
    32
  0
VERTEX
  8
BAUTEIL
  5
1A48
 10
18.4451
 20
17.2645
 30
0.000000
  70
    32
  0
VERTEX
  8
BAUTEIL
  5
1A49
 10
18.4417
 20
17.2886
 30
0.000000
  70
    32
  0
VERTEX
  8
BAUTEIL
  5
1A4A
 10
18.4381
 20
17.3128
 30
0.000000
  70
    32
  0
VERTEX
  8
BAUTEIL
  5
1A4B
 10
18.4346
 20
17.3369
 30
0.000000
  70
    32
  0
VERTEX
  8
BAUTEIL
  5
1A4C
 10
18.4311
 20
17.3611
 30
0.000000
  70
    32
  0
VERTEX
  8
BAUTEIL
  5
1A4D
 10
18.4275
 20
17.3853
 30
0.000000
  70
    32
  0
VERTEX
  8
BAUTEIL
  5
1A4E
 10
18.4239
 20
17.4095
 30
0.000000
  70
    32
  0
VERTEX
  8
BAUTEIL
  5
1A4F
 10
18.4203
 20
17.4336
 30
0.000000
  70
    32
  0
VERTEX
  8
BAUTEIL
  5
1A50
 10
18.4166
 20
17.4578
 30
0.000000
  70
    32
  0
VERTEX
  8
BAUTEIL
  5
1A51
 10
18.4129
 20
17.4820
 30
0.000000
  70
    32
  0
VERTEX
  8
BAUTEIL
  5
1A52
 10
18.4093
 20
17.5062
 30
0.000000
  70
    32
  0
VERTEX
  8
BAUTEIL
  5
1A53
 10
18.4056
 20
17.5305
 30
0.000000
  70
    32
  0
VERTEX
  8
BAUTEIL
  5
1A54
 10
18.4018
 20
17.5547
 30
0.000000
  70
    32
  0
VERTEX
  8
BAUTEIL
  5
1A55
 10
18.3981
 20
17.5789
 30
0.000000
  70
    32
  0
VERTEX
  8
BAUTEIL
  5
1A56
 10
18.3943
 20
17.6031
 30
0.000000
  70
    32
  0
VERTEX
  8
BAUTEIL
  5
1A57
 10
18.3905
 20
17.6274
 30
0.000000
  70
    32
  0
VERTEX
  8
BAUTEIL
  5
1A58
 10
18.3867
 20
17.6516
 30
0.000000
  70
    32
  0
VERTEX
  8
BAUTEIL
  5
1A59
 10
18.3829
 20
17.6759
 30
0.000000
  70
    32
  0
VERTEX
  8
BAUTEIL
  5
1A5A
 10
18.3790
 20
17.7002
 30
0.000000
  70
    32
  0
VERTEX
  8
BAUTEIL
  5
1A5B
 10
18.3751
 20
17.7245
 30
0.000000
  70
    32
  0
VERTEX
  8
BAUTEIL
  5
1A5C
 10
18.3712
 20
17.7487
 30
0.000000
  70
    32
  0
VERTEX
  8
BAUTEIL
  5
1A5D
 10
18.3673
 20
17.7730
 30
0.000000
  70
    32
  0
VERTEX
  8
BAUTEIL
  5
1A5E
 10
18.3634
 20
17.7973
 30
0.000000
  70
    32
  0
VERTEX
  8
BAUTEIL
  5
1A5F
 10
18.3594
 20
17.8216
 30
0.000000
  70
    32
  0
SEQEND
  8
BAUTEIL
  5
1A60
  0
LINE
  5
9CE
  8
BAUTEIL
  6
CONTINUOUS
 62
     7
 10
18.466230302384361
 20
14.75997205046508
 30
0.0
 11
15.285016923478111
 21
16.59664197234008
 31
0.0
  0
LINE
  5
9CF
  8
BAUTEIL
  6
CONTINUOUS
 62
     7
 10
17.969709306290611
 20
18.14662976530883
 30
0.0
 11
17.969709306290611
 21
15.0466236617932
 31
0.0
  0
LINE
  5
9D0
  8
BAUTEIL
  6
CONTINUOUS
 62
     7
 10
21.000776200821861
 20
10.89662976530883
 30
0.0
 11
18.685590653946861
 21
12.23329968718383
 31
0.0
  0
POLYLINE
  5
9D1
  8
BAUTEIL
  6
CONTINUOUS
 62
     6
 10
20.764068370382542
 20
13.433313823676688
 30
0.0
 66
     1
 70
     8
  0
VERTEX
  8
BAUTEIL
  5
1A61
 10
20.7641
 20
13.4333
 30
0.000000
  70
    32
  0
VERTEX
  8
BAUTEIL
  5
1A62
 10
20.7482
 20
13.4545
 30
0.000000
  70
    32
  0
VERTEX
  8
BAUTEIL
  5
1A63
 10
20.7322
 20
13.4757
 30
0.000000
  70
    32
  0
VERTEX
  8
BAUTEIL
  5
1A64
 10
20.7161
 20
13.4967
 30
0.000000
  70
    32
  0
VERTEX
  8
BAUTEIL
  5
1A65
 10
20.6999
 20
13.5176
 30
0.000000
  70
    32
  0
VERTEX
  8
BAUTEIL
  5
1A66
 10
20.6836
 20
13.5383
 30
0.000000
  70
    32
  0
VERTEX
  8
BAUTEIL
  5
1A67
 10
20.6673
 20
13.5590
 30
0.000000
  70
    32
  0
VERTEX
  8
BAUTEIL
  5
1A68
 10
20.6508
 20
13.5795
 30
0.000000
  70
    32
  0
VERTEX
  8
BAUTEIL
  5
1A69
 10
20.6343
 20
13.5999
 30
0.000000
  70
    32
  0
VERTEX
  8
BAUTEIL
  5
1A6A
 10
20.6177
 20
13.6202
 30
0.000000
  70
    32
  0
VERTEX
  8
BAUTEIL
  5
1A6B
 10
20.6010
 20
13.6403
 30
0.000000
  70
    32
  0
VERTEX
  8
BAUTEIL
  5
1A6C
 10
20.5842
 20
13.6604
 30
0.000000
  70
    32
  0
VERTEX
  8
BAUTEIL
  5
1A6D
 10
20.5673
 20
13.6803
 30
0.000000
  70
    32
  0
VERTEX
  8
BAUTEIL
  5
1A6E
 10
20.5504
 20
13.7000
 30
0.000000
  70
    32
  0
VERTEX
  8
BAUTEIL
  5
1A6F
 10
20.5334
 20
13.7196
 30
0.000000
  70
    32
  0
VERTEX
  8
BAUTEIL
  5
1A70
 10
20.5162
 20
13.7391
 30
0.000000
  70
    32
  0
VERTEX
  8
BAUTEIL
  5
1A71
 10
20.4991
 20
13.7585
 30
0.000000
  70
    32
  0
VERTEX
  8
BAUTEIL
  5
1A72
 10
20.4818
 20
13.7777
 30
0.000000
  70
    32
  0
VERTEX
  8
BAUTEIL
  5
1A73
 10
20.4645
 20
13.7967
 30
0.000000
  70
    32
  0
VERTEX
  8
BAUTEIL
  5
1A74
 10
20.4471
 20
13.8157
 30
0.000000
  70
    32
  0
VERTEX
  8
BAUTEIL
  5
1A75
 10
20.4296
 20
13.8345
 30
0.000000
  70
    32
  0
VERTEX
  8
BAUTEIL
  5
1A76
 10
20.4121
 20
13.8531
 30
0.000000
  70
    32
  0
VERTEX
  8
BAUTEIL
  5
1A77
 10
20.3945
 20
13.8716
 30
0.000000
  70
    32
  0
VERTEX
  8
BAUTEIL
  5
1A78
 10
20.3768
 20
13.8899
 30
0.000000
  70
    32
  0
VERTEX
  8
BAUTEIL
  5
1A79
 10
20.3591
 20
13.9081
 30
0.000000
  70
    32
  0
VERTEX
  8
BAUTEIL
  5
1A7A
 10
20.3413
 20
13.9262
 30
0.000000
  70
    32
  0
VERTEX
  8
BAUTEIL
  5
1A7B
 10
20.3235
 20
13.9440
 30
0.000000
  70
    32
  0
VERTEX
  8
BAUTEIL
  5
1A7C
 10
20.3056
 20
13.9618
 30
0.000000
  70
    32
  0
VERTEX
  8
BAUTEIL
  5
1A7D
 10
20.2876
 20
13.9793
 30
0.000000
  70
    32
  0
VERTEX
  8
BAUTEIL
  5
1A7E
 10
20.2696
 20
13.9968
 30
0.000000
  70
    32
  0
VERTEX
  8
BAUTEIL
  5
1A7F
 10
20.2515
 20
14.0140
 30
0.000000
  70
    32
  0
VERTEX
  8
BAUTEIL
  5
1A80
 10
20.2333
 20
14.0311
 30
0.000000
  70
    32
  0
VERTEX
  8
BAUTEIL
  5
1A81
 10
20.2152
 20
14.0481
 30
0.000000
  70
    32
  0
VERTEX
  8
BAUTEIL
  5
1A82
 10
20.1969
 20
14.0648
 30
0.000000
  70
    32
  0
VERTEX
  8
BAUTEIL
  5
1A83
 10
20.1786
 20
14.0814
 30
0.000000
  70
    32
  0
VERTEX
  8
BAUTEIL
  5
1A84
 10
20.1603
 20
14.0979
 30
0.000000
  70
    32
  0
VERTEX
  8
BAUTEIL
  5
1A85
 10
20.1419
 20
14.1141
 30
0.000000
  70
    32
  0
VERTEX
  8
BAUTEIL
  5
1A86
 10
20.1235
 20
14.1303
 30
0.000000
  70
    32
  0
VERTEX
  8
BAUTEIL
  5
1A87
 10
20.1050
 20
14.1462
 30
0.000000
  70
    32
  0
VERTEX
  8
BAUTEIL
  5
1A88
 10
20.0865
 20
14.1619
 30
0.000000
  70
    32
  0
VERTEX
  8
BAUTEIL
  5
1A89
 10
20.0680
 20
14.1775
 30
0.000000
  70
    32
  0
VERTEX
  8
BAUTEIL
  5
1A8A
 10
20.0494
 20
14.1930
 30
0.000000
  70
    32
  0
VERTEX
  8
BAUTEIL
  5
1A8B
 10
20.0308
 20
14.2082
 30
0.000000
  70
    32
  0
VERTEX
  8
BAUTEIL
  5
1A8C
 10
20.0121
 20
14.2233
 30
0.000000
  70
    32
  0
VERTEX
  8
BAUTEIL
  5
1A8D
 10
19.9934
 20
14.2381
 30
0.000000
  70
    32
  0
VERTEX
  8
BAUTEIL
  5
1A8E
 10
19.9747
 20
14.2528
 30
0.000000
  70
    32
  0
VERTEX
  8
BAUTEIL
  5
1A8F
 10
19.9560
 20
14.2674
 30
0.000000
  70
    32
  0
VERTEX
  8
BAUTEIL
  5
1A90
 10
19.9372
 20
14.2817
 30
0.000000
  70
    32
  0
VERTEX
  8
BAUTEIL
  5
1A91
 10
19.9184
 20
14.2959
 30
0.000000
  70
    32
  0
VERTEX
  8
BAUTEIL
  5
1A92
 10
19.8996
 20
14.3099
 30
0.000000
  70
    32
  0
VERTEX
  8
BAUTEIL
  5
1A93
 10
19.8807
 20
14.3236
 30
0.000000
  70
    32
  0
VERTEX
  8
BAUTEIL
  5
1A94
 10
19.8618
 20
14.3372
 30
0.000000
  70
    32
  0
VERTEX
  8
BAUTEIL
  5
1A95
 10
19.8429
 20
14.3507
 30
0.000000
  70
    32
  0
VERTEX
  8
BAUTEIL
  5
1A96
 10
19.8240
 20
14.3639
 30
0.000000
  70
    32
  0
VERTEX
  8
BAUTEIL
  5
1A97
 10
19.8051
 20
14.3769
 30
0.000000
  70
    32
  0
VERTEX
  8
BAUTEIL
  5
1A98
 10
19.7861
 20
14.3898
 30
0.000000
  70
    32
  0
VERTEX
  8
BAUTEIL
  5
1A99
 10
19.7672
 20
14.4024
 30
0.000000
  70
    32
  0
VERTEX
  8
BAUTEIL
  5
1A9A
 10
19.7482
 20
14.4149
 30
0.000000
  70
    32
  0
VERTEX
  8
BAUTEIL
  5
1A9B
 10
19.7292
 20
14.4272
 30
0.000000
  70
    32
  0
VERTEX
  8
BAUTEIL
  5
1A9C
 10
19.7102
 20
14.4392
 30
0.000000
  70
    32
  0
VERTEX
  8
BAUTEIL
  5
1A9D
 10
19.6912
 20
14.4511
 30
0.000000
  70
    32
  0
VERTEX
  8
BAUTEIL
  5
1A9E
 10
19.6722
 20
14.4628
 30
0.000000
  70
    32
  0
VERTEX
  8
BAUTEIL
  5
1A9F
 10
19.6532
 20
14.4743
 30
0.000000
  70
    32
  0
VERTEX
  8
BAUTEIL
  5
1AA0
 10
19.6342
 20
14.4856
 30
0.000000
  70
    32
  0
VERTEX
  8
BAUTEIL
  5
1AA1
 10
19.6152
 20
14.4966
 30
0.000000
  70
    32
  0
VERTEX
  8
BAUTEIL
  5
1AA2
 10
19.5961
 20
14.5075
 30
0.000000
  70
    32
  0
VERTEX
  8
BAUTEIL
  5
1AA3
 10
19.5771
 20
14.5182
 30
0.000000
  70
    32
  0
VERTEX
  8
BAUTEIL
  5
1AA4
 10
19.5581
 20
14.5287
 30
0.000000
  70
    32
  0
VERTEX
  8
BAUTEIL
  5
1AA5
 10
19.5391
 20
14.5389
 30
0.000000
  70
    32
  0
VERTEX
  8
BAUTEIL
  5
1AA6
 10
19.5201
 20
14.5490
 30
0.000000
  70
    32
  0
VERTEX
  8
BAUTEIL
  5
1AA7
 10
19.5011
 20
14.5589
 30
0.000000
  70
    32
  0
VERTEX
  8
BAUTEIL
  5
1AA8
 10
19.4821
 20
14.5685
 30
0.000000
  70
    32
  0
VERTEX
  8
BAUTEIL
  5
1AA9
 10
19.4631
 20
14.5780
 30
0.000000
  70
    32
  0
VERTEX
  8
BAUTEIL
  5
1AAA
 10
19.4442
 20
14.5872
 30
0.000000
  70
    32
  0
VERTEX
  8
BAUTEIL
  5
1AAB
 10
19.4252
 20
14.5963
 30
0.000000
  70
    32
  0
VERTEX
  8
BAUTEIL
  5
1AAC
 10
19.4063
 20
14.6051
 30
0.000000
  70
    32
  0
VERTEX
  8
BAUTEIL
  5
1AAD
 10
19.3874
 20
14.6137
 30
0.000000
  70
    32
  0
VERTEX
  8
BAUTEIL
  5
1AAE
 10
19.3685
 20
14.6221
 30
0.000000
  70
    32
  0
VERTEX
  8
BAUTEIL
  5
1AAF
 10
19.3496
 20
14.6303
 30
0.000000
  70
    32
  0
VERTEX
  8
BAUTEIL
  5
1AB0
 10
19.3307
 20
14.6383
 30
0.000000
  70
    32
  0
VERTEX
  8
BAUTEIL
  5
1AB1
 10
19.3119
 20
14.6460
 30
0.000000
  70
    32
  0
VERTEX
  8
BAUTEIL
  5
1AB2
 10
19.2931
 20
14.6536
 30
0.000000
  70
    32
  0
VERTEX
  8
BAUTEIL
  5
1AB3
 10
19.2743
 20
14.6609
 30
0.000000
  70
    32
  0
VERTEX
  8
BAUTEIL
  5
1AB4
 10
19.2556
 20
14.6680
 30
0.000000
  70
    32
  0
VERTEX
  8
BAUTEIL
  5
1AB5
 10
19.2369
 20
14.6750
 30
0.000000
  70
    32
  0
VERTEX
  8
BAUTEIL
  5
1AB6
 10
19.2182
 20
14.6816
 30
0.000000
  70
    32
  0
VERTEX
  8
BAUTEIL
  5
1AB7
 10
19.1995
 20
14.6881
 30
0.000000
  70
    32
  0
VERTEX
  8
BAUTEIL
  5
1AB8
 10
19.1809
 20
14.6944
 30
0.000000
  70
    32
  0
VERTEX
  8
BAUTEIL
  5
1AB9
 10
19.1623
 20
14.7004
 30
0.000000
  70
    32
  0
VERTEX
  8
BAUTEIL
  5
1ABA
 10
19.1438
 20
14.7062
 30
0.000000
  70
    32
  0
VERTEX
  8
BAUTEIL
  5
1ABB
 10
19.1253
 20
14.7119
 30
0.000000
  70
    32
  0
VERTEX
  8
BAUTEIL
  5
1ABC
 10
19.1068
 20
14.7172
 30
0.000000
  70
    32
  0
VERTEX
  8
BAUTEIL
  5
1ABD
 10
19.0884
 20
14.7224
 30
0.000000
  70
    32
  0
VERTEX
  8
BAUTEIL
  5
1ABE
 10
19.0700
 20
14.7274
 30
0.000000
  70
    32
  0
VERTEX
  8
BAUTEIL
  5
1ABF
 10
19.0517
 20
14.7321
 30
0.000000
  70
    32
  0
VERTEX
  8
BAUTEIL
  5
1AC0
 10
19.0334
 20
14.7366
 30
0.000000
  70
    32
  0
VERTEX
  8
BAUTEIL
  5
1AC1
 10
19.0152
 20
14.7409
 30
0.000000
  70
    32
  0
VERTEX
  8
BAUTEIL
  5
1AC2
 10
18.9970
 20
14.7449
 30
0.000000
  70
    32
  0
VERTEX
  8
BAUTEIL
  5
1AC3
 10
18.9788
 20
14.7488
 30
0.000000
  70
    32
  0
VERTEX
  8
BAUTEIL
  5
1AC4
 10
18.9608
 20
14.7524
 30
0.000000
  70
    32
  0
VERTEX
  8
BAUTEIL
  5
1AC5
 10
18.9427
 20
14.7558
 30
0.000000
  70
    32
  0
VERTEX
  8
BAUTEIL
  5
1AC6
 10
18.9248
 20
14.7590
 30
0.000000
  70
    32
  0
VERTEX
  8
BAUTEIL
  5
1AC7
 10
18.9068
 20
14.7619
 30
0.000000
  70
    32
  0
VERTEX
  8
BAUTEIL
  5
1AC8
 10
18.8890
 20
14.7646
 30
0.000000
  70
    32
  0
VERTEX
  8
BAUTEIL
  5
1AC9
 10
18.8712
 20
14.7671
 30
0.000000
  70
    32
  0
VERTEX
  8
BAUTEIL
  5
1ACA
 10
18.8535
 20
14.7694
 30
0.000000
  70
    32
  0
VERTEX
  8
BAUTEIL
  5
1ACB
 10
18.8358
 20
14.7715
 30
0.000000
  70
    32
  0
VERTEX
  8
BAUTEIL
  5
1ACC
 10
18.8182
 20
14.7733
 30
0.000000
  70
    32
  0
VERTEX
  8
BAUTEIL
  5
1ACD
 10
18.8007
 20
14.7749
 30
0.000000
  70
    32
  0
VERTEX
  8
BAUTEIL
  5
1ACE
 10
18.7832
 20
14.7763
 30
0.000000
  70
    32
  0
VERTEX
  8
BAUTEIL
  5
1ACF
 10
18.7658
 20
14.7775
 30
0.000000
  70
    32
  0
VERTEX
  8
BAUTEIL
  5
1AD0
 10
18.7485
 20
14.7784
 30
0.000000
  70
    32
  0
VERTEX
  8
BAUTEIL
  5
1AD1
 10
18.7312
 20
14.7791
 30
0.000000
  70
    32
  0
VERTEX
  8
BAUTEIL
  5
1AD2
 10
18.7141
 20
14.7796
 30
0.000000
  70
    32
  0
VERTEX
  8
BAUTEIL
  5
1AD3
 10
18.6970
 20
14.7799
 30
0.000000
  70
    32
  0
VERTEX
  8
BAUTEIL
  5
1AD4
 10
18.6799
 20
14.7799
 30
0.000000
  70
    32
  0
VERTEX
  8
BAUTEIL
  5
1AD5
 10
18.6630
 20
14.7797
 30
0.000000
  70
    32
  0
VERTEX
  8
BAUTEIL
  5
1AD6
 10
18.6461
 20
14.7793
 30
0.000000
  70
    32
  0
VERTEX
  8
BAUTEIL
  5
1AD7
 10
18.6293
 20
14.7787
 30
0.000000
  70
    32
  0
VERTEX
  8
BAUTEIL
  5
1AD8
 10
18.6126
 20
14.7778
 30
0.000000
  70
    32
  0
VERTEX
  8
BAUTEIL
  5
1AD9
 10
18.5960
 20
14.7767
 30
0.000000
  70
    32
  0
VERTEX
  8
BAUTEIL
  5
1ADA
 10
18.5795
 20
14.7754
 30
0.000000
  70
    32
  0
VERTEX
  8
BAUTEIL
  5
1ADB
 10
18.5630
 20
14.7739
 30
0.000000
  70
    32
  0
VERTEX
  8
BAUTEIL
  5
1ADC
 10
18.5467
 20
14.7721
 30
0.000000
  70
    32
  0
VERTEX
  8
BAUTEIL
  5
1ADD
 10
18.5304
 20
14.7701
 30
0.000000
  70
    32
  0
VERTEX
  8
BAUTEIL
  5
1ADE
 10
18.5142
 20
14.7679
 30
0.000000
  70
    32
  0
VERTEX
  8
BAUTEIL
  5
1ADF
 10
18.4981
 20
14.7655
 30
0.000000
  70
    32
  0
VERTEX
  8
BAUTEIL
  5
1AE0
 10
18.4821
 20
14.7628
 30
0.000000
  70
    32
  0
VERTEX
  8
BAUTEIL
  5
1AE1
 10
18.4662
 20
14.7600
 30
0.000000
  70
    32
  0
SEQEND
  8
BAUTEIL
  5
1AE2
  0
LINE
  5
9D2
  8
BAUTEIL
  6
CONTINUOUS
 62
     7
 10
18.948469071915611
 20
12.38509412077758
 30
0.0
 11
20.515394120743739
 21
13.28975720671508
 31
0.0
  0
POLYLINE
  5
9D3
  8
BAUTEIL
  6
CONTINUOUS
 62
     7
 10
18.68560767702316
 20
12.233301616645438
 30
0.0
 66
     1
 70
     8
  0
VERTEX
  8
BAUTEIL
  5
1AE3
 10
18.6856
 20
12.2333
 30
0.000000
  70
    32
  0
VERTEX
  8
BAUTEIL
  5
1AE4
 10
18.6697
 20
12.2545
 30
0.000000
  70
    32
  0
VERTEX
  8
BAUTEIL
  5
1AE5
 10
18.6537
 20
12.2757
 30
0.000000
  70
    32
  0
VERTEX
  8
BAUTEIL
  5
1AE6
 10
18.6376
 20
12.2967
 30
0.000000
  70
    32
  0
VERTEX
  8
BAUTEIL
  5
1AE7
 10
18.6214
 20
12.3176
 30
0.000000
  70
    32
  0
VERTEX
  8
BAUTEIL
  5
1AE8
 10
18.6052
 20
12.3383
 30
0.000000
  70
    32
  0
VERTEX
  8
BAUTEIL
  5
1AE9
 10
18.5888
 20
12.3590
 30
0.000000
  70
    32
  0
VERTEX
  8
BAUTEIL
  5
1AEA
 10
18.5724
 20
12.3795
 30
0.000000
  70
    32
  0
VERTEX
  8
BAUTEIL
  5
1AEB
 10
18.5558
 20
12.3999
 30
0.000000
  70
    32
  0
VERTEX
  8
BAUTEIL
  5
1AEC
 10
18.5392
 20
12.4202
 30
0.000000
  70
    32
  0
VERTEX
  8
BAUTEIL
  5
1AED
 10
18.5225
 20
12.4403
 30
0.000000
  70
    32
  0
VERTEX
  8
BAUTEIL
  5
1AEE
 10
18.5057
 20
12.4604
 30
0.000000
  70
    32
  0
VERTEX
  8
BAUTEIL
  5
1AEF
 10
18.4889
 20
12.4802
 30
0.000000
  70
    32
  0
VERTEX
  8
BAUTEIL
  5
1AF0
 10
18.4719
 20
12.5000
 30
0.000000
  70
    32
  0
VERTEX
  8
BAUTEIL
  5
1AF1
 10
18.4549
 20
12.5196
 30
0.000000
  70
    32
  0
VERTEX
  8
BAUTEIL
  5
1AF2
 10
18.4378
 20
12.5391
 30
0.000000
  70
    32
  0
VERTEX
  8
BAUTEIL
  5
1AF3
 10
18.4206
 20
12.5585
 30
0.000000
  70
    32
  0
VERTEX
  8
BAUTEIL
  5
1AF4
 10
18.4034
 20
12.5777
 30
0.000000
  70
    32
  0
VERTEX
  8
BAUTEIL
  5
1AF5
 10
18.3860
 20
12.5967
 30
0.000000
  70
    32
  0
VERTEX
  8
BAUTEIL
  5
1AF6
 10
18.3686
 20
12.6157
 30
0.000000
  70
    32
  0
VERTEX
  8
BAUTEIL
  5
1AF7
 10
18.3512
 20
12.6344
 30
0.000000
  70
    32
  0
VERTEX
  8
BAUTEIL
  5
1AF8
 10
18.3336
 20
12.6531
 30
0.000000
  70
    32
  0
VERTEX
  8
BAUTEIL
  5
1AF9
 10
18.3160
 20
12.6716
 30
0.000000
  70
    32
  0
VERTEX
  8
BAUTEIL
  5
1AFA
 10
18.2984
 20
12.6899
 30
0.000000
  70
    32
  0
VERTEX
  8
BAUTEIL
  5
1AFB
 10
18.2806
 20
12.7081
 30
0.000000
  70
    32
  0
VERTEX
  8
BAUTEIL
  5
1AFC
 10
18.2629
 20
12.7261
 30
0.000000
  70
    32
  0
VERTEX
  8
BAUTEIL
  5
1AFD
 10
18.2450
 20
12.7440
 30
0.000000
  70
    32
  0
VERTEX
  8
BAUTEIL
  5
1AFE
 10
18.2271
 20
12.7618
 30
0.000000
  70
    32
  0
VERTEX
  8
BAUTEIL
  5
1AFF
 10
18.2091
 20
12.7793
 30
0.000000
  70
    32
  0
VERTEX
  8
BAUTEIL
  5
1B00
 10
18.1911
 20
12.7967
 30
0.000000
  70
    32
  0
VERTEX
  8
BAUTEIL
  5
1B01
 10
18.1730
 20
12.8140
 30
0.000000
  70
    32
  0
VERTEX
  8
BAUTEIL
  5
1B02
 10
18.1549
 20
12.8311
 30
0.000000
  70
    32
  0
VERTEX
  8
BAUTEIL
  5
1B03
 10
18.1367
 20
12.8480
 30
0.000000
  70
    32
  0
VERTEX
  8
BAUTEIL
  5
1B04
 10
18.1185
 20
12.8648
 30
0.000000
  70
    32
  0
VERTEX
  8
BAUTEIL
  5
1B05
 10
18.1002
 20
12.8814
 30
0.000000
  70
    32
  0
VERTEX
  8
BAUTEIL
  5
1B06
 10
18.0818
 20
12.8979
 30
0.000000
  70
    32
  0
VERTEX
  8
BAUTEIL
  5
1B07
 10
18.0635
 20
12.9141
 30
0.000000
  70
    32
  0
VERTEX
  8
BAUTEIL
  5
1B08
 10
18.0450
 20
12.9302
 30
0.000000
  70
    32
  0
VERTEX
  8
BAUTEIL
  5
1B09
 10
18.0266
 20
12.9462
 30
0.000000
  70
    32
  0
VERTEX
  8
BAUTEIL
  5
1B0A
 10
18.0081
 20
12.9619
 30
0.000000
  70
    32
  0
VERTEX
  8
BAUTEIL
  5
1B0B
 10
17.9895
 20
12.9775
 30
0.000000
  70
    32
  0
VERTEX
  8
BAUTEIL
  5
1B0C
 10
17.9709
 20
12.9929
 30
0.000000
  70
    32
  0
VERTEX
  8
BAUTEIL
  5
1B0D
 10
17.9523
 20
13.0082
 30
0.000000
  70
    32
  0
VERTEX
  8
BAUTEIL
  5
1B0E
 10
17.9337
 20
13.0232
 30
0.000000
  70
    32
  0
VERTEX
  8
BAUTEIL
  5
1B0F
 10
17.9150
 20
13.0381
 30
0.000000
  70
    32
  0
VERTEX
  8
BAUTEIL
  5
1B10
 10
17.8963
 20
13.0528
 30
0.000000
  70
    32
  0
VERTEX
  8
BAUTEIL
  5
1B11
 10
17.8775
 20
13.0674
 30
0.000000
  70
    32
  0
VERTEX
  8
BAUTEIL
  5
1B12
 10
17.8587
 20
13.0817
 30
0.000000
  70
    32
  0
VERTEX
  8
BAUTEIL
  5
1B13
 10
17.8399
 20
13.0959
 30
0.000000
  70
    32
  0
VERTEX
  8
BAUTEIL
  5
1B14
 10
17.8211
 20
13.1098
 30
0.000000
  70
    32
  0
VERTEX
  8
BAUTEIL
  5
1B15
 10
17.8023
 20
13.1236
 30
0.000000
  70
    32
  0
VERTEX
  8
BAUTEIL
  5
1B16
 10
17.7834
 20
13.1372
 30
0.000000
  70
    32
  0
VERTEX
  8
BAUTEIL
  5
1B17
 10
17.7645
 20
13.1507
 30
0.000000
  70
    32
  0
VERTEX
  8
BAUTEIL
  5
1B18
 10
17.7456
 20
13.1639
 30
0.000000
  70
    32
  0
VERTEX
  8
BAUTEIL
  5
1B19
 10
17.7266
 20
13.1769
 30
0.000000
  70
    32
  0
VERTEX
  8
BAUTEIL
  5
1B1A
 10
17.7077
 20
13.1898
 30
0.000000
  70
    32
  0
VERTEX
  8
BAUTEIL
  5
1B1B
 10
17.6887
 20
13.2024
 30
0.000000
  70
    32
  0
VERTEX
  8
BAUTEIL
  5
1B1C
 10
17.6697
 20
13.2149
 30
0.000000
  70
    32
  0
VERTEX
  8
BAUTEIL
  5
1B1D
 10
17.6508
 20
13.2272
 30
0.000000
  70
    32
  0
VERTEX
  8
BAUTEIL
  5
1B1E
 10
17.6318
 20
13.2392
 30
0.000000
  70
    32
  0
VERTEX
  8
BAUTEIL
  5
1B1F
 10
17.6128
 20
13.2511
 30
0.000000
  70
    32
  0
VERTEX
  8
BAUTEIL
  5
1B20
 10
17.5938
 20
13.2628
 30
0.000000
  70
    32
  0
VERTEX
  8
BAUTEIL
  5
1B21
 10
17.5747
 20
13.2743
 30
0.000000
  70
    32
  0
VERTEX
  8
BAUTEIL
  5
1B22
 10
17.5557
 20
13.2855
 30
0.000000
  70
    32
  0
VERTEX
  8
BAUTEIL
  5
1B23
 10
17.5367
 20
13.2966
 30
0.000000
  70
    32
  0
VERTEX
  8
BAUTEIL
  5
1B24
 10
17.5177
 20
13.3075
 30
0.000000
  70
    32
  0
VERTEX
  8
BAUTEIL
  5
1B25
 10
17.4987
 20
13.3182
 30
0.000000
  70
    32
  0
VERTEX
  8
BAUTEIL
  5
1B26
 10
17.4796
 20
13.3287
 30
0.000000
  70
    32
  0
VERTEX
  8
BAUTEIL
  5
1B27
 10
17.4606
 20
13.3389
 30
0.000000
  70
    32
  0
VERTEX
  8
BAUTEIL
  5
1B28
 10
17.4416
 20
13.3490
 30
0.000000
  70
    32
  0
VERTEX
  8
BAUTEIL
  5
1B29
 10
17.4226
 20
13.3589
 30
0.000000
  70
    32
  0
VERTEX
  8
BAUTEIL
  5
1B2A
 10
17.4036
 20
13.3685
 30
0.000000
  70
    32
  0
VERTEX
  8
BAUTEIL
  5
1B2B
 10
17.3847
 20
13.3780
 30
0.000000
  70
    32
  0
VERTEX
  8
BAUTEIL
  5
1B2C
 10
17.3657
 20
13.3872
 30
0.000000
  70
    32
  0
VERTEX
  8
BAUTEIL
  5
1B2D
 10
17.3468
 20
13.3962
 30
0.000000
  70
    32
  0
VERTEX
  8
BAUTEIL
  5
1B2E
 10
17.3278
 20
13.4051
 30
0.000000
  70
    32
  0
VERTEX
  8
BAUTEIL
  5
1B2F
 10
17.3089
 20
13.4137
 30
0.000000
  70
    32
  0
VERTEX
  8
BAUTEIL
  5
1B30
 10
17.2900
 20
13.4221
 30
0.000000
  70
    32
  0
VERTEX
  8
BAUTEIL
  5
1B31
 10
17.2711
 20
13.4303
 30
0.000000
  70
    32
  0
VERTEX
  8
BAUTEIL
  5
1B32
 10
17.2523
 20
13.4383
 30
0.000000
  70
    32
  0
VERTEX
  8
BAUTEIL
  5
1B33
 10
17.2335
 20
13.4460
 30
0.000000
  70
    32
  0
VERTEX
  8
BAUTEIL
  5
1B34
 10
17.2146
 20
13.4536
 30
0.000000
  70
    32
  0
VERTEX
  8
BAUTEIL
  5
1B35
 10
17.1959
 20
13.4609
 30
0.000000
  70
    32
  0
VERTEX
  8
BAUTEIL
  5
1B36
 10
17.1771
 20
13.4680
 30
0.000000
  70
    32
  0
VERTEX
  8
BAUTEIL
  5
1B37
 10
17.1584
 20
13.4749
 30
0.000000
  70
    32
  0
VERTEX
  8
BAUTEIL
  5
1B38
 10
17.1397
 20
13.4816
 30
0.000000
  70
    32
  0
VERTEX
  8
BAUTEIL
  5
1B39
 10
17.1211
 20
13.4881
 30
0.000000
  70
    32
  0
VERTEX
  8
BAUTEIL
  5
1B3A
 10
17.1024
 20
13.4944
 30
0.000000
  70
    32
  0
VERTEX
  8
BAUTEIL
  5
1B3B
 10
17.0839
 20
13.5004
 30
0.000000
  70
    32
  0
VERTEX
  8
BAUTEIL
  5
1B3C
 10
17.0653
 20
13.5062
 30
0.000000
  70
    32
  0
VERTEX
  8
BAUTEIL
  5
1B3D
 10
17.0468
 20
13.5118
 30
0.000000
  70
    32
  0
VERTEX
  8
BAUTEIL
  5
1B3E
 10
17.0283
 20
13.5172
 30
0.000000
  70
    32
  0
VERTEX
  8
BAUTEIL
  5
1B3F
 10
17.0099
 20
13.5224
 30
0.000000
  70
    32
  0
VERTEX
  8
BAUTEIL
  5
1B40
 10
16.9915
 20
13.5273
 30
0.000000
  70
    32
  0
VERTEX
  8
BAUTEIL
  5
1B41
 10
16.9732
 20
13.5321
 30
0.000000
  70
    32
  0
VERTEX
  8
BAUTEIL
  5
1B42
 10
16.9549
 20
13.5366
 30
0.000000
  70
    32
  0
VERTEX
  8
BAUTEIL
  5
1B43
 10
16.9367
 20
13.5409
 30
0.000000
  70
    32
  0
VERTEX
  8
BAUTEIL
  5
1B44
 10
16.9185
 20
13.5449
 30
0.000000
  70
    32
  0
VERTEX
  8
BAUTEIL
  5
1B45
 10
16.9004
 20
13.5488
 30
0.000000
  70
    32
  0
VERTEX
  8
BAUTEIL
  5
1B46
 10
16.8823
 20
13.5524
 30
0.000000
  70
    32
  0
VERTEX
  8
BAUTEIL
  5
1B47
 10
16.8643
 20
13.5558
 30
0.000000
  70
    32
  0
VERTEX
  8
BAUTEIL
  5
1B48
 10
16.8463
 20
13.5590
 30
0.000000
  70
    32
  0
VERTEX
  8
BAUTEIL
  5
1B49
 10
16.8284
 20
13.5619
 30
0.000000
  70
    32
  0
VERTEX
  8
BAUTEIL
  5
1B4A
 10
16.8105
 20
13.5646
 30
0.000000
  70
    32
  0
VERTEX
  8
BAUTEIL
  5
1B4B
 10
16.7927
 20
13.5671
 30
0.000000
  70
    32
  0
VERTEX
  8
BAUTEIL
  5
1B4C
 10
16.7750
 20
13.5694
 30
0.000000
  70
    32
  0
VERTEX
  8
BAUTEIL
  5
1B4D
 10
16.7574
 20
13.5715
 30
0.000000
  70
    32
  0
VERTEX
  8
BAUTEIL
  5
1B4E
 10
16.7398
 20
13.5733
 30
0.000000
  70
    32
  0
VERTEX
  8
BAUTEIL
  5
1B4F
 10
16.7222
 20
13.5749
 30
0.000000
  70
    32
  0
VERTEX
  8
BAUTEIL
  5
1B50
 10
16.7048
 20
13.5763
 30
0.000000
  70
    32
  0
VERTEX
  8
BAUTEIL
  5
1B51
 10
16.6874
 20
13.5775
 30
0.000000
  70
    32
  0
VERTEX
  8
BAUTEIL
  5
1B52
 10
16.6700
 20
13.5784
 30
0.000000
  70
    32
  0
VERTEX
  8
BAUTEIL
  5
1B53
 10
16.6528
 20
13.5791
 30
0.000000
  70
    32
  0
VERTEX
  8
BAUTEIL
  5
1B54
 10
16.6356
 20
13.5796
 30
0.000000
  70
    32
  0
VERTEX
  8
BAUTEIL
  5
1B55
 10
16.6185
 20
13.5799
 30
0.000000
  70
    32
  0
VERTEX
  8
BAUTEIL
  5
1B56
 10
16.6015
 20
13.5799
 30
0.000000
  70
    32
  0
VERTEX
  8
BAUTEIL
  5
1B57
 10
16.5845
 20
13.5797
 30
0.000000
  70
    32
  0
VERTEX
  8
BAUTEIL
  5
1B58
 10
16.5677
 20
13.5793
 30
0.000000
  70
    32
  0
VERTEX
  8
BAUTEIL
  5
1B59
 10
16.5509
 20
13.5787
 30
0.000000
  70
    32
  0
VERTEX
  8
BAUTEIL
  5
1B5A
 10
16.5342
 20
13.5778
 30
0.000000
  70
    32
  0
VERTEX
  8
BAUTEIL
  5
1B5B
 10
16.5176
 20
13.5767
 30
0.000000
  70
    32
  0
VERTEX
  8
BAUTEIL
  5
1B5C
 10
16.5010
 20
13.5754
 30
0.000000
  70
    32
  0
VERTEX
  8
BAUTEIL
  5
1B5D
 10
16.4846
 20
13.5739
 30
0.000000
  70
    32
  0
VERTEX
  8
BAUTEIL
  5
1B5E
 10
16.4682
 20
13.5721
 30
0.000000
  70
    32
  0
VERTEX
  8
BAUTEIL
  5
1B5F
 10
16.4519
 20
13.5701
 30
0.000000
  70
    32
  0
VERTEX
  8
BAUTEIL
  5
1B60
 10
16.4358
 20
13.5679
 30
0.000000
  70
    32
  0
VERTEX
  8
BAUTEIL
  5
1B61
 10
16.4197
 20
13.5655
 30
0.000000
  70
    32
  0
VERTEX
  8
BAUTEIL
  5
1B62
 10
16.4037
 20
13.5628
 30
0.000000
  70
    32
  0
VERTEX
  8
BAUTEIL
  5
1B63
 10
16.3878
 20
13.5599
 30
0.000000
  70
    32
  0
SEQEND
  8
BAUTEIL
  5
1B64
  0
LINE
  5
9D4
  8
BAUTEIL
  6
CONTINUOUS
 62
     7
 10
15.905195146134361
 20
11.72249646452758
 30
0.0
 11
16.771222978165611
 21
12.22249646452758
 31
0.0
  0
LINE
  5
9D5
  8
BAUTEIL
  6
CONTINUOUS
 62
     7
 10
16.919660478165611
 20
13.8670582321057
 30
0.0
 11
18.322461991837478
 21
14.67696423796508
 31
0.0
  0
POLYLINE
  5
9D6
  8
BAUTEIL
  6
CONTINUOUS
 62
     6
 10
21.85968648196701
 20
12.800757825069168
 30
0.0
 66
     1
 70
     8
  0
VERTEX
  8
BAUTEIL
  5
1B65
 10
21.8597
 20
12.8008
 30
0.000000
  70
    32
  0
VERTEX
  8
BAUTEIL
  5
1B66
 10
21.8586
 20
12.8250
 30
0.000000
  70
    32
  0
VERTEX
  8
BAUTEIL
  5
1B67
 10
21.8574
 20
12.8493
 30
0.000000
  70
    32
  0
VERTEX
  8
BAUTEIL
  5
1B68
 10
21.8563
 20
12.8736
 30
0.000000
  70
    32
  0
VERTEX
  8
BAUTEIL
  5
1B69
 10
21.8551
 20
12.8979
 30
0.000000
  70
    32
  0
VERTEX
  8
BAUTEIL
  5
1B6A
 10
21.8538
 20
12.9222
 30
0.000000
  70
    32
  0
VERTEX
  8
BAUTEIL
  5
1B6B
 10
21.8526
 20
12.9466
 30
0.000000
  70
    32
  0
VERTEX
  8
BAUTEIL
  5
1B6C
 10
21.8513
 20
12.9709
 30
0.000000
  70
    32
  0
VERTEX
  8
BAUTEIL
  5
1B6D
 10
21.8500
 20
12.9953
 30
0.000000
  70
    32
  0
VERTEX
  8
BAUTEIL
  5
1B6E
 10
21.8487
 20
13.0196
 30
0.000000
  70
    32
  0
VERTEX
  8
BAUTEIL
  5
1B6F
 10
21.8474
 20
13.0440
 30
0.000000
  70
    32
  0
VERTEX
  8
BAUTEIL
  5
1B70
 10
21.8460
 20
13.0684
 30
0.000000
  70
    32
  0
VERTEX
  8
BAUTEIL
  5
1B71
 10
21.8446
 20
13.0928
 30
0.000000
  70
    32
  0
VERTEX
  8
BAUTEIL
  5
1B72
 10
21.8432
 20
13.1172
 30
0.000000
  70
    32
  0
VERTEX
  8
BAUTEIL
  5
1B73
 10
21.8418
 20
13.1417
 30
0.000000
  70
    32
  0
VERTEX
  8
BAUTEIL
  5
1B74
 10
21.8403
 20
13.1661
 30
0.000000
  70
    32
  0
VERTEX
  8
BAUTEIL
  5
1B75
 10
21.8388
 20
13.1906
 30
0.000000
  70
    32
  0
VERTEX
  8
BAUTEIL
  5
1B76
 10
21.8373
 20
13.2150
 30
0.000000
  70
    32
  0
VERTEX
  8
BAUTEIL
  5
1B77
 10
21.8358
 20
13.2395
 30
0.000000
  70
    32
  0
VERTEX
  8
BAUTEIL
  5
1B78
 10
21.8343
 20
13.2640
 30
0.000000
  70
    32
  0
VERTEX
  8
BAUTEIL
  5
1B79
 10
21.8327
 20
13.2885
 30
0.000000
  70
    32
  0
VERTEX
  8
BAUTEIL
  5
1B7A
 10
21.8311
 20
13.3130
 30
0.000000
  70
    32
  0
VERTEX
  8
BAUTEIL
  5
1B7B
 10
21.8294
 20
13.3375
 30
0.000000
  70
    32
  0
VERTEX
  8
BAUTEIL
  5
1B7C
 10
21.8278
 20
13.3621
 30
0.000000
  70
    32
  0
VERTEX
  8
BAUTEIL
  5
1B7D
 10
21.8261
 20
13.3866
 30
0.000000
  70
    32
  0
VERTEX
  8
BAUTEIL
  5
1B7E
 10
21.8244
 20
13.4112
 30
0.000000
  70
    32
  0
VERTEX
  8
BAUTEIL
  5
1B7F
 10
21.8227
 20
13.4357
 30
0.000000
  70
    32
  0
VERTEX
  8
BAUTEIL
  5
1B80
 10
21.8209
 20
13.4603
 30
0.000000
  70
    32
  0
VERTEX
  8
BAUTEIL
  5
1B81
 10
21.8192
 20
13.4849
 30
0.000000
  70
    32
  0
VERTEX
  8
BAUTEIL
  5
1B82
 10
21.8174
 20
13.5095
 30
0.000000
  70
    32
  0
VERTEX
  8
BAUTEIL
  5
1B83
 10
21.8155
 20
13.5341
 30
0.000000
  70
    32
  0
VERTEX
  8
BAUTEIL
  5
1B84
 10
21.8137
 20
13.5588
 30
0.000000
  70
    32
  0
VERTEX
  8
BAUTEIL
  5
1B85
 10
21.8118
 20
13.5834
 30
0.000000
  70
    32
  0
VERTEX
  8
BAUTEIL
  5
1B86
 10
21.8099
 20
13.6081
 30
0.000000
  70
    32
  0
VERTEX
  8
BAUTEIL
  5
1B87
 10
21.8080
 20
13.6327
 30
0.000000
  70
    32
  0
VERTEX
  8
BAUTEIL
  5
1B88
 10
21.8061
 20
13.6574
 30
0.000000
  70
    32
  0
VERTEX
  8
BAUTEIL
  5
1B89
 10
21.8041
 20
13.6821
 30
0.000000
  70
    32
  0
VERTEX
  8
BAUTEIL
  5
1B8A
 10
21.8021
 20
13.7068
 30
0.000000
  70
    32
  0
VERTEX
  8
BAUTEIL
  5
1B8B
 10
21.8001
 20
13.7315
 30
0.000000
  70
    32
  0
VERTEX
  8
BAUTEIL
  5
1B8C
 10
21.7981
 20
13.7562
 30
0.000000
  70
    32
  0
VERTEX
  8
BAUTEIL
  5
1B8D
 10
21.7960
 20
13.7809
 30
0.000000
  70
    32
  0
VERTEX
  8
BAUTEIL
  5
1B8E
 10
21.7939
 20
13.8057
 30
0.000000
  70
    32
  0
VERTEX
  8
BAUTEIL
  5
1B8F
 10
21.7918
 20
13.8304
 30
0.000000
  70
    32
  0
VERTEX
  8
BAUTEIL
  5
1B90
 10
21.7897
 20
13.8552
 30
0.000000
  70
    32
  0
VERTEX
  8
BAUTEIL
  5
1B91
 10
21.7875
 20
13.8800
 30
0.000000
  70
    32
  0
VERTEX
  8
BAUTEIL
  5
1B92
 10
21.7853
 20
13.9048
 30
0.000000
  70
    32
  0
VERTEX
  8
BAUTEIL
  5
1B93
 10
21.7831
 20
13.9296
 30
0.000000
  70
    32
  0
VERTEX
  8
BAUTEIL
  5
1B94
 10
21.7809
 20
13.9544
 30
0.000000
  70
    32
  0
VERTEX
  8
BAUTEIL
  5
1B95
 10
21.7786
 20
13.9792
 30
0.000000
  70
    32
  0
VERTEX
  8
BAUTEIL
  5
1B96
 10
21.7763
 20
14.0040
 30
0.000000
  70
    32
  0
VERTEX
  8
BAUTEIL
  5
1B97
 10
21.7740
 20
14.0288
 30
0.000000
  70
    32
  0
VERTEX
  8
BAUTEIL
  5
1B98
 10
21.7717
 20
14.0537
 30
0.000000
  70
    32
  0
VERTEX
  8
BAUTEIL
  5
1B99
 10
21.7694
 20
14.0786
 30
0.000000
  70
    32
  0
VERTEX
  8
BAUTEIL
  5
1B9A
 10
21.7670
 20
14.1034
 30
0.000000
  70
    32
  0
VERTEX
  8
BAUTEIL
  5
1B9B
 10
21.7646
 20
14.1283
 30
0.000000
  70
    32
  0
VERTEX
  8
BAUTEIL
  5
1B9C
 10
21.7622
 20
14.1532
 30
0.000000
  70
    32
  0
VERTEX
  8
BAUTEIL
  5
1B9D
 10
21.7597
 20
14.1781
 30
0.000000
  70
    32
  0
VERTEX
  8
BAUTEIL
  5
1B9E
 10
21.7572
 20
14.2030
 30
0.000000
  70
    32
  0
VERTEX
  8
BAUTEIL
  5
1B9F
 10
21.7547
 20
14.2279
 30
0.000000
  70
    32
  0
VERTEX
  8
BAUTEIL
  5
1BA0
 10
21.7522
 20
14.2529
 30
0.000000
  70
    32
  0
VERTEX
  8
BAUTEIL
  5
1BA1
 10
21.7497
 20
14.2778
 30
0.000000
  70
    32
  0
VERTEX
  8
BAUTEIL
  5
1BA2
 10
21.7471
 20
14.3028
 30
0.000000
  70
    32
  0
VERTEX
  8
BAUTEIL
  5
1BA3
 10
21.7445
 20
14.3277
 30
0.000000
  70
    32
  0
VERTEX
  8
BAUTEIL
  5
1BA4
 10
21.7419
 20
14.3527
 30
0.000000
  70
    32
  0
VERTEX
  8
BAUTEIL
  5
1BA5
 10
21.7392
 20
14.3777
 30
0.000000
  70
    32
  0
VERTEX
  8
BAUTEIL
  5
1BA6
 10
21.7366
 20
14.4027
 30
0.000000
  70
    32
  0
VERTEX
  8
BAUTEIL
  5
1BA7
 10
21.7339
 20
14.4277
 30
0.000000
  70
    32
  0
VERTEX
  8
BAUTEIL
  5
1BA8
 10
21.7312
 20
14.4527
 30
0.000000
  70
    32
  0
VERTEX
  8
BAUTEIL
  5
1BA9
 10
21.7284
 20
14.4778
 30
0.000000
  70
    32
  0
VERTEX
  8
BAUTEIL
  5
1BAA
 10
21.7257
 20
14.5028
 30
0.000000
  70
    32
  0
VERTEX
  8
BAUTEIL
  5
1BAB
 10
21.7229
 20
14.5278
 30
0.000000
  70
    32
  0
VERTEX
  8
BAUTEIL
  5
1BAC
 10
21.7201
 20
14.5529
 30
0.000000
  70
    32
  0
VERTEX
  8
BAUTEIL
  5
1BAD
 10
21.7173
 20
14.5780
 30
0.000000
  70
    32
  0
VERTEX
  8
BAUTEIL
  5
1BAE
 10
21.7144
 20
14.6030
 30
0.000000
  70
    32
  0
VERTEX
  8
BAUTEIL
  5
1BAF
 10
21.7115
 20
14.6281
 30
0.000000
  70
    32
  0
VERTEX
  8
BAUTEIL
  5
1BB0
 10
21.7086
 20
14.6532
 30
0.000000
  70
    32
  0
VERTEX
  8
BAUTEIL
  5
1BB1
 10
21.7057
 20
14.6783
 30
0.000000
  70
    32
  0
VERTEX
  8
BAUTEIL
  5
1BB2
 10
21.7027
 20
14.7035
 30
0.000000
  70
    32
  0
VERTEX
  8
BAUTEIL
  5
1BB3
 10
21.6998
 20
14.7286
 30
0.000000
  70
    32
  0
VERTEX
  8
BAUTEIL
  5
1BB4
 10
21.6968
 20
14.7537
 30
0.000000
  70
    32
  0
VERTEX
  8
BAUTEIL
  5
1BB5
 10
21.6937
 20
14.7789
 30
0.000000
  70
    32
  0
VERTEX
  8
BAUTEIL
  5
1BB6
 10
21.6907
 20
14.8040
 30
0.000000
  70
    32
  0
VERTEX
  8
BAUTEIL
  5
1BB7
 10
21.6876
 20
14.8292
 30
0.000000
  70
    32
  0
VERTEX
  8
BAUTEIL
  5
1BB8
 10
21.6845
 20
14.8544
 30
0.000000
  70
    32
  0
VERTEX
  8
BAUTEIL
  5
1BB9
 10
21.6814
 20
14.8795
 30
0.000000
  70
    32
  0
VERTEX
  8
BAUTEIL
  5
1BBA
 10
21.6782
 20
14.9047
 30
0.000000
  70
    32
  0
VERTEX
  8
BAUTEIL
  5
1BBB
 10
21.6751
 20
14.9299
 30
0.000000
  70
    32
  0
VERTEX
  8
BAUTEIL
  5
1BBC
 10
21.6719
 20
14.9552
 30
0.000000
  70
    32
  0
VERTEX
  8
BAUTEIL
  5
1BBD
 10
21.6687
 20
14.9804
 30
0.000000
  70
    32
  0
VERTEX
  8
BAUTEIL
  5
1BBE
 10
21.6654
 20
15.0056
 30
0.000000
  70
    32
  0
VERTEX
  8
BAUTEIL
  5
1BBF
 10
21.6622
 20
15.0309
 30
0.000000
  70
    32
  0
VERTEX
  8
BAUTEIL
  5
1BC0
 10
21.6589
 20
15.0561
 30
0.000000
  70
    32
  0
VERTEX
  8
BAUTEIL
  5
1BC1
 10
21.6556
 20
15.0814
 30
0.000000
  70
    32
  0
VERTEX
  8
BAUTEIL
  5
1BC2
 10
21.6522
 20
15.1066
 30
0.000000
  70
    32
  0
VERTEX
  8
BAUTEIL
  5
1BC3
 10
21.6489
 20
15.1319
 30
0.000000
  70
    32
  0
VERTEX
  8
BAUTEIL
  5
1BC4
 10
21.6455
 20
15.1572
 30
0.000000
  70
    32
  0
VERTEX
  8
BAUTEIL
  5
1BC5
 10
21.6421
 20
15.1825
 30
0.000000
  70
    32
  0
VERTEX
  8
BAUTEIL
  5
1BC6
 10
21.6386
 20
15.2078
 30
0.000000
  70
    32
  0
VERTEX
  8
BAUTEIL
  5
1BC7
 10
21.6352
 20
15.2331
 30
0.000000
  70
    32
  0
VERTEX
  8
BAUTEIL
  5
1BC8
 10
21.6317
 20
15.2584
 30
0.000000
  70
    32
  0
VERTEX
  8
BAUTEIL
  5
1BC9
 10
21.6282
 20
15.2838
 30
0.000000
  70
    32
  0
VERTEX
  8
BAUTEIL
  5
1BCA
 10
21.6247
 20
15.3091
 30
0.000000
  70
    32
  0
VERTEX
  8
BAUTEIL
  5
1BCB
 10
21.6211
 20
15.3345
 30
0.000000
  70
    32
  0
VERTEX
  8
BAUTEIL
  5
1BCC
 10
21.6175
 20
15.3598
 30
0.000000
  70
    32
  0
VERTEX
  8
BAUTEIL
  5
1BCD
 10
21.6139
 20
15.3852
 30
0.000000
  70
    32
  0
VERTEX
  8
BAUTEIL
  5
1BCE
 10
21.6103
 20
15.4106
 30
0.000000
  70
    32
  0
VERTEX
  8
BAUTEIL
  5
1BCF
 10
21.6067
 20
15.4360
 30
0.000000
  70
    32
  0
VERTEX
  8
BAUTEIL
  5
1BD0
 10
21.6030
 20
15.4614
 30
0.000000
  70
    32
  0
VERTEX
  8
BAUTEIL
  5
1BD1
 10
21.5993
 20
15.4868
 30
0.000000
  70
    32
  0
VERTEX
  8
BAUTEIL
  5
1BD2
 10
21.5956
 20
15.5122
 30
0.000000
  70
    32
  0
VERTEX
  8
BAUTEIL
  5
1BD3
 10
21.5918
 20
15.5376
 30
0.000000
  70
    32
  0
VERTEX
  8
BAUTEIL
  5
1BD4
 10
21.5881
 20
15.5630
 30
0.000000
  70
    32
  0
VERTEX
  8
BAUTEIL
  5
1BD5
 10
21.5843
 20
15.5885
 30
0.000000
  70
    32
  0
VERTEX
  8
BAUTEIL
  5
1BD6
 10
21.5805
 20
15.6139
 30
0.000000
  70
    32
  0
VERTEX
  8
BAUTEIL
  5
1BD7
 10
21.5766
 20
15.6394
 30
0.000000
  70
    32
  0
VERTEX
  8
BAUTEIL
  5
1BD8
 10
21.5728
 20
15.6648
 30
0.000000
  70
    32
  0
VERTEX
  8
BAUTEIL
  5
1BD9
 10
21.5689
 20
15.6903
 30
0.000000
  70
    32
  0
VERTEX
  8
BAUTEIL
  5
1BDA
 10
21.5650
 20
15.7158
 30
0.000000
  70
    32
  0
VERTEX
  8
BAUTEIL
  5
1BDB
 10
21.5610
 20
15.7413
 30
0.000000
  70
    32
  0
VERTEX
  8
BAUTEIL
  5
1BDC
 10
21.5571
 20
15.7668
 30
0.000000
  70
    32
  0
VERTEX
  8
BAUTEIL
  5
1BDD
 10
21.5531
 20
15.7923
 30
0.000000
  70
    32
  0
VERTEX
  8
BAUTEIL
  5
1BDE
 10
21.5491
 20
15.8178
 30
0.000000
  70
    32
  0
VERTEX
  8
BAUTEIL
  5
1BDF
 10
21.5451
 20
15.8433
 30
0.000000
  70
    32
  0
VERTEX
  8
BAUTEIL
  5
1BE0
 10
21.5410
 20
15.8689
 30
0.000000
  70
    32
  0
VERTEX
  8
BAUTEIL
  5
1BE1
 10
21.5370
 20
15.8944
 30
0.000000
  70
    32
  0
VERTEX
  8
BAUTEIL
  5
1BE2
 10
21.5329
 20
15.9199
 30
0.000000
  70
    32
  0
VERTEX
  8
BAUTEIL
  5
1BE3
 10
21.5287
 20
15.9455
 30
0.000000
  70
    32
  0
VERTEX
  8
BAUTEIL
  5
1BE4
 10
21.5246
 20
15.9711
 30
0.000000
  70
    32
  0
VERTEX
  8
BAUTEIL
  5
1BE5
 10
21.5204
 20
15.9966
 30
0.000000
  70
    32
  0
SEQEND
  8
BAUTEIL
  5
1BE6
  0
LINE
  5
9D7
  8
BAUTEIL
  6
CONTINUOUS
 62
     7
 10
22.646222978165611
 20
12.34664197234008
 30
0.0
 11
21.520399003556239
 21
15.99663586882445
 31
0.0
  0
LINE
  5
9D8
  8
BAUTEIL
  6
CONTINUOUS
 62
     6
 10
22.646222978165611
 20
12.34664197234008
 30
0.0
 11
20.764081864884361
 21
13.43331189421508
 31
0.0
  0
LINE
  5
9D9
  8
BAUTEIL
  6
CONTINUOUS
 62
     7
 10
18.359418778946861
 20
17.821648075855698
 30
0.0
 11
18.965650468399978
 21
18.17165417937133
 31
0.0
  0
LINE
  5
9DA
  8
BAUTEIL
  6
CONTINUOUS
 62
     6
 10
18.835737138321861
 20
19.14662976530883
 30
0.0
 11
18.835737138321861
 21
18.09664197234008
 31
0.0
  0
LINE
  5
9DB
  8
BAUTEIL
  6
CONTINUOUS
 62
     6
 10
18.835737138321861
 20
19.14662976530883
 30
0.0
 11
17.536695390274978
 21
19.89662976530883
 31
0.0
  0
LINE
  5
9DC
  8
BAUTEIL
  6
CONTINUOUS
 62
     7
 10
17.969709306290611
 20
18.14662976530883
 30
0.0
 11
18.835737138321861
 21
19.14662976530883
 31
0.0
  0
LINE
  5
9DD
  8
BAUTEIL
  6
CONTINUOUS
 62
     7
 10
15.285016923478111
 20
16.59664197234008
 30
0.0
 11
17.969709306290611
 21
18.14662976530883
 31
0.0
  0
LINE
  5
9DE
  8
BAUTEIL
  6
CONTINUOUS
 62
     6
 10
26.629957109024989
 20
14.64662976530883
 30
0.0
 11
25.504133134415611
 21
18.296623661793198
 31
0.0
  0
LINE
  5
9DF
  8
BAUTEIL
  6
CONTINUOUS
 62
     6
 10
27.062971025040611
 20
14.39662976530883
 30
0.0
 11
26.629957109024989
 21
14.64662976530883
 31
0.0
  0
LINE
  5
9E0
  8
BAUTEIL
  6
CONTINUOUS
 62
     6
 10
27.062971025040611
 20
12.39662976530883
 30
0.0
 11
27.062971025040611
 21
14.39662976530883
 31
0.0
  0
ENDBLK
  5
9E2
  8
0
  0
BLOCK
  8
0
 62
     5
  2
*U11
 70
     1
 10
0.0
 20
0.0
 30
0.0
  3
*U11
  1

  0
TEXT
  5
14FB
  8
0
  6
CONTINUOUS
 62
     1
 10
19.135499812995668
 20
55.033512079133182
 30
0.0
 40
2.0
  1
"Schutzvermerk nach DIN ISO 16016 beachten" 
 50
89.999999999999986
 41
1.1999999999999991
  0
TEXT
  5
14FC
  8
0
  6
CONTINUOUS
 62
     1
 10
19.13549981299569
 20
127.89751207913319
 30
0.0
 40
2.0
  1
"Please pay attention to copyright note DIN ISO 16016"
 50
89.999999999999986
 41
1.1999999999999991
 51
20.0
  0
ENDBLK
  5
14FE
  8
0
 62
     5
  0
BLOCK
  8
0
 62
     5
  2
*X12
 70
     1
 10
0.0
 20
0.0
 30
0.0
  3
*X12
  1

  0
LINE
  5
1500
  8
0
  6
CONTINUOUS
 62
     0
 10
202.7239389668502
 20
27.36453811398022
 30
0.0
 11
202.7334749940255
 21
27.37407414115561
 31
0.0
  0
LINE
  5
1501
  8
0
  6
CONTINUOUS
 62
     0
 10
202.5825176106128
 20
27.364538113980188
 30
0.0
 11
202.7334749940255
 21
27.515495497392859
 31
0.0
  0
LINE
  5
1502
  8
0
  6
CONTINUOUS
 62
     0
 10
202.44109625437551
 20
27.364538113980132
 30
0.0
 11
202.7334749940255
 21
27.656916853630211
 31
0.0
  0
LINE
  5
1503
  8
0
  6
CONTINUOUS
 62
     0
 10
202.29967489813819
 20
27.36453811398016
 30
0.0
 11
202.73347499402561
 21
27.79833820986752
 31
0.0
  0
LINE
  5
1504
  8
0
  6
CONTINUOUS
 62
     0
 10
202.1582535419009
 20
27.36453811398016
 30
0.0
 11
202.7334749940255
 21
27.939759566104811
 31
0.0
  0
LINE
  5
1505
  8
0
  6
CONTINUOUS
 62
     0
 10
202.01683218566359
 20
27.36453811398016
 30
0.0
 11
202.7334749940255
 21
28.08118092234216
 31
0.0
  0
LINE
  5
1506
  8
0
  6
CONTINUOUS
 62
     0
 10
201.8754108294263
 20
27.36453811398016
 30
0.0
 11
202.7334749940255
 21
28.222602278579419
 31
0.0
  0
LINE
  5
1507
  8
0
  6
CONTINUOUS
 62
     0
 10
201.7339894731889
 20
27.364538113980132
 30
0.0
 11
202.7334749940255
 21
28.364023634816729
 31
0.0
  0
LINE
  5
1508
  8
0
  6
CONTINUOUS
 62
     0
 10
201.59256811695161
 20
27.36453811398016
 30
0.0
 11
202.7334749940255
 21
28.50544499105408
 31
0.0
  0
LINE
  5
1509
  8
0
  6
CONTINUOUS
 62
     0
 10
201.45114676071441
 20
27.364538113980188
 30
0.0
 11
202.7334749940255
 21
28.646866347291368
 31
0.0
  0
LINE
  5
150A
  8
0
  6
CONTINUOUS
 62
     0
 10
201.30972540447701
 20
27.364538113980188
 30
0.0
 11
202.7334749940255
 21
28.788287703528709
 31
0.0
  0
LINE
  5
150B
  8
0
  6
CONTINUOUS
 62
     0
 10
201.16830404823969
 20
27.36453811398016
 30
0.0
 11
202.7334749940255
 21
28.929709059765969
 31
0.0
  0
LINE
  5
150C
  8
0
  6
CONTINUOUS
 62
     0
 10
201.0268826920024
 20
27.36453811398016
 30
0.0
 11
202.7334749940255
 21
29.071130416003289
 31
0.0
  0
LINE
  5
150D
  8
0
  6
CONTINUOUS
 62
     0
 10
200.88546133576509
 20
27.36453811398016
 30
0.0
 11
202.7334749940255
 21
29.21255177224063
 31
0.0
  0
LINE
  5
150E
  8
0
  6
CONTINUOUS
 62
     0
 10
200.7440399795278
 20
27.364538113980188
 30
0.0
 11
202.7334749940255
 21
29.353973128477922
 31
0.0
  0
LINE
  5
150F
  8
0
  6
CONTINUOUS
 62
     0
 10
200.60261862329051
 20
27.364538113980188
 30
0.0
 11
202.7334749940255
 21
29.495394484715259
 31
0.0
  0
LINE
  5
1510
  8
0
  6
CONTINUOUS
 62
     0
 10
200.46119726705319
 20
27.36453811398016
 30
0.0
 11
202.7334749940255
 21
29.636815840952519
 31
0.0
  0
LINE
  5
1511
  8
0
  6
CONTINUOUS
 62
     0
 10
200.31977591081591
 20
27.36453811398016
 30
0.0
 11
202.7334749940255
 21
29.778237197189839
 31
0.0
  0
LINE
  5
1512
  8
0
  6
CONTINUOUS
 62
     0
 10
200.1783545545785
 20
27.36453811398016
 30
0.0
 11
202.7334749940255
 21
29.91965855342718
 31
0.0
  0
LINE
  5
1513
  8
0
  6
CONTINUOUS
 62
     0
 10
200.0369331983413
 20
27.364538113980188
 30
0.0
 11
202.7334749940255
 21
30.061079909664471
 31
0.0
  0
LINE
  5
1514
  8
0
  6
CONTINUOUS
 62
     0
 10
199.8955118421039
 20
27.36453811398016
 30
0.0
 11
202.7334749940255
 21
30.202501265901759
 31
0.0
  0
LINE
  5
1515
  8
0
  6
CONTINUOUS
 62
     0
 10
199.75409048586661
 20
27.364538113980188
 30
0.0
 11
202.7334749940255
 21
30.343922622139079
 31
0.0
  0
LINE
  5
1516
  8
0
  6
CONTINUOUS
 62
     0
 10
199.6126691296293
 20
27.36453811398016
 30
0.0
 11
202.7334749940255
 21
30.485343978376392
 31
0.0
  0
LINE
  5
1517
  8
0
  6
CONTINUOUS
 62
     0
 10
199.47124777339201
 20
27.36453811398016
 30
0.0
 11
202.7334749940255
 21
30.62676533461374
 31
0.0
  0
LINE
  5
1518
  8
0
  6
CONTINUOUS
 62
     0
 10
199.32982641715469
 20
27.364538113980188
 30
0.0
 11
202.7334749940255
 21
30.768186690851
 31
0.0
  0
LINE
  5
1519
  8
0
  6
CONTINUOUS
 62
     0
 10
199.1884050609174
 20
27.36453811398016
 30
0.0
 11
202.7334749940255
 21
30.909608047088309
 31
0.0
  0
LINE
  5
151A
  8
0
  6
CONTINUOUS
 62
     0
 10
199.04698370468009
 20
27.364538113980188
 30
0.0
 11
202.7334749940255
 21
31.051029403325629
 31
0.0
  0
LINE
  5
151B
  8
0
  6
CONTINUOUS
 62
     0
 10
198.9055623484428
 20
27.36453811398016
 30
0.0
 11
202.7334749940255
 21
31.192450759562949
 31
0.0
  0
LINE
  5
151C
  8
0
  6
CONTINUOUS
 62
     0
 10
198.7641409922054
 20
27.364538113980132
 30
0.0
 11
202.7334749940255
 21
31.333872115800261
 31
0.0
  0
LINE
  5
151D
  8
0
  6
CONTINUOUS
 62
     0
 10
198.62271963596811
 20
27.36453811398016
 30
0.0
 11
202.7334749940255
 21
31.475293472037549
 31
0.0
  0
LINE
  5
151E
  8
0
  6
CONTINUOUS
 62
     0
 10
198.48129827973079
 20
27.36453811398016
 30
0.0
 11
202.73347499402561
 21
31.616714828274869
 31
0.0
  0
LINE
  5
151F
  8
0
  6
CONTINUOUS
 62
     0
 10
198.33987692349359
 20
27.364538113980188
 30
0.0
 11
202.7334749940255
 21
31.758136184512178
 31
0.0
  0
LINE
  5
1520
  8
0
  6
CONTINUOUS
 62
     0
 10
198.19845556725619
 20
27.364538113980188
 30
0.0
 11
202.7334749940255
 21
31.899557540749498
 31
0.0
  0
LINE
  5
1521
  8
0
  6
CONTINUOUS
 62
     0
 10
198.0570342110189
 20
27.36453811398016
 30
0.0
 11
202.7334749940255
 21
32.040978896986822
 31
0.0
  0
LINE
  5
1522
  8
0
  6
CONTINUOUS
 62
     0
 10
197.9156128547815
 20
27.36453811398016
 30
0.0
 11
202.7334749940255
 21
32.18240025322411
 31
0.0
  0
LINE
  5
1523
  8
0
  6
CONTINUOUS
 62
     0
 10
197.7741914985443
 20
27.36453811398016
 30
0.0
 11
202.7334749940255
 21
32.323821609461419
 31
0.0
  0
LINE
  5
1524
  8
0
  6
CONTINUOUS
 62
     0
 10
197.63277014230701
 20
27.36453811398022
 30
0.0
 11
202.7334749940255
 21
32.465242965698728
 31
0.0
  0
LINE
  5
1525
  8
0
  6
CONTINUOUS
 62
     0
 10
197.49134878606969
 20
27.364538113980188
 30
0.0
 11
202.7334749940255
 21
32.606664321936051
 31
0.0
  0
LINE
  5
1526
  8
0
  6
CONTINUOUS
 62
     0
 10
197.34992742983229
 20
27.36453811398016
 30
0.0
 11
202.73347499402561
 21
32.748085678173368
 31
0.0
  0
LINE
  5
1527
  8
0
  6
CONTINUOUS
 62
     0
 10
197.208506073595
 20
27.36453811398016
 30
0.0
 11
202.7334749940255
 21
32.889507034410663
 31
0.0
  0
LINE
  5
1528
  8
0
  6
CONTINUOUS
 62
     0
 10
197.06708471735769
 20
27.36453811398016
 30
0.0
 11
202.7334749940255
 21
33.030928390647979
 31
0.0
  0
LINE
  5
1529
  8
0
  6
CONTINUOUS
 62
     0
 10
196.9256633611204
 20
27.364538113980188
 30
0.0
 11
202.7334749940255
 21
33.17234974688526
 31
0.0
  0
LINE
  5
152A
  8
0
  6
CONTINUOUS
 62
     0
 10
196.78424200488311
 20
27.364538113980188
 30
0.0
 11
202.73347499402561
 21
33.31377110312264
 31
0.0
  0
LINE
  5
152B
  8
0
  6
CONTINUOUS
 62
     0
 10
196.6428206486458
 20
27.36453811398016
 30
0.0
 11
202.73347499402561
 21
33.455192459359893
 31
0.0
  0
LINE
  5
152C
  8
0
  6
CONTINUOUS
 62
     0
 10
197.53972575563171
 20
28.402864577203449
 30
0.0
 11
202.73347499402561
 21
33.596613815597237
 31
0.0
  0
LINE
  5
152D
  8
0
  6
CONTINUOUS
 62
     0
 10
196.50139929240851
 20
27.36453811398016
 30
0.0
 11
197.4334749940256
 21
28.296613815597279
 31
0.0
  0
LINE
  5
152E
  8
0
  6
CONTINUOUS
 62
     0
 10
198.00818399816791
 20
29.01274417597682
 30
0.0
 11
202.73347499402561
 21
33.738035171834561
 31
0.0
  0
LINE
  5
152F
  8
0
  6
CONTINUOUS
 62
     0
 10
196.35997793617119
 20
27.36453811398016
 30
0.0
 11
197.4334749940256
 21
28.438035171834599
 31
0.0
  0
LINE
  5
1530
  8
0
  6
CONTINUOUS
 62
     0
 10
198.476642240704
 20
29.622623774750281
 30
0.0
 11
202.7334749940255
 21
33.879456528071842
 31
0.0
  0
LINE
  5
1531
  8
0
  6
CONTINUOUS
 62
     0
 10
196.2185565799339
 20
27.364538113980188
 30
0.0
 11
197.4334749940256
 21
28.579456528071891
 31
0.0
  0
LINE
  5
1532
  8
0
  6
CONTINUOUS
 62
     0
 10
198.94510048324011
 20
30.232503373523691
 30
0.0
 11
202.73347499402561
 21
34.020877884309193
 31
0.0
  0
LINE
  5
1533
  8
0
  6
CONTINUOUS
 62
     0
 10
196.07713522369659
 20
27.364538113980188
 30
0.0
 11
197.4334749940256
 21
28.720877884309228
 31
0.0
  0
LINE
  5
1534
  8
0
  6
CONTINUOUS
 62
     0
 10
199.4135587257762
 20
30.842382972297059
 30
0.0
 11
202.73347499402561
 21
34.162299240546453
 31
0.0
  0
LINE
  5
1535
  8
0
  6
CONTINUOUS
 62
     0
 10
195.93571386745921
 20
27.36453811398016
 30
0.0
 11
197.4334749940256
 21
28.862299240546491
 31
0.0
  0
LINE
  5
1536
  8
0
  6
CONTINUOUS
 62
     0
 10
199.88201696831231
 20
31.452262571070492
 30
0.0
 11
202.73347499402561
 21
34.303720596783762
 31
0.0
  0
LINE
  5
1537
  8
0
  6
CONTINUOUS
 62
     0
 10
195.7942925112219
 20
27.364538113980132
 30
0.0
 11
197.4334749940256
 21
29.003720596783811
 31
0.0
  0
LINE
  5
1538
  8
0
  6
CONTINUOUS
 62
     0
 10
200.3504752108484
 20
32.062142169843924
 30
0.0
 11
202.73347499402561
 21
34.445141953021107
 31
0.0
  0
LINE
  5
1539
  8
0
  6
CONTINUOUS
 62
     0
 10
195.65287115498461
 20
27.36453811398016
 30
0.0
 11
197.4334749940256
 21
29.145141953021131
 31
0.0
  0
LINE
  5
153A
  8
0
  6
CONTINUOUS
 62
     0
 10
200.81893345338449
 20
32.67202176861727
 30
0.0
 11
202.73347499402561
 21
34.586563309258402
 31
0.0
  0
LINE
  5
153B
  8
0
  6
CONTINUOUS
 62
     0
 10
195.51144979874729
 20
27.364538113980188
 30
0.0
 11
197.4334749940256
 21
29.28656330925844
 31
0.0
  0
LINE
  5
153C
  8
0
  6
CONTINUOUS
 62
     0
 10
201.2873916959206
 20
33.281901367390759
 30
0.0
 11
202.73347499402561
 21
34.72798466549574
 31
0.0
  0
LINE
  5
153D
  8
0
  6
CONTINUOUS
 62
     0
 10
195.37002844251001
 20
27.364538113980188
 30
0.0
 11
197.4334749940256
 21
29.427984665495789
 31
0.0
  0
LINE
  5
153E
  8
0
  6
CONTINUOUS
 62
     0
 10
201.75584993845669
 20
33.891780966164113
 30
0.0
 11
202.73347499402561
 21
34.869406021732999
 31
0.0
  0
LINE
  5
153F
  8
0
  6
CONTINUOUS
 62
     0
 10
195.22860708627269
 20
27.36453811398016
 30
0.0
 11
197.4334749940256
 21
29.569406021733041
 31
0.0
  0
LINE
  5
1540
  8
0
  6
CONTINUOUS
 62
     0
 10
202.22430818099281
 20
34.501660564937573
 30
0.0
 11
202.73347499402561
 21
35.010827377970323
 31
0.0
  0
LINE
  5
1541
  8
0
  6
CONTINUOUS
 62
     0
 10
195.0871857300354
 20
27.36453811398016
 30
0.0
 11
197.4334749940256
 21
29.710827377970361
 31
0.0
  0
LINE
  5
1542
  8
0
  6
CONTINUOUS
 62
     0
 10
202.69276642352901
 20
35.111540163710998
 30
0.0
 11
202.73347499402561
 21
35.15224873420766
 31
0.0
  0
LINE
  5
1543
  8
0
  6
CONTINUOUS
 62
     0
 10
194.94576437379811
 20
27.36453811398016
 30
0.0
 11
197.4334749940256
 21
29.852248734207681
 31
0.0
  0
LINE
  5
1544
  8
0
  6
CONTINUOUS
 62
     0
 10
194.8043430175608
 20
27.36453811398016
 30
0.0
 11
197.4334749940256
 21
29.993670090445001
 31
0.0
  0
LINE
  5
1545
  8
0
  6
CONTINUOUS
 62
     0
 10
194.66292166132351
 20
27.364538113980188
 30
0.0
 11
197.4334749940256
 21
30.135091446682338
 31
0.0
  0
LINE
  5
1546
  8
0
  6
CONTINUOUS
 62
     0
 10
194.52150030508619
 20
27.364538113980188
 30
0.0
 11
197.4334749940256
 21
30.276512802919601
 31
0.0
  0
LINE
  5
1547
  8
0
  6
CONTINUOUS
 62
     0
 10
194.3800789488489
 20
27.364538113980188
 30
0.0
 11
197.4334749940256
 21
30.417934159156911
 31
0.0
  0
LINE
  5
1548
  8
0
  6
CONTINUOUS
 62
     0
 10
194.2386575926115
 20
27.364538113980188
 30
0.0
 11
197.4334749940256
 21
30.55935551539423
 31
0.0
  0
LINE
  5
1549
  8
0
  6
CONTINUOUS
 62
     0
 10
194.09723623637419
 20
27.36453811398016
 30
0.0
 11
197.4334749940256
 21
30.70077687163155
 31
0.0
  0
LINE
  5
154A
  8
0
  6
CONTINUOUS
 62
     0
 10
193.9558148801369
 20
27.36453811398016
 30
0.0
 11
197.4334749940256
 21
30.84219822786887
 31
0.0
  0
LINE
  5
154B
  8
0
  6
CONTINUOUS
 62
     0
 10
193.81439352389961
 20
27.36453811398022
 30
0.0
 11
197.4334749940256
 21
30.983619584106151
 31
0.0
  0
LINE
  5
154C
  8
0
  6
CONTINUOUS
 62
     0
 10
193.67297216766229
 20
27.364538113980188
 30
0.0
 11
197.4334749940256
 21
31.125040940343471
 31
0.0
  0
LINE
  5
154D
  8
0
  6
CONTINUOUS
 62
     0
 10
193.53155081142501
 20
27.364538113980188
 30
0.0
 11
197.4334749940256
 21
31.26646229658078
 31
0.0
  0
LINE
  5
154E
  8
0
  6
CONTINUOUS
 62
     0
 10
193.39012945518769
 20
27.36453811398016
 30
0.0
 11
197.4334749940256
 21
31.4078836528181
 31
0.0
  0
LINE
  5
154F
  8
0
  6
CONTINUOUS
 62
     0
 10
193.2487080989504
 20
27.36453811398016
 30
0.0
 11
197.4334749940256
 21
31.54930500905536
 31
0.0
  0
LINE
  5
1550
  8
0
  6
CONTINUOUS
 62
     0
 10
193.10728674271309
 20
27.36453811398022
 30
0.0
 11
197.4334749940256
 21
31.690726365292701
 31
0.0
  0
LINE
  5
1551
  8
0
  6
CONTINUOUS
 62
     0
 10
192.9658653864758
 20
27.364538113980188
 30
0.0
 11
197.4334749940256
 21
31.832147721529989
 31
0.0
  0
LINE
  5
1552
  8
0
  6
CONTINUOUS
 62
     0
 10
192.8244440302384
 20
27.36453811398016
 30
0.0
 11
197.4334749940256
 21
31.97356907776728
 31
0.0
  0
LINE
  5
1553
  8
0
  6
CONTINUOUS
 62
     0
 10
192.68302267400111
 20
27.36453811398016
 30
0.0
 11
197.4334749940256
 21
32.114990434004632
 31
0.0
  0
LINE
  5
1554
  8
0
  6
CONTINUOUS
 62
     0
 10
192.54160131776379
 20
27.36453811398016
 30
0.0
 11
197.4334749940256
 21
32.256411790241913
 31
0.0
  0
LINE
  5
1555
  8
0
  6
CONTINUOUS
 62
     0
 10
192.4001799615265
 20
27.36453811398022
 30
0.0
 11
197.4334749940256
 21
32.397833146479257
 31
0.0
  0
LINE
  5
1556
  8
0
  6
CONTINUOUS
 62
     0
 10
192.25875860528919
 20
27.364538113980188
 30
0.0
 11
197.4334749940256
 21
32.539254502716517
 31
0.0
  0
LINE
  5
1557
  8
0
  6
CONTINUOUS
 62
     0
 10
192.1173372490519
 20
27.36453811398016
 30
0.0
 11
197.4334749940256
 21
32.68067585895384
 31
0.0
  0
LINE
  5
1558
  8
0
  6
CONTINUOUS
 62
     0
 10
191.97591589281461
 20
27.36453811398016
 30
0.0
 11
197.4334749940256
 21
32.822097215191178
 31
0.0
  0
LINE
  5
1559
  8
0
  6
CONTINUOUS
 62
     0
 10
191.8344945365773
 20
27.36453811398016
 30
0.0
 11
197.4334749940256
 21
32.963518571428473
 31
0.0
  0
LINE
  5
155A
  8
0
  6
CONTINUOUS
 62
     0
 10
191.69307318034001
 20
27.36453811398016
 30
0.0
 11
197.4334749940256
 21
33.104939927665811
 31
0.0
  0
LINE
  5
155B
  8
0
  6
CONTINUOUS
 62
     0
 10
191.55165182410269
 20
27.364538113980188
 30
0.0
 11
197.4334749940256
 21
33.24636128390307
 31
0.0
  0
LINE
  5
155C
  8
0
  6
CONTINUOUS
 62
     0
 10
191.41023046786529
 20
27.36453811398016
 30
0.0
 11
197.4334749940256
 21
33.387782640140387
 31
0.0
  0
LINE
  5
155D
  8
0
  6
CONTINUOUS
 62
     0
 10
191.26880911162809
 20
27.364538113980188
 30
0.0
 11
197.43347499402549
 21
33.529203996377653
 31
0.0
  0
LINE
  5
155E
  8
0
  6
CONTINUOUS
 62
     0
 10
191.1273877553908
 20
27.364538113980188
 30
0.0
 11
197.4334749940256
 21
33.670625352614962
 31
0.0
  0
LINE
  5
155F
  8
0
  6
CONTINUOUS
 62
     0
 10
190.9859663991534
 20
27.36453811398016
 30
0.0
 11
197.43347499402549
 21
33.81204670885225
 31
0.0
  0
LINE
  5
1560
  8
0
  6
CONTINUOUS
 62
     0
 10
190.84454504291611
 20
27.364538113980188
 30
0.0
 11
197.43347499402549
 21
33.953468065089602
 31
0.0
  0
LINE
  5
1561
  8
0
  6
CONTINUOUS
 62
     0
 10
190.918342047865
 20
27.579756475166391
 30
0.0
 11
197.4334749940256
 21
34.094889421326911
 31
0.0
  0
LINE
  5
1562
  8
0
  6
CONTINUOUS
 62
     0
 10
191.77972667221951
 20
28.58256245575825
 30
0.0
 11
197.43347499402549
 21
34.236310777564199
 31
0.0
  0
LINE
  5
1563
  8
0
  6
CONTINUOUS
 62
     0
 10
192.641111296574
 20
29.58536843635002
 30
0.0
 11
197.4334749940256
 21
34.377732133801523
 31
0.0
  0
LINE
  5
1564
  8
0
  6
CONTINUOUS
 62
     0
 10
193.50249592092851
 20
30.588174416941801
 30
0.0
 11
197.4334749940256
 21
34.519153490038832
 31
0.0
  0
LINE
  5
1565
  8
0
  6
CONTINUOUS
 62
     0
 10
194.363880545283
 20
31.590980397533599
 30
0.0
 11
197.43347499402549
 21
34.660574846276148
 31
0.0
  0
LINE
  5
1566
  8
0
  6
CONTINUOUS
 62
     0
 10
195.22526516963751
 20
32.593786378125372
 30
0.0
 11
197.43347499402549
 21
34.801996202513408
 31
0.0
  0
LINE
  5
1567
  8
0
  6
CONTINUOUS
 62
     0
 10
196.08664979399191
 20
33.596592358717118
 30
0.0
 11
197.43347499402549
 21
34.943417558750731
 31
0.0
  0
LINE
  5
1568
  8
0
  6
CONTINUOUS
 62
     0
 10
196.9480344183464
 20
34.599398339308948
 30
0.0
 11
197.43347499402549
 21
35.084838914988069
 31
0.0
  0
ENDBLK
  5
156A
  8
0
 62
     5
  0
BLOCK
  8
0
 62
     5
  2
*X13
 70
     1
 10
0.0
 20
0.0
 30
0.0
  3
*X13
  1

  0
LINE
  5
156C
  8
0
  6
CONTINUOUS
 62
     0
 10
193.7217528367803
 20
31.514538113980141
 30
0.0
 11
194.02255891482389
 21
31.81534419202373
 31
0.0
  0
LINE
  5
156D
  8
0
  6
CONTINUOUS
 62
     0
 10
189.5826689159818
 20
27.37545419318176
 30
0.0
 11
189.88347499402539
 21
27.676260271225321
 31
0.0
  0
LINE
  5
156E
  8
0
  6
CONTINUOUS
 62
     0
 10
192.80251402123781
 20
31.514538113980169
 30
0.0
 11
193.88878569887311
 21
32.600809791615461
 31
0.0
  0
LINE
  5
156F
  8
0
  6
CONTINUOUS
 62
     0
 10
188.7972033163901
 20
27.50922740913251
 30
0.0
 11
189.88347499402551
 21
28.595499086767859
 31
0.0
  0
LINE
  5
1570
  8
0
  6
CONTINUOUS
 62
     0
 10
191.8832752056953
 20
31.514538113980191
 30
0.0
 11
193.64226070429399
 21
33.273523612578913
 31
0.0
  0
LINE
  5
1571
  8
0
  6
CONTINUOUS
 62
     0
 10
188.1244894954267
 20
27.7557524037116
 30
0.0
 11
189.88347499402539
 21
29.51473790231034
 31
0.0
  0
LINE
  5
1572
  8
0
  6
CONTINUOUS
 62
     0
 10
190.9640363901527
 20
31.514538113980109
 30
0.0
 11
193.30808347639169
 21
33.858585200219068
 31
0.0
  0
LINE
  5
1573
  8
0
  6
CONTINUOUS
 62
     0
 10
187.53942790778649
 20
28.089929631613931
 30
0.0
 11
189.88347499402551
 21
30.433976717852889
 31
0.0
  0
LINE
  5
1574
  8
0
  6
CONTINUOUS
 62
     0
 10
190.04479757461019
 20
31.514538113980141
 30
0.0
 11
192.897520636265
 21
34.367261175634901
 31
0.0
  0
LINE
  5
1575
  8
0
  6
CONTINUOUS
 62
     0
 10
187.03075193237069
 20
28.500492471740639
 30
0.0
 11
189.88347499402551
 21
31.353215533395431
 31
0.0
  0
LINE
  5
1576
  8
0
  6
CONTINUOUS
 62
     0
 10
186.59459578737651
 20
28.983575142288942
 30
0.0
 11
192.41443796571659
 21
34.803417320629052
 31
0.0
  0
LINE
  5
1577
  8
0
  6
CONTINUOUS
 62
     0
 10
186.23277411903669
 20
29.540992289491669
 30
0.0
 11
191.85702081851389
 21
35.165238988968902
 31
0.0
  0
LINE
  5
1578
  8
0
  6
CONTINUOUS
 62
     0
 10
185.95356099355669
 20
30.181017979554159
 30
0.0
 11
191.2169951284514
 21
35.4444521144489
 31
0.0
  0
LINE
  5
1579
  8
0
  6
CONTINUOUS
 62
     0
 10
185.77590723828649
 20
30.922603039826502
 30
0.0
 11
190.47541006817909
 21
35.6221058697191
 31
0.0
  0
LINE
  5
157A
  8
0
  6
CONTINUOUS
 62
     0
 10
185.7440016024924
 20
31.809936219574809
 30
0.0
 11
189.58807688843081
 21
35.654011505513239
 31
0.0
  0
LINE
  5
157B
  8
0
  6
CONTINUOUS
 62
     0
 10
186.00449401221721
 20
32.989667444842183
 30
0.0
 11
188.4083456631634
 21
35.393519095788442
 31
0.0
  0
ENDBLK
  5
157D
  8
0
 62
     5
  0
BLOCK
  8
0
 62
     5
  2
*U14
 70
     1
 10
0.0
 20
0.0
 30
0.0
  3
*U14
  1

  0
TEXT
  5
157F
  8
0
  6
CONTINUOUS
 62
     1
 10
171.0842366554657
 20
18.353856234410561
 30
0.0
 40
1.6000000000000001
  1
A Phoenix Mecano Company
 41
1.1000000000000001
  0
ENDBLK
  5
1581
  8
0
 62
     5
  0
BLOCK
  8
0
 62
     5
  2
*U15
 70
     1
 10
0.0
 20
0.0
 30
0.0
  3
*U15
  1

  0
TEXT
  5
1583
  8
0
  6
CONTINUOUS
 62
     7
 10
183.14944142699909
 20
21.52827613548726
 30
0.0
 40
3.7000000000000002
  1
BOPLA
 41
1.1000000000000001
  0
ENDBLK
  5
1585
  8
0
 62
     5
  0
BLOCK
  8
0
 62
     5
  2
*U16
 70
     1
 10
0.0
 20
0.0
 30
0.0
  3
*U16
  1

  0
TEXT
  5
1587
  8
0
  6
CONTINUOUS
 62
     7
 10
108.3004981780733
 20
53.182753343347798
 30
0.0
 40
3.5
  1
Katalogzeichnung/
 41
1.1999999999999991
  0
TEXT
  5
1588
  8
0
  6
CONTINUOUS
 62
     7
 10
154.94149817807329
 20
53.182753343347798
 30
0.0
 40
3.5
  1
Catalogue drawing
 41
1.1999999999999991
 51
20.0
  0
ENDBLK
  5
158A
  8
0
 62
     5
  0
BLOCK
  8
0
 62
     5
  2
*U17
 70
     1
 10
0.0
 20
0.0
 30
0.0
  3
*U17
  1

  0
TEXT
  5
158C
  8
0
  6
CONTINUOUS
 62
     7
 10
108.21049817807329
 20
59.180900439871039
 30
0.0
 40
4.0
  1
LS/M 000 . .
 41
1.1999999999999991
  0
ENDBLK
  5
158E
  8
0
 62
     5
  0
BLOCK
  8
0
 62
     5
  2
*U18
 70
     1
 10
0.0
 20
0.0
 30
0.0
  3
*U18
  1

  0
TEXT
  5
1590
  8
0
  6
CONTINUOUS
 62
     7
 10
108.21049817807329
 20
66.180900439871039
 30
0.0
 40
4.0
  1
Interzoll Modul
 41
1.1999999999999991
  0
ENDBLK
  5
1592
  8
0
 62
     5
  0
BLOCK
  8
0
 62
     5
  2
*U19
 70
     1
 10
0.0
 20
0.0
 30
0.0
  3
*U19
  1

  0
TEXT
  5
1594
  8
0
  6
CONTINUOUS
 62
     7
 10
129.5874630969179
 20
95.198758006823468
 30
0.0
 40
4.0
  1
-
 41
1.1999999999999991
  0
ENDBLK
  5
1596
  8
0
 62
     5
  0
BLOCK
  8
0
 62
     5
  2
*U20
 70
     1
 10
0.0
 20
0.0
 30
0.0
  3
*U20
  1

  0
TEXT
  5
1598
  8
0
  6
CONTINUOUS
 62
     1
 10
108.8442762589884
 20
98.413357459217579
 30
0.0
 40
2.5
  1
MaЯstab/
 41
1.1999999999999991
  0
TEXT
  5
1599
  8
0
  6
CONTINUOUS
 62
     1
 10
108.7483921383142
 20
94.246690792550908
 30
0.0
 40
2.5
  1
Scale:
 41
1.1999999999999991
 51
20.0
  0
ENDBLK
  5
159B
  8
0
 62
     5
  0
BLOCK
  8
0
 62
     5
  2
*U21
 70
     1
 10
0.0
 20
0.0
 30
0.0
  3
*U21
  1

  0
TEXT
  5
159D
  8
0
  6
CONTINUOUS
 62
     5
 10
109.0302130763932
 20
87.437192853128707
 30
0.0
 40
3.0
  1
Zeichnungs-Nr. / 
 41
1.1999999999999991
  0
TEXT
  5
159E
  8
0
  6
CONTINUOUS
 62
     5
 10
146.83921307639321
 20
87.437192853128707
 30
0.0
 40
3.0
  1
Drawing-No.:
 41
1.1999999999999991
 51
20.0
  0
ENDBLK
  5
15A0
  8
0
 62
     5
  0
BLOCK
  8
0
 62
     5
  2
*U22
 70
     1
 10
0.0
 20
0.0
 30
0.0
  3
*U22
  1

  0
TEXT
  5
15A2
  8
0
  6
CONTINUOUS
 62
     7
 10
129.96109421693521
 20
80.436304674055464
 30
0.0
 40
4.0
  1
4K 5315.085.01
 41
1.1999999999999991
  0
ENDBLK
  5
15A4
  8
0
 62
     5
  0
BLOCK
  8
0
 62
     5
  2
*U23
 70
     1
 10
0.0
 20
0.0
 30
0.0
  3
*U23
  1

  0
TEXT
  5
15A6
  8
0
  6
CONTINUOUS
 62
     7
 10
108.16006023816639
 20
72.428961671636898
 30
0.0
 40
4.0
  1
Artikel / 
 41
1.1999999999999991
  0
TEXT
  5
15A7
  8
0
  6
CONTINUOUS
 62
     7
 10
135.52006023816639
 20
72.428961671636898
 30
0.0
 40
4.0
  1
Article:
 41
1.1999999999999991
 51
20.0
  0
ENDBLK
  5
15A9
  8
0
 62
     5
  0
BLOCK
  8
0
 62
     5
  2
*U24
 70
     1
 10
0.0
 20
0.0
 30
0.0
  3
*U24
  1

  0
TEXT
  5
15AB
  8
0
  6
CONTINUOUS
 62
     1
 10
119.23183404189859
 20
18.684193584549199
 30
0.0
 40
2.0
  1
Datum/
 41
1.1999999999999991
  0
TEXT
  5
15AC
  8
0
  6
CONTINUOUS
 62
     1
 10
119.19543701847201
 20
15.33695152156327
 30
0.0
 40
2.0
  1
Date:
 41
1.1999999999999991
 51
20.0
  0
ENDBLK
  5
15AE
  8
0
 62
     5
  0
BLOCK
  8
0
 62
     5
  2
*U25
 70
     1
 10
0.0
 20
0.0
 30
0.0
  3
*U25
  1

  0
TEXT
  5
15B0
  8
0
  6
CONTINUOUS
 62
     1
 10
105.807758256943
 20
18.656372463869349
 30
0.0
 40
2.0
  1
Д.Nr/
 41
1.1999999999999991
  0
TEXT
  5
15B1
  8
0
  6
CONTINUOUS
 62
     1
 10
105.7713612335164
 20
15.323039130536021
 30
0.0
 40
2.0
  1
Alt-No.:
 41
1.1999999999999991
 51
20.0
  0
ENDBLK
  5
15B3
  8
0
 62
     5
  0
BLOCK
  8
0
 62
     5
  2
*U26
 70
     1
 10
0.0
 20
0.0
 30
0.0
  3
*U26
  1

  0
TEXT
  5
15B5
  8
0
  6
CONTINUOUS
 62
     5
 10
131.84404692807951
 20
10.605921666139119
 30
0.0
 40
2.5
  1
2 901 902
 41
1.1999999999999991
  0
ENDBLK
  5
15B7
  8
0
 62
     5
  0
BLOCK
  8
0
 62
     5
  2
*U27
 70
     1
 10
0.0
 20
0.0
 30
0.0
  3
*U27
  1

  0
TEXT
  5
15B9
  8
0
  6
CONTINUOUS
 62
     5
 10
106.0789912646938
 20
10.51214118304668
 30
0.0
 40
2.5
  1
DISK:
 41
1.1999999999999991
  0
ENDBLK
  5
15BB
  8
0
 62
     5
  0
BLOCK
  8
0
 62
     5
  2
*U28
 70
     1
 10
0.0
 20
0.0
 30
0.0
  3
*U28
  1

  0
TEXT
  5
15BD
  8
0
  6
CONTINUOUS
 62
     5
 10
131.76786582571739
 20
6.2488875231874772
 30
0.0
 40
2.5
  1
14.07.99 HR
 41
1.1999999999999991
  0
ENDBLK
  5
15BF
  8
0
 62
     5
  0
BLOCK
  8
0
 62
     5
  2
*U29
 70
     1
 10
0.0
 20
0.0
 30
0.0
  3
*U29
  1

  0
TEXT
  5
15C1
  8
0
  6
CONTINUOUS
 62
     5
 10
106.0789912646938
 20
6.2662734352532263
 30
0.0
 40
2.5
  1
Datum/
 41
1.1999999999999991
  0
TEXT
  5
15C2
  8
0
  6
CONTINUOUS
 62
     5
 10
119.2789912646938
 20
6.2662734352532263
 30
0.0
 40
2.5
  1
Date:
 41
1.1999999999999991
 51
20.0
  0
ENDBLK
  5
15C4
  8
0
 62
     5
  0
ENDSEC
  0
SECTION
  2
ENTITIES
  0
3DFACE
  5
9A0
  8
0
 10
255.83791726885829
 20
19.885923822419041
 30
0.0
 11
255.83791726885829
 21
19.885923822419041
 31
0.0
 12
255.83791726885829
 22
19.885923822419041
 32
0.0
 13
255.83791726885829
 23
19.885923822419041
 33
0.0
 70
    15
1001
DTI_TECHILLU_PROJ
1002
{
1010
10.0
1020
10.0
1030
0.0
1010
110.0
1020
110.0
1030
0.0
1010
60.0
1020
60.0
1030
0.0
1070
     1
1070
     2
1070
     0
1010
10.0
1020
130.0
1030
0.0
1010
110.0
1020
230.0
1030
0.0
1010
60.0
1020
180.0
1030
0.0
1070
     1
1070
     3
1070
     0
1010
130.0
1020
130.0
1030
0.0
1010
230.0
1020
230.0
1030
0.0
1010
180.0
1020
180.0
1030
0.0
1070
    -2
1070
     3
1010
15.0
1020
15.0
1030
13.125
1002
}
1001
PHOENIX7010
1002
{
1070
    41
1040
1.0
1002
}
  0
TEXT
  5
A59
  8
0
 62
     1
 10
785.7930070511934
 20
46.213710073719078
 30
0.0
 40
7.0
  1

1001
PHOENIX7010
1002
{
1070
    41
1040
1.0
1002
}
  0
3DFACE
  5
F3D
  8
0
 10
241.3106127163646
 20
33.670519964038249
 30
0.0
 11
241.3106127163646
 21
33.670519964038249
 31
0.0
 12
241.3106127163646
 22
33.670519964038249
 32
0.0
 13
241.3106127163646
 23
33.670519964038249
 33
0.0
 70
    15
1001
DTI_TECHILLU_PROJ
1002
{
1010
10.0
1020
10.0
1030
0.0
1010
110.0
1020
110.0
1030
0.0
1010
60.0
1020
60.0
1030
0.0
1070
     1
1070
     2
1070
     0
1010
10.0
1020
130.0
1030
0.0
1010
110.0
1020
230.0
1030
0.0
1010
60.0
1020
180.0
1030
0.0
1070
     1
1070
     3
1070
     0
1010
130.0
1020
130.0
1030
0.0
1010
230.0
1020
230.0
1030
0.0
1010
180.0
1020
180.0
1030
0.0
1070
    -2
1070
     3
1010
15.0
1020
15.0
1030
13.125
1002
}
1001
PHOENIX7010
1002
{
1070
    41
1040
1.0
1002
}
  0
TEXT
  5
FB2
  8
0
 62
     1
 10
308.97707514189761
 20
261.32312364310877
 30
0.0
 40
4.0
  1

1001
PHOENIX7010
1002
{
1070
    41
1040
1.0
1002
}
  0
LINE
  5
116A
  8
0
 62
     1
 10
105.61400046669949
 20
224.75769000912621
 30
0.0
 11
123.0420857938479
 21
224.75769000912621
 31
0.0
1001
PHOENIX7010
1002
{
1070
    41
1040
1.0
1002
}
  0
LINE
  5
116B
  8
0
 62
     1
 10
105.61400046669949
 20
134.75769000912621
 30
0.0
 11
123.0420857938479
 21
134.75769000912621
 31
0.0
1001
PHOENIX7010
1002
{
1070
    41
1040
1.0
1002
}
  0
LINE
  5
116C
  8
0
 62
     1
 10
91.292070535058883
 20
240.3055873479934
 30
0.0
 11
133.04208579384789
 21
240.3055873479934
 31
0.0
1001
PHOENIX7010
1002
{
1070
    41
1040
1.0
1002
}
  0
LINE
  5
116D
  8
0
 62
     1
 10
91.292070535058883
 20
119.20980029965359
 30
0.0
 11
133.04208579384789
 21
119.20980029965359
 31
0.0
1001
PHOENIX7010
1002
{
1070
    41
1040
1.0
1002
}
  0
LINE
  5
116E
  8
0
  6
CONTINUOUS
 62
     1
 10
113.0420705350589
 20
244.53057819271999
 30
0.0
 11
113.0420705350589
 21
256.53057819271999
 31
0.0
1001
PHOENIX7010
1002
{
1070
    41
1040
1.0
1002
}
  0
TEXT
  5
116F
  8
0
 62
     5
 10
83.284708169336227
 20
255.5735011663528
 30
0.0
 40
4.0
  1
175.24
1001
PHOENIX7010
1002
{
1070
    41
1040
1.0
1002
}
  0
LINE
  5
1170
  8
0
  6
CONTINUOUS
 62
     7
 10
113.0420705350589
 20
244.53057819271999
 30
0.0
 11
115.0420781644534
 21
244.53057819271999
 31
0.0
1001
PHOENIX7010
1002
{
1070
    41
1040
1.0
1002
}
  0
LINE
  5
1171
  8
0
  6
CONTINUOUS
 62
     7
 10
113.0420705350589
 20
244.53057819271999
 30
0.0
 11
113.0420705350589
 21
221.93057208920439
 31
0.0
1001
PHOENIX7010
1002
{
1070
    41
1040
1.0
1002
}
  0
LINE
  5
1172
  8
0
  6
CONTINUOUS
 62
     7
 10
113.0420705350589
 20
221.93057208920439
 30
0.0
 11
115.0420781644534
 21
221.93057208920439
 31
0.0
1001
PHOENIX7010
1002
{
1070
    41
1040
1.0
1002
}
  0
LINE
  5
1173
  8
0
  6
CONTINUOUS
 62
     7
 10
115.0420781644534
 20
244.53057819271999
 30
0.0
 11
115.0420781644534
 21
221.93057208920439
 31
0.0
1001
PHOENIX7010
1002
{
1070
    41
1040
1.0
1002
}
  0
LINE
  5
1174
  8
0
  6
CONTINUOUS
 62
     7
 10
113.0420705350589
 20
114.9848018255325
 30
0.0
 11
115.0420781644534
 21
114.9848018255325
 31
0.0
1001
PHOENIX7010
1002
{
1070
    41
1040
1.0
1002
}
  0
LINE
  5
1175
  8
0
  6
CONTINUOUS
 62
     7
 10
113.0420705350589
 20
114.9848018255325
 30
0.0
 11
113.0420705350589
 21
137.58480029965361
 31
0.0
1001
PHOENIX7010
1002
{
1070
    41
1040
1.0
1002
}
  0
LINE
  5
1176
  8
0
  6
CONTINUOUS
 62
     7
 10
113.0420705350589
 20
137.58480029965361
 30
0.0
 11
115.0420781644534
 21
137.58480029965361
 31
0.0
1001
PHOENIX7010
1002
{
1070
    41
1040
1.0
1002
}
  0
LINE
  5
1177
  8
0
  6
CONTINUOUS
 62
     7
 10
115.0420781644534
 20
114.9848018255325
 30
0.0
 11
115.0420781644534
 21
137.58480029965361
 31
0.0
1001
PHOENIX7010
1002
{
1070
    41
1040
1.0
1002
}
  0
LINE
  5
1178
  8
0
  6
CONTINUOUS
 62
     7
 10
102.0420705350589
 20
137.98480182553249
 30
0.0
 11
102.0420705350589
 21
221.53057819271999
 31
0.0
1001
PHOENIX7010
1002
{
1070
    41
1040
1.0
1002
}
  0
LINE
  5
1179
  8
0
  6
CONTINUOUS
 62
     7
 10
102.0420705350589
 20
221.53057819271999
 30
0.0
 11
108.0420705350588
 21
221.53057819271999
 31
0.0
1001
PHOENIX7010
1002
{
1070
    41
1040
1.0
1002
}
  0
LINE
  5
117A
  8
0
  6
CONTINUOUS
 62
     7
 10
108.0420705350588
 20
221.53057819271999
 30
0.0
 11
108.0420705350588
 21
227.53057819271999
 31
0.0
1001
PHOENIX7010
1002
{
1070
    41
1040
1.0
1002
}
  0
LINE
  5
117B
  8
0
  6
CONTINUOUS
 62
     7
 10
108.0420705350588
 20
227.53057819271999
 30
0.0
 11
113.0420705350589
 21
227.53057819271999
 31
0.0
1001
PHOENIX7010
1002
{
1070
    41
1040
1.0
1002
}
  0
LINE
  5
117C
  8
0
  6
CONTINUOUS
 62
     7
 10
113.0420705350589
 20
227.53057819271999
 30
0.0
 11
113.0420705350589
 21
131.98480182553249
 31
0.0
1001
PHOENIX7010
1002
{
1070
    41
1040
1.0
1002
}
  0
LINE
  5
117D
  8
0
  6
CONTINUOUS
 62
     7
 10
108.0420705350588
 20
131.98480182553249
 30
0.0
 11
113.0420705350589
 21
131.98480182553249
 31
0.0
1001
PHOENIX7010
1002
{
1070
    41
1040
1.0
1002
}
  0
LINE
  5
117E
  8
0
  6
CONTINUOUS
 62
     7
 10
108.0420705350588
 20
137.98480182553249
 30
0.0
 11
108.0420705350588
 21
131.98480182553249
 31
0.0
1001
PHOENIX7010
1002
{
1070
    41
1040
1.0
1002
}
  0
LINE
  5
117F
  8
0
  6
CONTINUOUS
 62
     7
 10
102.0420705350589
 20
137.98480182553249
 30
0.0
 11
108.0420705350588
 21
137.98480182553249
 31
0.0
1001
PHOENIX7010
1002
{
1070
    41
1040
1.0
1002
}
  0
LINE
  5
1180
  8
0
  6
CONTINUOUS
 62
     7
 10
113.0420705350589
 20
219.75769000912629
 30
0.0
 11
123.0420857938479
 21
219.75769000912629
 31
0.0
1001
PHOENIX7010
1002
{
1070
    41
1040
1.0
1002
}
  0
LINE
  5
1181
  8
0
  6
CONTINUOUS
 62
     7
 10
113.0420705350589
 20
217.75769000912629
 30
0.0
 11
123.0420857938479
 21
217.75769000912629
 31
0.0
1001
PHOENIX7010
1002
{
1070
    41
1040
1.0
1002
}
  0
LINE
  5
1182
  8
0
  6
CONTINUOUS
 62
     7
 10
113.0420705350589
 20
215.75769000912629
 30
0.0
 11
123.0420857938479
 21
215.75769000912629
 31
0.0
1001
PHOENIX7010
1002
{
1070
    41
1040
1.0
1002
}
  0
LINE
  5
1183
  8
0
  6
CONTINUOUS
 62
     7
 10
113.0420705350589
 20
211.75769000912621
 30
0.0
 11
123.0420857938479
 21
211.75769000912621
 31
0.0
1001
PHOENIX7010
1002
{
1070
    41
1040
1.0
1002
}
  0
LINE
  5
1184
  8
0
  6
CONTINUOUS
 62
     7
 10
113.0420705350589
 20
213.75769000912621
 30
0.0
 11
123.0420857938479
 21
213.75769000912621
 31
0.0
1001
PHOENIX7010
1002
{
1070
    41
1040
1.0
1002
}
  0
LINE
  5
1185
  8
0
  6
CONTINUOUS
 62
     7
 10
113.0420705350589
 20
209.75769000912621
 30
0.0
 11
123.0420857938479
 21
209.75769000912621
 31
0.0
1001
PHOENIX7010
1002
{
1070
    41
1040
1.0
1002
}
  0
LINE
  5
1186
  8
0
  6
CONTINUOUS
 62
     7
 10
113.0420705350589
 20
205.75769000912621
 30
0.0
 11
123.0420857938479
 21
205.75769000912621
 31
0.0
1001
PHOENIX7010
1002
{
1070
    41
1040
1.0
1002
}
  0
LINE
  5
1187
  8
0
  6
CONTINUOUS
 62
     7
 10
113.0420705350589
 20
207.75769000912621
 30
0.0
 11
123.0420857938479
 21
207.75769000912621
 31
0.0
1001
PHOENIX7010
1002
{
1070
    41
1040
1.0
1002
}
  0
LINE
  5
1188
  8
0
  6
CONTINUOUS
 62
     7
 10
113.0420705350589
 20
201.75769000912621
 30
0.0
 11
123.0420857938479
 21
201.75769000912621
 31
0.0
1001
PHOENIX7010
1002
{
1070
    41
1040
1.0
1002
}
  0
LINE
  5
1189
  8
0
  6
CONTINUOUS
 62
     7
 10
113.0420705350589
 20
203.75769000912621
 30
0.0
 11
123.0420857938479
 21
203.75769000912621
 31
0.0
1001
PHOENIX7010
1002
{
1070
    41
1040
1.0
1002
}
  0
LINE
  5
118A
  8
0
  6
CONTINUOUS
 62
     7
 10
113.0420705350589
 20
197.75769000912621
 30
0.0
 11
123.0420857938479
 21
197.75769000912621
 31
0.0
1001
PHOENIX7010
1002
{
1070
    41
1040
1.0
1002
}
  0
LINE
  5
118B
  8
0
  6
CONTINUOUS
 62
     7
 10
113.0420705350589
 20
199.75769000912621
 30
0.0
 11
123.0420857938479
 21
199.75769000912621
 31
0.0
1001
PHOENIX7010
1002
{
1070
    41
1040
1.0
1002
}
  0
LINE
  5
118C
  8
0
  6
CONTINUOUS
 62
     7
 10
113.0420705350589
 20
191.75769000912621
 30
0.0
 11
123.0420857938479
 21
191.75769000912621
 31
0.0
1001
PHOENIX7010
1002
{
1070
    41
1040
1.0
1002
}
  0
LINE
  5
118D
  8
0
  6
CONTINUOUS
 62
     7
 10
113.0420705350589
 20
195.75769000912621
 30
0.0
 11
123.0420857938479
 21
195.75769000912621
 31
0.0
1001
PHOENIX7010
1002
{
1070
    41
1040
1.0
1002
}
  0
LINE
  5
118E
  8
0
  6
CONTINUOUS
 62
     7
 10
113.0420705350589
 20
193.75769000912621
 30
0.0
 11
123.0420857938479
 21
193.75769000912621
 31
0.0
1001
PHOENIX7010
1002
{
1070
    41
1040
1.0
1002
}
  0
LINE
  5
118F
  8
0
  6
CONTINUOUS
 62
     7
 10
113.0420705350589
 20
189.75769000912621
 30
0.0
 11
123.0420857938479
 21
189.75769000912621
 31
0.0
1001
PHOENIX7010
1002
{
1070
    41
1040
1.0
1002
}
  0
LINE
  5
1190
  8
0
  6
CONTINUOUS
 62
     7
 10
113.0420705350589
 20
187.75769000912621
 30
0.0
 11
123.0420857938479
 21
187.75769000912621
 31
0.0
1001
PHOENIX7010
1002
{
1070
    41
1040
1.0
1002
}
  0
LINE
  5
1191
  8
0
  6
CONTINUOUS
 62
     7
 10
113.0420705350589
 20
185.75769000912621
 30
0.0
 11
123.0420857938479
 21
185.75769000912621
 31
0.0
1001
PHOENIX7010
1002
{
1070
    41
1040
1.0
1002
}
  0
LINE
  5
1192
  8
0
  6
CONTINUOUS
 62
     7
 10
113.0420705350589
 20
183.75769000912621
 30
0.0
 11
123.0420857938479
 21
183.75769000912621
 31
0.0
1001
PHOENIX7010
1002
{
1070
    41
1040
1.0
1002
}
  0
LINE
  5
1193
  8
0
  6
CONTINUOUS
 62
     7
 10
113.0420705350589
 20
181.75769000912621
 30
0.0
 11
123.0420857938479
 21
181.75769000912621
 31
0.0
1001
PHOENIX7010
1002
{
1070
    41
1040
1.0
1002
}
  0
LINE
  5
1194
  8
0
  6
CONTINUOUS
 62
     7
 10
113.0420705350589
 20
179.75769000912621
 30
0.0
 11
123.0420857938479
 21
179.75769000912621
 31
0.0
1001
PHOENIX7010
1002
{
1070
    41
1040
1.0
1002
}
  0
LINE
  5
1195
  8
0
  6
CONTINUOUS
 62
     7
 10
113.0420705350589
 20
177.75769000912621
 30
0.0
 11
123.0420857938479
 21
177.75769000912621
 31
0.0
1001
PHOENIX7010
1002
{
1070
    41
1040
1.0
1002
}
  0
LINE
  5
1196
  8
0
  6
CONTINUOUS
 62
     7
 10
113.0420705350589
 20
175.75769000912621
 30
0.0
 11
123.0420857938479
 21
175.75769000912621
 31
0.0
1001
PHOENIX7010
1002
{
1070
    41
1040
1.0
1002
}
  0
LINE
  5
1197
  8
0
  6
CONTINUOUS
 62
     7
 10
113.0420705350589
 20
169.75769000912621
 30
0.0
 11
123.0420857938479
 21
169.75769000912621
 31
0.0
1001
PHOENIX7010
1002
{
1070
    41
1040
1.0
1002
}
  0
LINE
  5
1198
  8
0
  6
CONTINUOUS
 62
     7
 10
113.0420705350589
 20
171.75769000912621
 30
0.0
 11
123.0420857938479
 21
171.75769000912621
 31
0.0
1001
PHOENIX7010
1002
{
1070
    41
1040
1.0
1002
}
  0
LINE
  5
1199
  8
0
  6
CONTINUOUS
 62
     7
 10
113.0420705350589
 20
173.75769000912621
 30
0.0
 11
123.0420857938479
 21
173.75769000912621
 31
0.0
1001
PHOENIX7010
1002
{
1070
    41
1040
1.0
1002
}
  0
LINE
  5
119A
  8
0
  6
CONTINUOUS
 62
     7
 10
113.0420705350589
 20
145.75769000912621
 30
0.0
 11
123.0420857938479
 21
145.75769000912621
 31
0.0
1001
PHOENIX7010
1002
{
1070
    41
1040
1.0
1002
}
  0
LINE
  5
119B
  8
0
  6
CONTINUOUS
 62
     7
 10
113.0420705350589
 20
147.75769000912621
 30
0.0
 11
123.0420857938479
 21
147.75769000912621
 31
0.0
1001
PHOENIX7010
1002
{
1070
    41
1040
1.0
1002
}
  0
LINE
  5
119C
  8
0
  6
CONTINUOUS
 62
     7
 10
113.0420705350589
 20
149.75769000912621
 30
0.0
 11
123.0420857938479
 21
149.75769000912621
 31
0.0
1001
PHOENIX7010
1002
{
1070
    41
1040
1.0
1002
}
  0
LINE
  5
119D
  8
0
  6
CONTINUOUS
 62
     7
 10
113.0420705350589
 20
151.75769000912621
 30
0.0
 11
123.0420857938479
 21
151.75769000912621
 31
0.0
1001
PHOENIX7010
1002
{
1070
    41
1040
1.0
1002
}
  0
LINE
  5
119E
  8
0
  6
CONTINUOUS
 62
     7
 10
113.0420705350589
 20
153.75769000912621
 30
0.0
 11
123.0420857938479
 21
153.75769000912621
 31
0.0
1001
PHOENIX7010
1002
{
1070
    41
1040
1.0
1002
}
  0
LINE
  5
119F
  8
0
  6
CONTINUOUS
 62
     7
 10
113.0420705350589
 20
157.75769000912621
 30
0.0
 11
123.0420857938479
 21
157.75769000912621
 31
0.0
1001
PHOENIX7010
1002
{
1070
    41
1040
1.0
1002
}
  0
LINE
  5
11A0
  8
0
  6
CONTINUOUS
 62
     7
 10
113.0420705350589
 20
161.75769000912621
 30
0.0
 11
123.0420857938479
 21
161.75769000912621
 31
0.0
1001
PHOENIX7010
1002
{
1070
    41
1040
1.0
1002
}
  0
LINE
  5
11A1
  8
0
  6
CONTINUOUS
 62
     7
 10
113.0420705350589
 20
163.75769000912621
 30
0.0
 11
123.0420857938479
 21
163.75769000912621
 31
0.0
1001
PHOENIX7010
1002
{
1070
    41
1040
1.0
1002
}
  0
LINE
  5
11A2
  8
0
  6
CONTINUOUS
 62
     7
 10
113.0420705350589
 20
165.75769000912621
 30
0.0
 11
123.0420857938479
 21
165.75769000912621
 31
0.0
1001
PHOENIX7010
1002
{
1070
    41
1040
1.0
1002
}
  0
LINE
  5
11A3
  8
0
  6
CONTINUOUS
 62
     7
 10
113.0420705350589
 20
141.75769000912621
 30
0.0
 11
123.0420857938479
 21
141.75769000912621
 31
0.0
1001
PHOENIX7010
1002
{
1070
    41
1040
1.0
1002
}
  0
LINE
  5
11A4
  8
0
  6
CONTINUOUS
 62
     7
 10
113.0420705350589
 20
139.75769000912621
 30
0.0
 11
123.0420857938479
 21
139.75769000912621
 31
0.0
1001
PHOENIX7010
1002
{
1070
    41
1040
1.0
1002
}
  0
LINE
  5
11A5
  8
0
  6
CONTINUOUS
 62
     7
 10
113.0420705350589
 20
143.75769000912621
 30
0.0
 11
123.0420857938479
 21
143.75769000912621
 31
0.0
1001
PHOENIX7010
1002
{
1070
    41
1040
1.0
1002
}
  0
LINE
  5
11A6
  8
0
  6
CONTINUOUS
 62
     7
 10
113.0420705350589
 20
155.75769000912621
 30
0.0
 11
123.0420857938479
 21
155.75769000912621
 31
0.0
1001
PHOENIX7010
1002
{
1070
    41
1040
1.0
1002
}
  0
LINE
  5
11A7
  8
0
  6
CONTINUOUS
 62
     7
 10
113.0420705350589
 20
159.75769000912621
 30
0.0
 11
123.0420857938479
 21
159.75769000912621
 31
0.0
1001
PHOENIX7010
1002
{
1070
    41
1040
1.0
1002
}
  0
LINE
  5
11A8
  8
0
  6
CONTINUOUS
 62
     7
 10
113.0420705350589
 20
167.75769000912621
 30
0.0
 11
123.0420857938479
 21
167.75769000912621
 31
0.0
1001
PHOENIX7010
1002
{
1070
    41
1040
1.0
1002
}
  0
LINE
  5
11A9
  8
0
  6
CONTINUOUS
 62
     1
 10
133.04208579384789
 20
134.75769000912621
 30
0.0
 11
133.04208579384789
 21
224.75769000912621
 31
0.0
1001
PHOENIX7010
1002
{
1070
    41
1040
1.0
1002
}
  0
LINE
  5
11AA
  8
0
  6
CONTINUOUS
 62
     1
 10
133.04208579384789
 20
134.75769000912621
 30
0.0
 11
132.5852376493167
 21
138.22774463559111
 31
0.0
1001
PHOENIX7010
1002
{
1070
    41
1040
1.0
1002
}
  0
LINE
  5
11AB
  8
0
  6
CONTINUOUS
 62
     1
 10
133.04208579384789
 20
134.75769000912621
 30
0.0
 11
133.4989339383792
 21
138.22774463559111
 31
0.0
1001
PHOENIX7010
1002
{
1070
    41
1040
1.0
1002
}
  0
LINE
  5
11AC
  8
0
  6
CONTINUOUS
 62
     1
 10
133.04208579384789
 20
224.75769000912621
 30
0.0
 11
132.5852376493167
 21
221.2876277532668
 31
0.0
1001
PHOENIX7010
1002
{
1070
    41
1040
1.0
1002
}
  0
LINE
  5
11AD
  8
0
  6
CONTINUOUS
 62
     1
 10
133.04208579384789
 20
224.75769000912621
 30
0.0
 11
133.4989339383792
 21
221.2876277532668
 31
0.0
1001
PHOENIX7010
1002
{
1070
    41
1040
1.0
1002
}
  0
TEXT
  5
11AE
  8
0
 62
     5
 10
132.04208579384789
 20
175.3507013481377
 30
0.0
 40
4.0
  1
 90 
 50
90.0
 72
     1
 11
132.04208579384789
 21
179.75769000912621
 31
0.0
1001
PHOENIX7010
1002
{
1070
    41
1040
1.0
1002
}
  0
LINE
  5
11AF
  8
0
  6
CONTINUOUS
 62
     1
 10
123.0420857938479
 20
224.75769000912621
 30
0.0
 11
135.04208579384789
 21
224.75769000912621
 31
0.0
1001
PHOENIX7010
1002
{
1070
    41
1040
1.0
1002
}
  0
LINE
  5
11B0
  8
0
  6
CONTINUOUS
 62
     1
 10
123.0420857938479
 20
134.75769000912621
 30
0.0
 11
135.04208579384789
 21
134.75769000912621
 31
0.0
1001
PHOENIX7010
1002
{
1070
    41
1040
1.0
1002
}
  0
LINE
  5
11B1
  8
0
  6
CONTINUOUS
 62
     1
 10
143.04208579384789
 20
119.20980029965359
 30
0.0
 11
143.04208579384789
 21
240.3055873479934
 31
0.0
1001
PHOENIX7010
1002
{
1070
    41
1040
1.0
1002
}
  0
LINE
  5
11B2
  8
0
  6
CONTINUOUS
 62
     1
 10
133.04208579384789
 20
119.20980029965359
 30
0.0
 11
145.04208579384789
 21
119.20980029965359
 31
0.0
1001
PHOENIX7010
1002
{
1070
    41
1040
1.0
1002
}
  0
LINE
  5
11B3
  8
0
  6
CONTINUOUS
 62
     1
 10
133.04208579384789
 20
240.3055873479934
 30
0.0
 11
145.04208579384789
 21
240.3055873479934
 31
0.0
1001
PHOENIX7010
1002
{
1070
    41
1040
1.0
1002
}
  0
LINE
  5
11B4
  8
0
  6
CONTINUOUS
 62
     1
 10
143.04208579384789
 20
119.20980029965359
 30
0.0
 11
142.5852376493167
 21
122.6798549261184
 31
0.0
1001
PHOENIX7010
1002
{
1070
    41
1040
1.0
1002
}
  0
LINE
  5
11B5
  8
0
  6
CONTINUOUS
 62
     1
 10
143.04208579384789
 20
119.20980029965359
 30
0.0
 11
143.4989339383792
 21
122.6798549261184
 31
0.0
1001
PHOENIX7010
1002
{
1070
    41
1040
1.0
1002
}
  0
LINE
  5
11B6
  8
0
  6
CONTINUOUS
 62
     1
 10
143.04208579384789
 20
240.3055873479934
 30
0.0
 11
142.5852376493167
 21
236.83552509213399
 31
0.0
1001
PHOENIX7010
1002
{
1070
    41
1040
1.0
1002
}
  0
LINE
  5
11B7
  8
0
  6
CONTINUOUS
 62
     1
 10
143.04208579384789
 20
240.3055873479934
 30
0.0
 11
143.4989339383792
 21
236.83552509213399
 31
0.0
1001
PHOENIX7010
1002
{
1070
    41
1040
1.0
1002
}
  0
TEXT
  5
11B8
  8
0
 62
     5
 10
142.04208579384789
 20
173.87484729665161
 30
0.0
 40
4.0
  1
122.5
 50
90.0
 72
     1
 11
142.04208579384789
 21
179.75769000912621
 31
0.0
1001
PHOENIX7010
1002
{
1070
    41
1040
1.0
1002
}
  0
LINE
  5
11B9
  8
0
  6
CONTINUOUS
 62
     1
 10
113.0420705350589
 20
254.53057819271999
 30
0.0
 11
109.5720387967776
 21
254.07373004818871
 31
0.0
1001
PHOENIX7010
1002
{
1070
    41
1040
1.0
1002
}
  0
LINE
  5
11BA
  8
0
  6
CONTINUOUS
 62
     1
 10
113.0420705350589
 20
254.53057819271999
 30
0.0
 11
109.5720387967776
 21
254.98742633725121
 31
0.0
1001
PHOENIX7010
1002
{
1070
    41
1040
1.0
1002
}
  0
LINE
  5
11BB
  8
0
  6
CONTINUOUS
 62
     1
 10
113.0420705350589
 20
254.53057819271999
 30
0.0
 11
68.042070535058883
 21
254.53057819271999
 31
0.0
1001
PHOENIX7010
1002
{
1070
    41
1040
1.0
1002
}
  0
LINE
  5
1257
  8
0
  6
CONTINUOUS
 62
     7
 10
81.217119363183883
 20
121.1277309026809
 30
0.0
 11
81.236772683496383
 21
121.1481319036575
 31
0.0
1001
PHOENIX7010
1002
{
1070
    41
1040
1.0
1002
}
  0
ARC
  5
1258
  8
0
  6
CONTINUOUS
 62
     7
 10
80.863191750879196
 20
121.4882732000442
 30
0.0
 40
0.5052794814109803
 50
317.6788940429729
 51
320.88055419922239
1001
PHOENIX7010
1002
{
1070
    41
1040
1.0
1002
}
  0
ARC
  5
1259
  8
0
  6
CONTINUOUS
 62
     7
 10
80.865389016504196
 20
121.4856639471145
 30
0.0
 40
0.501904845237732
 50
320.94906616210818
 51
324.17599487303778
1001
PHOENIX7010
1002
{
1070
    41
1040
1.0
1002
}
  0
ARC
  5
125A
  8
0
  6
CONTINUOUS
 62
     7
 10
80.864412454004196
 20
121.4869914617629
 30
0.0
 40
0.5035059452056885
 50
324.1216125488275
 51
327.34143066406392
1001
PHOENIX7010
1002
{
1070
    41
1040
1.0
1002
}
  0
ARC
  5
125B
  8
0
  6
CONTINUOUS
 62
     7
 10
80.862886575097946
 20
121.4868693914504
 30
0.0
 40
0.5047101974487305
 50
327.44561767577773
 51
330.65948486328102
1001
PHOENIX7010
1002
{
1070
    41
1040
1.0
1002
}
  0
ARC
  5
125C
  8
0
  6
CONTINUOUS
 62
     7
 10
80.862703469629196
 20
121.48770862484891
 30
0.0
 40
0.5052675008773804
 50
330.58618164063063
 51
333.8025512695317
1001
PHOENIX7010
1002
{
1070
    41
1040
1.0
1002
}
  0
ARC
  5
125D
  8
0
  6
CONTINUOUS
 62
     7
 10
80.862093118066696
 20
121.4870372381301
 30
0.0
 40
0.5055408477783204
 50
333.90206909179773
 51
337.12350463866483
1001
PHOENIX7010
1002
{
1070
    41
1040
1.0
1002
}
  0
ARC
  5
125E
  8
0
  6
CONTINUOUS
 62
     7
 10
80.862337258691696
 20
121.48714404965349
 30
0.0
 40
0.5053432583808899
 50
337.1009521484408
 51
340.33288574218051
1001
PHOENIX7010
1002
{
1070
    41
1040
1.0
1002
}
  0
ARC
  5
125F
  8
0
  6
CONTINUOUS
 62
     7
 10
80.863863137597946
 20
121.4855266180129
 30
0.0
 40
0.5033749341964722
 50
340.44882202149353
 51
343.70574951172421
1001
PHOENIX7010
1002
{
1070
    41
1040
1.0
1002
}
  0
ARC
  5
1260
  8
0
  6
CONTINUOUS
 62
     7
 10
80.862886575097946
 20
121.4865031805129
 30
0.0
 40
0.5045593976974488
 50
343.62945556640813
 51
346.89212036132398
1001
PHOENIX7010
1002
{
1070
    41
1040
1.0
1002
}
  0
ARC
  5
1261
  8
0
  6
CONTINUOUS
 62
     7
 10
80.860017922754196
 20
121.4861827459426
 30
0.0
 40
0.5072935819625855
 50
347.00125122071148
 51
350.26303100585523
1001
PHOENIX7010
1002
{
1070
    41
1040
1.0
1002
}
  0
ARC
  5
1262
  8
0
  6
CONTINUOUS
 62
     7
 10
80.864290383691696
 20
121.4852061834426
 30
0.0
 40
0.5029038786888123
 50
350.29046630858892
 51
353.604461669925
1001
PHOENIX7010
1002
{
1070
    41
1040
1.0
1002
}
  0
ARC
  5
1263
  8
0
  6
CONTINUOUS
 62
     7
 10
80.876192239160446
 20
121.4828410711379
 30
0.0
 40
0.4908131062984467
 50
353.72409057617278
 51
357.15054321289222
1001
PHOENIX7010
1002
{
1070
    41
1040
1.0
1002
}
  0
ARC
  5
1264
  8
0
  6
CONTINUOUS
 62
     7
 10
80.858858254785446
 20
121.4855266180129
 30
0.0
 40
0.5082696080207825
 50
356.9441833496021
 51
0.2670776844030165
1001
PHOENIX7010
1002
{
1070
    41
1040
1.0
1002
}
  0
ARC
  5
1265
  8
0
  6
CONTINUOUS
 62
     7
 10
80.814790871972946
 20
121.48502307797391
 30
0.0
 40
0.5523485541343689
 50
0.297977447505406
 51
3.366999864585686
1001
PHOENIX7010
1002
{
1070
    41
1040
1.0
1002
}
  0
ARC
  5
1266
  8
0
  6
CONTINUOUS
 62
     7
 10
80.867036965722946
 20
121.4824901189895
 30
0.0
 40
0.5004052519798279
 50
4.0085463523924538
 51
7.4955348968450819
1001
PHOENIX7010
1002
{
1070
    41
1040
1.0
1002
}
  0
ARC
  5
1267
  8
0
  6
CONTINUOUS
 62
     7
 10
80.948824075097946
 20
121.49185901547391
 30
0.0
 40
0.4180837273597718
 50
7.684470653527776
 51
12.03340339661453
1001
PHOENIX7010
1002
{
1070
    41
1040
1.0
1002
}
  0
ARC
  5
1268
  8
0
  6
CONTINUOUS
 62
     7
 10
80.821077493066696
 20
121.48274951840359
 30
0.0
 40
0.5452099442481995
 50
10.171358108518749
 51
13.35015583038485
1001
PHOENIX7010
1002
{
1070
    41
1040
1.0
1002
}
  0
LINE
  5
1269
  8
0
  6
CONTINUOUS
 62
     7
 10
81.351518777246383
 20
121.6086879339309
 30
0.0
 11
81.344988015527633
 21
121.6356807317825
 31
0.0
1001
PHOENIX7010
1002
{
1070
    41
1040
1.0
1002
}
  0
ARC
  5
126A
  8
0
  6
CONTINUOUS
 62
     7
 10
80.938326028222946
 20
121.4959178533645
 30
0.0
 40
0.4300212860107422
 50
18.95890235901005
 51
23.836328506473858
1001
PHOENIX7010
1002
{
1070
    41
1040
1.0
1002
}
  0
ARC
  5
126B
  8
0
  6
CONTINUOUS
 62
     7
 10
80.984346536035446
 20
121.518745001802
 30
0.0
 40
0.3787315487861633
 50
23.488739013677591
 51
32.291225433354072
1001
PHOENIX7010
1002
{
1070
    41
1040
1.0
1002
}
  0
ARC
  5
126C
  8
0
  6
CONTINUOUS
 62
     7
 10
80.354036477441696
 20
121.2014232244582
 30
0.0
 40
1.083207368850708
 50
28.668045043940658
 51
32.769073486328317
1001
PHOENIX7010
1002
{
1070
    41
1040
1.0
1002
}
  0
LINE
  5
126D
  8
0
  6
CONTINUOUS
 62
     7
 10
79.319414285058883
 20
121.7878261175247
 30
0.0
 11
79.302721169824494
 21
121.76448017025901
 31
0.0
1001
PHOENIX7010
1002
{
1070
    41
1040
1.0
1002
}
  0
ARC
  5
126E
  8
0
  6
CONTINUOUS
 62
     7
 10
79.715913918847946
 20
121.4862590398879
 30
0.0
 40
0.4980694055557251
 50
146.05252075195591
 51
149.3511657714854
1001
PHOENIX7010
1002
{
1070
    41
1040
1.0
1002
}
  0
ARC
  5
126F
  8
0
  6
CONTINUOUS
 62
     7
 10
79.714876321191696
 20
121.48763233090359
 30
0.0
 40
0.4964714944362641
 50
149.42556762695139
 51
152.7438659667969
1001
PHOENIX7010
1002
{
1070
    41
1040
1.0
1002
}
  0
ARC
  5
1270
  8
0
  6
CONTINUOUS
 62
     7
 10
79.718599465722946
 20
121.4848552312942
 30
0.0
 40
0.5010814666748047
 50
152.65814208985
 51
155.95449829101341
1001
PHOENIX7010
1002
{
1070
    41
1040
1.0
1002
}
  0
ARC
  5
1271
  8
0
  6
CONTINUOUS
 62
     7
 10
79.723116067285446
 20
121.4833903875442
 30
0.0
 40
0.5057957768440247
 50
156.0087890625004
 51
159.2813110351467
1001
PHOENIX7010
1002
{
1070
    41
1040
1.0
1002
}
  0
ARC
  5
1272
  8
0
  6
CONTINUOUS
 62
     7
 10
79.725435403222946
 20
121.4823222723098
 30
0.0
 40
0.5083248019218445
 50
159.2601928710985
 51
162.52331542968579
1001
PHOENIX7010
1002
{
1070
    41
1040
1.0
1002
}
  0
ARC
  5
1273
  8
0
  6
CONTINUOUS
 62
     7
 10
79.727510598535446
 20
121.48238330746609
 30
0.0
 40
0.5102820992469788
 50
162.6022338867202
 51
165.86238098144531
1001
PHOENIX7010
1002
{
1070
    41
1040
1.0
1002
}
  0
ARC
  5
1274
  8
0
  6
CONTINUOUS
 62
     7
 10
79.728243020410446
 20
121.4817424383254
 30
0.0
 40
0.5111860632896425
 50
165.8111114501946
 51
169.07626342772849
1001
PHOENIX7010
1002
{
1070
    41
1040
1.0
1002
}
  0
ARC
  5
1275
  8
0
  6
CONTINUOUS
 62
     7
 10
79.726900246972946
 20
121.4830546941848
 30
0.0
 40
0.5096060037612915
 50
169.1951904296902
 51
172.48216247557849
1001
PHOENIX7010
1002
{
1070
    41
1040
1.0
1002
}
  0
ARC
  5
1276
  8
0
  6
CONTINUOUS
 62
     7
 10
79.727571633691696
 20
121.48262744809109
 30
0.0
 40
0.5103294253349305
 50
172.4431762695242
 51
175.73837280272781
1001
PHOENIX7010
1002
{
1070
    41
1040
1.0
1002
}
  0
ARC
  5
1277
  8
0
  6
CONTINUOUS
 62
     7
 10
79.728853371972946
 20
121.4833293523879
 30
0.0
 40
0.5115586519241333
 50
175.8272094726575
 51
179.12928771972341
1001
PHOENIX7010
1002
{
1070
    41
1040
1.0
1002
}
  0
ARC
  5
1278
  8
0
  6
CONTINUOUS
 62
     7
 10
79.723543313379196
 20
121.4838176336379
 30
0.0
 40
0.5062657594680787
 50
179.17623901367151
 51
182.53329467773119
1001
PHOENIX7010
1002
{
1070
    41
1040
1.0
1002
}
  0
ARC
  5
1279
  8
0
  6
CONTINUOUS
 62
     7
 10
79.711214211816696
 20
121.48433643246609
 30
0.0
 40
0.4939652681350708
 50
182.65664672851409
 51
186.1248321533181
1001
PHOENIX7010
1002
{
1070
    41
1040
1.0
1002
}
  0
ARC
  5
127A
  8
0
  6
CONTINUOUS
 62
     7
 10
79.723848489160446
 20
121.48397022152859
 30
0.0
 40
0.5064795017242432
 50
185.93215942382989
 51
189.3261108398419
1001
PHOENIX7010
1002
{
1070
    41
1040
1.0
1002
}
  0
ARC
  5
127B
  8
0
  6
CONTINUOUS
 62
     7
 10
79.756502297754196
 20
121.4902568426223
 30
0.0
 40
0.5397007465362549
 50
189.4231719970706
 51
192.6182403564498
1001
PHOENIX7010
1002
{
1070
    41
1040
1.0
1002
}
  0
ARC
  5
127C
  8
0
  6
CONTINUOUS
 62
     7
 10
79.711824563379196
 20
121.48494678402859
 30
0.0
 40
0.4949830770492554
 50
193.1455993652331
 51
196.7175903320273
1001
PHOENIX7010
1002
{
1070
    41
1040
1.0
1002
}
  0
ARC
  5
127D
  8
0
  6
CONTINUOUS
 62
     7
 10
79.642366555566696
 20
121.46553760434109
 30
0.0
 40
0.4228524267673493
 50
196.90676879882861
 51
201.2359924316435
1001
PHOENIX7010
1002
{
1070
    41
1040
1.0
1002
}
  0
ARC
  5
127E
  8
0
  6
CONTINUOUS
 62
     7
 10
79.750276711816696
 20
121.49068408871609
 30
0.0
 40
0.532807767391205
 50
199.55216979980679
 51
202.82147216797341
1001
PHOENIX7010
1002
{
1070
    41
1040
1.0
1002
}
  0
LINE
  5
127F
  8
0
  6
CONTINUOUS
 62
     7
 10
79.259172585840133
 20
121.2840877142043
 30
0.0
 11
79.270158913965133
 21
121.2585139837356
 31
0.0
1001
PHOENIX7010
1002
{
1070
    41
1040
1.0
1002
}
  0
ARC
  5
1280
  8
0
  6
CONTINUOUS
 62
     7
 10
79.655061868066696
 20
121.4643779363723
 30
0.0
 40
0.4365146756172181
 50
208.14793395995309
 51
212.82720947265059
1001
PHOENIX7010
1002
{
1070
    41
1040
1.0
1002
}
  0
ARC
  5
1281
  8
0
  6
CONTINUOUS
 62
     7
 10
79.613557961816696
 20
121.43563037777859
 30
0.0
 40
0.3860799372196197
 50
212.57833862304071
 51
220.75006103515639
1001
PHOENIX7010
1002
{
1070
    41
1040
1.0
1002
}
  0
ARC
  5
1282
  8
0
  6
CONTINUOUS
 62
     7
 10
80.145967629785446
 20
121.81563526059109
 30
0.0
 40
1.0391523838043211
 50
217.45965576172071
 51
221.45460510253861
1001
PHOENIX7010
1002
{
1070
    41
1040
1.0
1002
}
  0
LINE
  5
1283
  8
0
  6
CONTINUOUS
 62
     7
 10
81.217119363183883
 20
238.38764911557149
 30
0.0
 11
81.236772683496383
 21
238.36724811459499
 31
0.0
1001
PHOENIX7010
1002
{
1070
    41
1040
1.0
1002
}
  0
ARC
  5
1284
  8
0
  6
CONTINUOUS
 62
     7
 10
80.863176492090119
 20
238.0270228948684
 30
0.0
 40
0.5052794814109803
 50
39.119430541998931
 51
42.321121215819581
1001
PHOENIX7010
1002
{
1070
    41
1040
1.0
1002
}
  0
ARC
  5
1285
  8
0
  6
CONTINUOUS
 62
     7
 10
80.865404275293258
 20
238.02963214779811
 30
0.0
 40
0.501904845237732
 50
35.824012756346413
 51
39.050926208495667
1001
PHOENIX7010
1002
{
1070
    41
1040
1.0
1002
}
  0
ARC
  5
1286
  8
0
  6
CONTINUOUS
 62
     7
 10
80.864397195215119
 20
238.0283046331497
 30
0.0
 40
0.5035059452056885
 50
32.658561706545527
 51
35.878379821778204
1001
PHOENIX7010
1002
{
1070
    41
1040
1.0
1002
}
  0
ARC
  5
1287
  8
0
  6
CONTINUOUS
 62
     7
 10
80.862871316308869
 20
238.0284267034622
 30
0.0
 40
0.5047101974487305
 50
29.340528488162619
 51
32.554374694828716
1001
PHOENIX7010
1002
{
1070
    41
1040
1.0
1002
}
  0
ARC
  5
1288
  8
0
  6
CONTINUOUS
 62
     7
 10
80.862688210840133
 20
238.02758747006371
 30
0.0
 40
0.5052675008773804
 50
26.19746398925237
 51
29.41382598876373
1001
PHOENIX7010
1002
{
1070
    41
1040
1.0
1002
}
  0
ARC
  5
1289
  8
0
  6
CONTINUOUS
 62
     7
 10
80.862077859277633
 20
238.02825885678249
 30
0.0
 40
0.5055408477783204
 50
22.87650108337008
 51
26.09791946411212
1001
PHOENIX7010
1002
{
1070
    41
1040
1.0
1002
}
  0
ARC
  5
128A
  8
0
  6
CONTINUOUS
 62
     7
 10
80.862321999902633
 20
238.02815204525899
 30
0.0
 40
0.5053432583808899
 50
19.667121887208889
 51
22.899044036864488
1001
PHOENIX7010
1002
{
1070
    41
1040
1.0
1002
}
  0
ARC
  5
128B
  8
0
  6
CONTINUOUS
 62
     7
 10
80.863847878808883
 20
238.0297694768997
 30
0.0
 40
0.5033749341964722
 50
16.294261932373601
 51
19.55118370056692
1001
PHOENIX7010
1002
{
1070
    41
1040
1.0
1002
}
  0
ARC
  5
128C
  8
0
  6
CONTINUOUS
 62
     7
 10
80.862901833887008
 20
238.0287929143997
 30
0.0
 40
0.5045593976974488
 50
13.10787105560169
 51
16.370540618901611
1001
PHOENIX7010
1002
{
1070
    41
1040
1.0
1002
}
  0
ARC
  5
128D
  8
0
  6
CONTINUOUS
 62
     7
 10
80.860002663965133
 20
238.02911334896999
 30
0.0
 40
0.5072935819625855
 50
9.7369794845677173
 51
12.998750686646449
1001
PHOENIX7010
1002
{
1070
    41
1040
1.0
1002
}
  0
ARC
  5
128E
  8
0
  6
CONTINUOUS
 62
     7
 10
80.864305642480744
 20
238.03008991146999
 30
0.0
 40
0.5029038786888123
 50
6.3955287933370801
 51
9.7095375061071607
1001
PHOENIX7010
1002
{
1070
    41
1040
1.0
1002
}
  0
ARC
  5
128F
  8
0
  6
CONTINUOUS
 62
     7
 10
80.876207497949494
 20
238.0324550237747
 30
0.0
 40
0.4908131062984467
 50
2.8494453430145441
 51
6.275918960569502
1001
PHOENIX7010
1002
{
1070
    41
1040
1.0
1002
}
  0
ARC
  5
1290
  8
0
  6
CONTINUOUS
 62
     7
 10
80.858842995996383
 20
238.0297694768997
 30
0.0
 40
0.5082696080207825
 50
359.73291015625142
 51
3.0558266639733671
1001
PHOENIX7010
1002
{
1070
    41
1040
1.0
1002
}
  0
ARC
  5
1291
  8
0
  6
CONTINUOUS
 62
     7
 10
80.814775613183883
 20
238.03027301693871
 30
0.0
 40
0.5523485541343689
 50
356.63299560547028
 51
359.70202636718278
1001
PHOENIX7010
1002
{
1070
    41
1040
1.0
1002
}
  0
ARC
  5
1292
  8
0
  6
CONTINUOUS
 62
     7
 10
80.867021706933883
 20
238.03280597592311
 30
0.0
 40
0.5004052519798279
 50
352.50445556640881
 51
355.99145507813222
1001
PHOENIX7010
1002
{
1070
    41
1040
1.0
1002
}
  0
ARC
  5
1293
  8
0
  6
CONTINUOUS
 62
     7
 10
80.948808816308883
 20
238.02343707943871
 30
0.0
 40
0.4180837273597718
 50
347.96658325195449
 51
352.31552124023449
1001
PHOENIX7010
1002
{
1070
    41
1040
1.0
1002
}
  0
ARC
  5
1294
  8
0
  6
CONTINUOUS
 62
     7
 10
80.821062234277619
 20
238.03254657650899
 30
0.0
 40
0.5452099442481995
 50
346.64984130858778
 51
349.82864379883222
1001
PHOENIX7010
1002
{
1070
    41
1040
1.0
1002
}
  0
LINE
  5
1295
  8
0
  6
CONTINUOUS
 62
     7
 10
81.351518777246383
 20
237.90669208432149
 30
0.0
 11
81.344988015527633
 21
237.87969928646999
 31
0.0
1001
PHOENIX7010
1002
{
1070
    41
1040
1.0
1002
}
  0
ARC
  5
1296
  8
0
  6
CONTINUOUS
 62
     7
 10
80.938310769433883
 20
238.01937824154811
 30
0.0
 40
0.4300212860107422
 50
336.16366577149051
 51
341.04110717773273
1001
PHOENIX7010
1002
{
1070
    41
1040
1.0
1002
}
  0
ARC
  5
1297
  8
0
  6
CONTINUOUS
 62
     7
 10
80.984331277246369
 20
237.99655109311061
 30
0.0
 40
0.3787315487861633
 50
327.70877075194971
 51
336.51126098632238
1001
PHOENIX7010
1002
{
1070
    41
1040
1.0
1002
}
  0
ARC
  5
1298
  8
0
  6
CONTINUOUS
 62
     7
 10
80.354051736230744
 20
238.31387287045439
 30
0.0
 40
1.083207368850708
 50
327.2309265136717
 51
331.33197021484341
1001
PHOENIX7010
1002
{
1070
    41
1040
1.0
1002
}
  0
LINE
  5
1299
  8
0
  6
CONTINUOUS
 62
     7
 10
79.319414285058883
 20
237.7275539007278
 30
0.0
 11
79.302721169824494
 21
237.7508998479934
 31
0.0
1001
PHOENIX7010
1002
{
1070
    41
1040
1.0
1002
}
  0
ARC
  5
129A
  8
0
  6
CONTINUOUS
 62
     7
 10
79.715898660058883
 20
238.0290370550247
 30
0.0
 40
0.4980694055557251
 50
210.6488342285146
 51
213.947479248044
1001
PHOENIX7010
1002
{
1070
    41
1040
1.0
1002
}
  0
ARC
  5
129B
  8
0
  6
CONTINUOUS
 62
     7
 10
79.714861062402633
 20
238.02766376400899
 30
0.0
 40
0.4964714944362641
 50
207.2561340332031
 51
210.57443237304841
1001
PHOENIX7010
1002
{
1070
    41
1040
1.0
1002
}
  0
ARC
  5
129C
  8
0
  6
CONTINUOUS
 62
     7
 10
79.718584206933883
 20
238.0304408636184
 30
0.0
 40
0.5010814666748047
 50
204.04550170898651
 51
207.34185791014991
1001
PHOENIX7010
1002
{
1070
    41
1040
1.0
1002
}
  0
ARC
  5
129D
  8
0
  6
CONTINUOUS
 62
     7
 10
79.723100808496383
 20
238.0319057073684
 30
0.0
 40
0.5057957768440247
 50
200.71868896485319
 51
203.99121093749949
1001
PHOENIX7010
1002
{
1070
    41
1040
1.0
1002
}
  0
ARC
  5
129E
  8
0
  6
CONTINUOUS
 62
     7
 10
79.725420144433883
 20
238.0329738226028
 30
0.0
 40
0.5083248019218445
 50
197.47668457031409
 51
200.7398071289015
1001
PHOENIX7010
1002
{
1070
    41
1040
1.0
1002
}
  0
ARC
  5
129F
  8
0
  6
CONTINUOUS
 62
     7
 10
79.727495339746383
 20
238.03291278744649
 30
0.0
 40
0.5102820992469788
 50
194.13761901855469
 51
197.3977661132798
1001
PHOENIX7010
1002
{
1070
    41
1040
1.0
1002
}
  0
ARC
  5
12A0
  8
0
  6
CONTINUOUS
 62
     7
 10
79.728227761621383
 20
238.0335536565872
 30
0.0
 40
0.5111860632896425
 50
190.92373657227151
 51
194.1888885498054
1001
PHOENIX7010
1002
{
1070
    41
1040
1.0
1002
}
  0
ARC
  5
12A1
  8
0
  6
CONTINUOUS
 62
     7
 10
79.726884988183883
 20
238.0322414007278
 30
0.0
 40
0.5096060037612915
 50
187.5178375244214
 51
190.8048095703098
1001
PHOENIX7010
1002
{
1070
    41
1040
1.0
1002
}
  0
ARC
  5
12A2
  8
0
  6
CONTINUOUS
 62
     7
 10
79.727556374902633
 20
238.03266864682149
 30
0.0
 40
0.5103294253349305
 50
184.26162719727219
 51
187.5568237304758
1001
PHOENIX7010
1002
{
1070
    41
1040
1.0
1002
}
  0
ARC
  5
12A3
  8
0
  6
CONTINUOUS
 62
     7
 10
79.728838113183883
 20
238.0319667425247
 30
0.0
 40
0.5115586519241333
 50
180.87071228027659
 51
184.17279052734241
1001
PHOENIX7010
1002
{
1070
    41
1040
1.0
1002
}
  0
ARC
  5
12A4
  8
0
  6
CONTINUOUS
 62
     7
 10
79.723558572168244
 20
238.0314784612747
 30
0.0
 40
0.5062657594680787
 50
177.46670532226881
 51
180.82376098632849
1001
PHOENIX7010
1002
{
1070
    41
1040
1.0
1002
}
  0
ARC
  5
12A5
  8
0
  6
CONTINUOUS
 62
     7
 10
79.711229470605758
 20
238.03095966244649
 30
0.0
 40
0.4939652681350708
 50
173.8751678466819
 51
177.34335327148591
1001
PHOENIX7010
1002
{
1070
    41
1040
1.0
1002
}
  0
ARC
  5
12A6
  8
0
  6
CONTINUOUS
 62
     7
 10
79.723833230371383
 20
238.03132587338411
 30
0.0
 40
0.5064795017242432
 50
170.6738891601581
 51
174.06784057617
1001
PHOENIX7010
1002
{
1070
    41
1040
1.0
1002
}
  0
ARC
  5
12A7
  8
0
  6
CONTINUOUS
 62
     7
 10
79.756487038965133
 20
238.0250392522903
 30
0.0
 40
0.5397007465362549
 50
167.38175964355011
 51
170.57682800292929
1001
PHOENIX7010
1002
{
1070
    41
1040
1.0
1002
}
  0
ARC
  5
12A8
  8
0
  6
CONTINUOUS
 62
     7
 10
79.711809304590133
 20
238.03034931088399
 30
0.0
 40
0.4949830770492554
 50
163.28240966797259
 51
166.85440063476631
1001
PHOENIX7010
1002
{
1070
    41
1040
1.0
1002
}
  0
ARC
  5
12A9
  8
0
  6
CONTINUOUS
 62
     7
 10
79.642351296777633
 20
238.04975849057149
 30
0.0
 40
0.4228524267673493
 50
158.76400756835639
 51
163.09323120117139
1001
PHOENIX7010
1002
{
1070
    41
1040
1.0
1002
}
  0
ARC
  5
12AA
  8
0
  6
CONTINUOUS
 62
     7
 10
79.750291970605758
 20
238.02461200619649
 30
0.0
 40
0.532807767391205
 50
157.17852783202659
 51
160.4478302001931
1001
PHOENIX7010
1002
{
1070
    41
1040
1.0
1002
}
  0
LINE
  5
12AB
  8
0
  6
CONTINUOUS
 62
     7
 10
79.259172585840133
 20
238.23129230404811
 30
0.0
 11
79.270158913965133
 21
238.25686603451689
 31
0.0
1001
PHOENIX7010
1002
{
1070
    41
1040
1.0
1002
}
  0
ARC
  5
12AC
  8
0
  6
CONTINUOUS
 62
     7
 10
79.655046609277633
 20
238.0509181585403
 30
0.0
 40
0.4365146756172181
 50
147.17279052734941
 51
151.85206604004691
1001
PHOENIX7010
1002
{
1070
    41
1040
1.0
1002
}
  0
ARC
  5
12AD
  8
0
  6
CONTINUOUS
 62
     7
 10
79.613573220605758
 20
238.07966571713411
 30
0.0
 40
0.3860799372196197
 50
139.24993896484361
 51
147.42166137695921
1001
PHOENIX7010
1002
{
1070
    41
1040
1.0
1002
}
  0
ARC
  5
12AE
  8
0
  6
CONTINUOUS
 62
     7
 10
80.145952370996383
 20
237.69966083432149
 30
0.0
 40
1.0391523838043211
 50
138.54539489746131
 51
142.5403442382792
1001
PHOENIX7010
1002
{
1070
    41
1040
1.0
1002
}
  0
ARC
  5
12AF
  8
0
  6
CONTINUOUS
 62
     7
 10
76.742098000879196
 20
121.3847423162551
 30
0.0
 40
0.800000011920929
 50
0.0
 51
89.999992370596573
1001
PHOENIX7010
1002
{
1070
    41
1040
1.0
1002
}
  0
ARC
  5
12B0
  8
0
  6
CONTINUOUS
 62
     7
 10
69.542085793847946
 20
121.3847346868606
 30
0.0
 40
0.800000011920929
 50
270.0
 51
0.0
1001
PHOENIX7010
1002
{
1070
    41
1040
1.0
1002
}
  0
ARC
  5
12B1
  8
0
  6
CONTINUOUS
 62
     7
 10
67.742098000879196
 20
120.784728583345
 30
0.0
 40
0.2000000029802322
 50
180.0
 51
270.0
1001
PHOENIX7010
1002
{
1070
    41
1040
1.0
1002
}
  0
ARC
  5
12B2
  8
0
  6
CONTINUOUS
 62
     7
 10
67.742098000879196
 20
121.1847377386184
 30
0.0
 40
0.2000000029802322
 50
89.999992370596573
 51
180.0
1001
PHOENIX7010
1002
{
1070
    41
1040
1.0
1002
}
  0
ARC
  5
12B3
  8
0
  6
CONTINUOUS
 62
     7
 10
67.742098000879196
 20
123.0847316351028
 30
0.0
 40
0.2000000029802322
 50
180.0
 51
270.0
1001
PHOENIX7010
1002
{
1070
    41
1040
1.0
1002
}
  0
ARC
  5
12B4
  8
0
  6
CONTINUOUS
 62
     7
 10
67.742098000879196
 20
123.4847255315872
 30
0.0
 40
0.2000000029802322
 50
89.999992370596573
 51
180.0
1001
PHOENIX7010
1002
{
1070
    41
1040
1.0
1002
}
  0
ARC
  5
12B5
  8
0
  6
CONTINUOUS
 62
     7
 10
78.385652688379196
 20
115.4847255315871
 30
0.0
 40
0.1999959945678711
 50
270.00073242186932
 51
330.00073242187028
1001
PHOENIX7010
1002
{
1070
    41
1040
1.0
1002
}
  0
ARC
  5
12B6
  8
0
  6
CONTINUOUS
 62
     7
 10
77.742098000879196
 20
115.4847255315871
 30
0.0
 40
0.2000000029802322
 50
180.0
 51
270.0
1001
PHOENIX7010
1002
{
1070
    41
1040
1.0
1002
}
  0
LINE
  5
12B7
  8
0
  6
CONTINUOUS
 62
     7
 10
70.342058328027633
 20
122.1847987737747
 30
0.0
 11
70.792070535058883
 21
122.1847987737747
 31
0.0
1001
PHOENIX7010
1002
{
1070
    41
1040
1.0
1002
}
  0
LINE
  5
12B8
  8
0
  6
CONTINUOUS
 62
     7
 10
70.342058328027633
 20
121.3848109808059
 30
0.0
 11
70.342058328027633
 21
122.18481403256369
 31
0.0
1001
PHOENIX7010
1002
{
1070
    41
1040
1.0
1002
}
  0
LINE
  5
12B9
  8
0
  6
CONTINUOUS
 62
     7
 10
67.742082742090133
 20
120.58479267025901
 30
0.0
 11
69.542070535058883
 21
120.58479267025901
 31
0.0
1001
PHOENIX7010
1002
{
1070
    41
1040
1.0
1002
}
  0
LINE
  5
12BA
  8
0
  6
CONTINUOUS
 62
     7
 10
67.542070535058883
 20
121.1847987737747
 30
0.0
 11
67.542070535058883
 21
120.7848048772903
 31
0.0
1001
PHOENIX7010
1002
{
1070
    41
1040
1.0
1002
}
  0
LINE
  5
12BB
  8
0
  6
CONTINUOUS
 62
     7
 10
69.542070535058883
 20
121.3848109808059
 30
0.0
 11
67.742082742090133
 21
121.3848109808059
 31
0.0
1001
PHOENIX7010
1002
{
1070
    41
1040
1.0
1002
}
  0
LINE
  5
12BC
  8
0
  6
CONTINUOUS
 62
     7
 10
69.542070535058883
 20
122.8848109808059
 30
0.0
 11
69.542070535058883
 21
121.3848109808059
 31
0.0
1001
PHOENIX7010
1002
{
1070
    41
1040
1.0
1002
}
  0
LINE
  5
12BD
  8
0
  6
CONTINUOUS
 62
     7
 10
67.742082742090133
 20
122.8848109808059
 30
0.0
 11
69.542070535058883
 21
122.8848109808059
 31
0.0
1001
PHOENIX7010
1002
{
1070
    41
1040
1.0
1002
}
  0
LINE
  5
12BE
  8
0
  6
CONTINUOUS
 62
     7
 10
67.542070535058883
 20
123.4848018255325
 30
0.0
 11
67.542070535058883
 21
123.08479267025901
 31
0.0
1001
PHOENIX7010
1002
{
1070
    41
1040
1.0
1002
}
  0
LINE
  5
12BF
  8
0
  6
CONTINUOUS
 62
     7
 10
74.792070535058883
 20
122.1847987737747
 30
0.0
 11
76.742082742090133
 21
122.1847987737747
 31
0.0
1001
PHOENIX7010
1002
{
1070
    41
1040
1.0
1002
}
  0
LINE
  5
12C0
  8
0
  6
CONTINUOUS
 62
     7
 10
78.558824685449508
 20
115.3848109808059
 30
0.0
 11
79.367113259668244
 21
116.7845912542434
 31
0.0
1001
PHOENIX7010
1002
{
1070
    41
1040
1.0
1002
}
  0
LINE
  5
12C1
  8
0
  6
CONTINUOUS
 62
     7
 10
77.742082742090133
 20
115.2848048772903
 30
0.0
 11
78.385637429590133
 21
115.2848048772903
 31
0.0
1001
PHOENIX7010
1002
{
1070
    41
1040
1.0
1002
}
  0
LINE
  5
12C2
  8
0
  6
CONTINUOUS
 62
     7
 10
77.542070535058883
 20
121.3848109808059
 30
0.0
 11
77.542070535058883
 21
115.48481708432151
 31
0.0
1001
PHOENIX7010
1002
{
1070
    41
1040
1.0
1002
}
  0
LINE
  5
12C3
  8
0
  6
CONTINUOUS
 62
     7
 10
70.792070535058883
 20
123.6847987737746
 30
0.0
 11
67.742082742090133
 21
123.6847987737746
 31
0.0
1001
PHOENIX7010
1002
{
1070
    41
1040
1.0
1002
}
  0
LINE
  5
12C4
  8
0
  6
CONTINUOUS
 62
     7
 10
74.792070535058883
 20
122.1847987737747
 30
0.0
 11
70.792070535058883
 21
122.1847987737747
 31
0.0
1001
PHOENIX7010
1002
{
1070
    41
1040
1.0
1002
}
  0
LINE
  5
12C5
  8
0
  6
CONTINUOUS
 62
     7
 10
78.742082742090133
 20
123.6847987737746
 30
0.0
 11
74.792070535058883
 21
123.6847987737746
 31
0.0
1001
PHOENIX7010
1002
{
1070
    41
1040
1.0
1002
}
  0
LINE
  5
12C6
  8
0
  6
CONTINUOUS
 62
     7
 10
70.792070535058883
 20
123.6847987737746
 30
0.0
 11
74.792070535058883
 21
123.6847987737746
 31
0.0
1001
PHOENIX7010
1002
{
1070
    41
1040
1.0
1002
}
  0
LINE
  5
12C7
  8
0
  6
CONTINUOUS
 62
     7
 10
82.642076638574508
 20
124.2848048772903
 30
0.0
 11
78.742082742090133
 21
124.2848048772903
 31
0.0
1001
PHOENIX7010
1002
{
1070
    41
1040
1.0
1002
}
  0
LINE
  5
12C8
  8
0
  6
CONTINUOUS
 62
     7
 10
78.742082742090133
 20
124.2848048772903
 30
0.0
 11
78.742082742090133
 21
123.6847987737746
 31
0.0
1001
PHOENIX7010
1002
{
1070
    41
1040
1.0
1002
}
  0
ARC
  5
12C9
  8
0
  6
CONTINUOUS
 62
     7
 10
80.867159036035446
 20
121.4847331609817
 30
0.0
 40
0.5000050067901612
 50
37.296947479242498
 51
89.999992370596573
1001
PHOENIX7010
1002
{
1070
    41
1040
1.0
1002
}
  0
ARC
  5
12CA
  8
0
  6
CONTINUOUS
 62
     7
 10
79.717134621972946
 20
121.4847331609817
 30
0.0
 40
0.5000020265579224
 50
89.999992370596573
 51
142.69648742675849
1001
PHOENIX7010
1002
{
1070
    41
1040
1.0
1002
}
  0
ARC
  5
12CB
  8
0
  6
CONTINUOUS
 62
     7
 10
82.025423196191696
 20
115.78475147152859
 30
0.0
 40
0.2000039964914322
 50
210.00070190430171
 51
270.00073242186932
1001
PHOENIX7010
1002
{
1070
    41
1040
1.0
1002
}
  0
ARC
  5
12CC
  8
0
  6
CONTINUOUS
 62
     7
 10
80.292146829004196
 20
119.4847331609817
 30
0.0
 40
1.25
 50
317.73147583008199
 51
42.268554687497478
1001
PHOENIX7010
1002
{
1070
    41
1040
1.0
1002
}
  0
ARC
  5
12CD
  8
0
  6
CONTINUOUS
 62
     7
 10
80.292146829004196
 20
119.4847331609817
 30
0.0
 40
1.25
 50
137.731369018555
 51
222.26864624023389
1001
PHOENIX7010
1002
{
1070
    41
1040
1.0
1002
}
  0
LINE
  5
12CE
  8
0
  6
CONTINUOUS
 62
     7
 10
81.217119363183883
 20
117.1622462835403
 30
0.0
 11
81.217119363183883
 21
116.7847743597121
 31
0.0
1001
PHOENIX7010
1002
{
1070
    41
1040
1.0
1002
}
  0
LINE
  5
12CF
  8
0
  6
CONTINUOUS
 62
     7
 10
81.217119363183883
 20
118.1793056097121
 30
0.0
 11
81.217119363183883
 21
118.6440272893996
 31
0.0
1001
PHOENIX7010
1002
{
1070
    41
1040
1.0
1002
}
  0
LINE
  5
12D0
  8
0
  6
CONTINUOUS
 62
     7
 10
81.217119363183883
 20
117.1622462835403
 30
0.0
 11
81.217119363183883
 21
118.17932086850119
 31
0.0
1001
PHOENIX7010
1002
{
1070
    41
1040
1.0
1002
}
  0
LINE
  5
12D1
  8
0
  6
CONTINUOUS
 62
     7
 10
81.217119363183883
 20
120.7902980413528
 30
0.0
 11
81.217119363183883
 21
121.1277309026809
 31
0.0
1001
PHOENIX7010
1002
{
1070
    41
1040
1.0
1002
}
  0
LINE
  5
12D2
  8
0
  6
CONTINUOUS
 62
     7
 10
81.217119363183883
 20
120.32556110287619
 30
0.0
 11
81.217119363183883
 21
120.7902980413528
 31
0.0
1001
PHOENIX7010
1002
{
1070
    41
1040
1.0
1002
}
  0
LINE
  5
12D3
  8
0
  6
CONTINUOUS
 62
     7
 10
79.717119363183883
 20
121.9848018255325
 30
0.0
 11
80.867113259668258
 21
121.9848018255325
 31
0.0
1001
PHOENIX7010
1002
{
1070
    41
1040
1.0
1002
}
  0
LINE
  5
12D4
  8
0
  6
CONTINUOUS
 62
     7
 10
79.367113259668244
 20
121.1277309026809
 30
0.0
 11
79.367113259668244
 21
120.79035907650901
 31
0.0
1001
PHOENIX7010
1002
{
1070
    41
1040
1.0
1002
}
  0
LINE
  5
12D5
  8
0
  6
CONTINUOUS
 62
     7
 10
79.367113259668244
 20
120.79035907650901
 30
0.0
 11
79.367113259668244
 21
120.3255763616653
 31
0.0
1001
PHOENIX7010
1002
{
1070
    41
1040
1.0
1002
}
  0
LINE
  5
12D6
  8
0
  6
CONTINUOUS
 62
     7
 10
79.367113259668244
 20
118.1792445745559
 30
0.0
 11
79.367113259668244
 21
117.1622005071731
 31
0.0
1001
PHOENIX7010
1002
{
1070
    41
1040
1.0
1002
}
  0
LINE
  5
12D7
  8
0
  6
CONTINUOUS
 62
     7
 10
79.367113259668244
 20
118.64404254818869
 30
0.0
 11
79.367113259668244
 21
118.1792445745559
 31
0.0
1001
PHOENIX7010
1002
{
1070
    41
1040
1.0
1002
}
  0
LINE
  5
12D8
  8
0
  6
CONTINUOUS
 62
     7
 10
79.367113259668244
 20
116.7845912542434
 30
0.0
 11
79.367113259668244
 21
117.1622157659621
 31
0.0
1001
PHOENIX7010
1002
{
1070
    41
1040
1.0
1002
}
  0
LINE
  5
12D9
  8
0
  6
CONTINUOUS
 62
     7
 10
81.217119363183883
 20
116.7847743597121
 30
0.0
 11
81.852190163965133
 21
115.68481403256369
 31
0.0
1001
PHOENIX7010
1002
{
1070
    41
1040
1.0
1002
}
  0
ARC
  5
12DA
  8
0
  6
CONTINUOUS
 62
     7
 10
82.842073586816696
 20
122.8847423162551
 30
0.0
 40
0.2000000029802322
 50
180.0
 51
270.0
1001
PHOENIX7010
1002
{
1070
    41
1040
1.0
1002
}
  0
LINE
  5
12DB
  8
0
  6
CONTINUOUS
 62
     7
 10
82.642076638574508
 20
122.8848109808059
 30
0.0
 11
82.642076638574508
 21
124.2848048772903
 31
0.0
1001
PHOENIX7010
1002
{
1070
    41
1040
1.0
1002
}
  0
LINE
  5
12DC
  8
0
  6
CONTINUOUS
 62
     7
 10
93.042070535058883
 20
115.58186298275901
 30
0.0
 11
93.042070535058883
 21
117.1347804632278
 31
0.0
1001
PHOENIX7010
1002
{
1070
    41
1040
1.0
1002
}
  0
ARC
  5
12DD
  8
0
  6
CONTINUOUS
 62
     7
 10
93.142061379785446
 20
121.5519023504348
 30
0.0
 40
0.2000010013580322
 50
134.99963378905909
 51
179.99963378906531
1001
PHOENIX7010
1002
{
1070
    41
1040
1.0
1002
}
  0
ARC
  5
12DE
  8
0
  6
CONTINUOUS
 62
     7
 10
92.024934914941696
 20
121.4847331609817
 30
0.0
 40
0.2000110000371933
 50
89.998855590814443
 51
134.9988708496133
1001
PHOENIX7010
1002
{
1070
    41
1040
1.0
1002
}
  0
ARC
  5
12DF
  8
0
  6
CONTINUOUS
 62
     7
 10
91.159578469629196
 20
121.1850810613723
 30
0.0
 40
0.1999990046024322
 50
270.0
 51
315.00033569336011
1001
PHOENIX7010
1002
{
1070
    41
1040
1.0
1002
}
  0
ARC
  5
12E0
  8
0
  6
CONTINUOUS
 62
     7
 10
84.842073586816696
 20
120.1847453680129
 30
0.0
 40
0.800000011920929
 50
89.999992370596573
 51
180.0
1001
PHOENIX7010
1002
{
1070
    41
1040
1.0
1002
}
  0
ARC
  5
12E1
  8
0
  6
CONTINUOUS
 62
     7
 10
84.842073586816696
 20
118.2347331609817
 30
0.0
 40
0.800000011920929
 50
180.0
 51
270.0
1001
PHOENIX7010
1002
{
1070
    41
1040
1.0
1002
}
  0
ARC
  5
12E2
  8
0
  6
CONTINUOUS
 62
     7
 10
85.492098000879196
 20
123.5847392644973
 30
0.0
 40
0.2000000029802322
 50
180.0
 51
270.0
1001
PHOENIX7010
1002
{
1070
    41
1040
1.0
1002
}
  0
ARC
  5
12E3
  8
0
  6
CONTINUOUS
 62
     7
 10
86.092073586816696
 20
123.5847392644973
 30
0.0
 40
0.2000010013580322
 50
270.0
 51
345.52236938477381
1001
PHOENIX7010
1002
{
1070
    41
1040
1.0
1002
}
  0
ARC
  5
12E4
  8
0
  6
CONTINUOUS
 62
     7
 10
86.479402688379196
 20
123.4847331609817
 30
0.0
 40
0.2000010013580322
 50
89.999992370596573
 51
165.52236938477381
1001
PHOENIX7010
1002
{
1070
    41
1040
1.0
1002
}
  0
ARC
  5
12E5
  8
0
  6
CONTINUOUS
 62
     7
 10
89.304781106347946
 20
123.4847331609817
 30
0.0
 40
0.2000010013580322
 50
14.477626800533219
 51
89.999996185298286
1001
PHOENIX7010
1002
{
1070
    41
1040
1.0
1002
}
  0
ARC
  5
12E6
  8
0
  6
CONTINUOUS
 62
     7
 10
89.692049172754196
 20
123.5847392644973
 30
0.0
 40
0.2000010013580322
 50
194.4776306152261
 51
270.0
1001
PHOENIX7010
1002
{
1070
    41
1040
1.0
1002
}
  0
ARC
  5
12E7
  8
0
  6
CONTINUOUS
 62
     7
 10
90.292085793847946
 20
123.5847392644973
 30
0.0
 40
0.2000000029802322
 50
270.0
 51
0.0
1001
PHOENIX7010
1002
{
1070
    41
1040
1.0
1002
}
  0
ARC
  5
12E8
  8
0
  6
CONTINUOUS
 62
     7
 10
91.742098000879196
 20
124.0847392644973
 30
0.0
 40
0.2000000029802322
 50
0.0
 51
89.999992370596573
1001
PHOENIX7010
1002
{
1070
    41
1040
1.0
1002
}
  0
ARC
  5
12E9
  8
0
  6
CONTINUOUS
 62
     7
 10
92.142061379785446
 20
123.7847209539504
 30
0.0
 40
0.2000000029802322
 50
180.0
 51
270.0
1001
PHOENIX7010
1002
{
1070
    41
1040
1.0
1002
}
  0
ARC
  5
12EA
  8
0
  6
CONTINUOUS
 62
     7
 10
92.242098000879196
 20
123.7847209539504
 30
0.0
 40
0.2000000029802322
 50
270.0
 51
0.0
1001
PHOENIX7010
1002
{
1070
    41
1040
1.0
1002
}
  0
ARC
  5
12EB
  8
0
  6
CONTINUOUS
 62
     7
 10
92.642061379785446
 20
123.88472705746609
 30
0.0
 40
0.2000000029802322
 50
89.999992370596573
 51
180.0
1001
PHOENIX7010
1002
{
1070
    41
1040
1.0
1002
}
  0
ARC
  5
12EC
  8
0
  6
CONTINUOUS
 62
     7
 10
92.742098000879196
 20
123.88472705746609
 30
0.0
 40
0.2000000029802322
 50
0.0
 51
89.999992370596573
1001
PHOENIX7010
1002
{
1070
    41
1040
1.0
1002
}
  0
ARC
  5
12ED
  8
0
  6
CONTINUOUS
 62
     7
 10
92.742098000879196
 20
121.3846965398879
 30
0.0
 40
0.2000000029802322
 50
270.0
 51
0.0
1001
PHOENIX7010
1002
{
1070
    41
1040
1.0
1002
}
  0
ARC
  5
12EE
  8
0
  6
CONTINUOUS
 62
     7
 10
92.642122414941696
 20
121.384711798677
 30
0.0
 40
0.2000270038843155
 50
180.00085449218091
 51
270.00085449218091
1001
PHOENIX7010
1002
{
1070
    41
1040
1.0
1002
}
  0
ARC
  5
12EF
  8
0
  6
CONTINUOUS
 62
     7
 10
92.242098000879196
 20
121.4847331609817
 30
0.0
 40
0.1999939978122711
 50
359.99887084960829
 51
89.998825073239814
1001
PHOENIX7010
1002
{
1070
    41
1040
1.0
1002
}
  0
LINE
  5
12F0
  8
0
  6
CONTINUOUS
 62
     7
 10
92.942094949121383
 20
123.7176356878372
 30
0.0
 11
92.942094949121383
 21
123.8847957220168
 31
0.0
1001
PHOENIX7010
1002
{
1070
    41
1040
1.0
1002
}
  0
LINE
  5
12F1
  8
0
  6
CONTINUOUS
 62
     7
 10
93.042070535058883
 20
121.7348018255325
 30
0.0
 11
93.042070535058883
 21
123.5348048772903
 31
0.0
1001
PHOENIX7010
1002
{
1070
    41
1040
1.0
1002
}
  0
LINE
  5
12F2
  8
0
  6
CONTINUOUS
 62
     7
 10
93.000658181543258
 20
121.6933742132278
 30
0.0
 11
93.042070535058883
 21
121.7347865667434
 31
0.0
1001
PHOENIX7010
1002
{
1070
    41
1040
1.0
1002
}
  0
LINE
  5
12F3
  8
0
  6
CONTINUOUS
 62
     7
 10
92.942094949121383
 20
121.3847499456496
 30
0.0
 11
92.942094949121383
 21
121.55195575619651
 31
0.0
1001
PHOENIX7010
1002
{
1070
    41
1040
1.0
1002
}
  0
LINE
  5
12F4
  8
0
  6
CONTINUOUS
 62
     7
 10
82.025407937402633
 20
115.5848079290481
 30
0.0
 11
83.492113259668244
 21
115.5848079290481
 31
0.0
1001
PHOENIX7010
1002
{
1070
    41
1040
1.0
1002
}
  0
LINE
  5
12F5
  8
0
  6
CONTINUOUS
 62
     7
 10
91.301012185449494
 20
121.0437312688918
 30
0.0
 11
91.883501199121383
 21
121.6262355413528
 31
0.0
1001
PHOENIX7010
1002
{
1070
    41
1040
1.0
1002
}
  0
LINE
  5
12F6
  8
0
  6
CONTINUOUS
 62
     7
 10
83.492113259668244
 20
115.5848079290481
 30
0.0
 11
83.492113259668244
 21
115.2848048772903
 31
0.0
1001
PHOENIX7010
1002
{
1070
    41
1040
1.0
1002
}
  0
LINE
  5
12F7
  8
0
  6
CONTINUOUS
 62
     7
 10
84.842058328027619
 20
120.9848018255325
 30
0.0
 11
85.642046120996383
 21
120.9848018255325
 31
0.0
1001
PHOENIX7010
1002
{
1070
    41
1040
1.0
1002
}
  0
LINE
  5
12F8
  8
0
  6
CONTINUOUS
 62
     7
 10
84.042070535058883
 20
118.2347865667434
 30
0.0
 11
84.042070535058883
 21
120.1847987737747
 31
0.0
1001
PHOENIX7010
1002
{
1070
    41
1040
1.0
1002
}
  0
LINE
  5
12F9
  8
0
  6
CONTINUOUS
 62
     7
 10
85.642076638574494
 20
117.4347987737746
 30
0.0
 11
84.842058328027619
 21
117.4347987737746
 31
0.0
1001
PHOENIX7010
1002
{
1070
    41
1040
1.0
1002
}
  0
LINE
  5
12FA
  8
0
  6
CONTINUOUS
 62
     7
 10
85.642076638574494
 20
116.5848079290481
 30
0.0
 11
85.642076638574494
 21
117.4347987737746
 31
0.0
1001
PHOENIX7010
1002
{
1070
    41
1040
1.0
1002
}
  0
LINE
  5
12FB
  8
0
  6
CONTINUOUS
 62
     7
 10
87.842058328027633
 20
116.5848079290481
 30
0.0
 11
85.642046120996383
 21
116.5848079290481
 31
0.0
1001
PHOENIX7010
1002
{
1070
    41
1040
1.0
1002
}
  0
LINE
  5
12FC
  8
0
  6
CONTINUOUS
 62
     7
 10
87.842058328027633
 20
117.4347987737746
 30
0.0
 11
87.842058328027633
 21
116.5848079290481
 31
0.0
1001
PHOENIX7010
1002
{
1070
    41
1040
1.0
1002
}
  0
LINE
  5
12FD
  8
0
  6
CONTINUOUS
 62
     7
 10
89.842088845605758
 20
117.4347987737746
 30
0.0
 11
87.842058328027633
 21
117.4347987737746
 31
0.0
1001
PHOENIX7010
1002
{
1070
    41
1040
1.0
1002
}
  0
LINE
  5
12FE
  8
0
  6
CONTINUOUS
 62
     7
 10
89.842088845605758
 20
116.5848079290481
 30
0.0
 11
89.842088845605758
 21
117.4347987737746
 31
0.0
1001
PHOENIX7010
1002
{
1070
    41
1040
1.0
1002
}
  0
LINE
  5
12FF
  8
0
  6
CONTINUOUS
 62
     7
 10
91.042070535058883
 20
116.5848079290481
 30
0.0
 11
89.842058328027619
 21
116.5848079290481
 31
0.0
1001
PHOENIX7010
1002
{
1070
    41
1040
1.0
1002
}
  0
LINE
  5
1300
  8
0
  6
CONTINUOUS
 62
     7
 10
91.042070535058883
 20
117.4347987737746
 30
0.0
 11
91.042070535058883
 21
116.5848079290481
 31
0.0
1001
PHOENIX7010
1002
{
1070
    41
1040
1.0
1002
}
  0
LINE
  5
1301
  8
0
  6
CONTINUOUS
 62
     7
 10
92.742082742090133
 20
117.4347987737746
 30
0.0
 11
91.042070535058883
 21
117.4347987737746
 31
0.0
1001
PHOENIX7010
1002
{
1070
    41
1040
1.0
1002
}
  0
LINE
  5
1302
  8
0
  6
CONTINUOUS
 62
     7
 10
85.292070535058883
 20
124.2848048772903
 30
0.0
 11
84.242082742090119
 21
124.2848048772903
 31
0.0
1001
PHOENIX7010
1002
{
1070
    41
1040
1.0
1002
}
  0
LINE
  5
1303
  8
0
  6
CONTINUOUS
 62
     7
 10
85.292070535058883
 20
123.58479267025901
 30
0.0
 11
85.292070535058883
 21
124.28478961850119
 31
0.0
1001
PHOENIX7010
1002
{
1070
    41
1040
1.0
1002
}
  0
LINE
  5
1304
  8
0
  6
CONTINUOUS
 62
     7
 10
86.092058328027619
 20
123.3848109808059
 30
0.0
 11
85.492082742090119
 21
123.3848109808059
 31
0.0
1001
PHOENIX7010
1002
{
1070
    41
1040
1.0
1002
}
  0
LINE
  5
1305
  8
0
  6
CONTINUOUS
 62
     7
 10
89.304765847558883
 20
123.6847987737746
 30
0.0
 11
86.479387429590133
 21
123.6847987737746
 31
0.0
1001
PHOENIX7010
1002
{
1070
    41
1040
1.0
1002
}
  0
LINE
  5
1306
  8
0
  6
CONTINUOUS
 62
     7
 10
90.292070535058883
 20
123.3848109808059
 30
0.0
 11
89.692033913965133
 21
123.3848109808059
 31
0.0
1001
PHOENIX7010
1002
{
1070
    41
1040
1.0
1002
}
  0
LINE
  5
1307
  8
0
  6
CONTINUOUS
 62
     7
 10
90.492082742090119
 20
124.2848048772903
 30
0.0
 11
90.492082742090119
 21
123.5848079290481
 31
0.0
1001
PHOENIX7010
1002
{
1070
    41
1040
1.0
1002
}
  0
LINE
  5
1308
  8
0
  6
CONTINUOUS
 62
     7
 10
91.742082742090119
 20
124.2848048772903
 30
0.0
 11
90.492082742090119
 21
124.2848048772903
 31
0.0
1001
PHOENIX7010
1002
{
1070
    41
1040
1.0
1002
}
  0
LINE
  5
1309
  8
0
  6
CONTINUOUS
 62
     7
 10
91.942094949121383
 20
123.7848048772903
 30
0.0
 11
91.942094949121383
 21
124.0848079290481
 31
0.0
1001
PHOENIX7010
1002
{
1070
    41
1040
1.0
1002
}
  0
LINE
  5
130A
  8
0
  6
CONTINUOUS
 62
     7
 10
92.242082742090133
 20
123.58479267025901
 30
0.0
 11
92.142076638574494
 21
123.58479267025901
 31
0.0
1001
PHOENIX7010
1002
{
1070
    41
1040
1.0
1002
}
  0
LINE
  5
130B
  8
0
  6
CONTINUOUS
 62
     7
 10
92.442094949121383
 20
123.8848109808059
 30
0.0
 11
92.442094949121383
 21
123.7848048772903
 31
0.0
1001
PHOENIX7010
1002
{
1070
    41
1040
1.0
1002
}
  0
LINE
  5
130C
  8
0
  6
CONTINUOUS
 62
     7
 10
92.742082742090133
 20
124.08479267025901
 30
0.0
 11
92.642076638574508
 21
124.08479267025901
 31
0.0
1001
PHOENIX7010
1002
{
1070
    41
1040
1.0
1002
}
  0
LINE
  5
130D
  8
0
  6
CONTINUOUS
 62
     7
 10
92.642107156152633
 20
121.1847529974075
 30
0.0
 11
92.742082742090133
 21
121.1847529974075
 31
0.0
1001
PHOENIX7010
1002
{
1070
    41
1040
1.0
1002
}
  0
LINE
  5
130E
  8
0
  6
CONTINUOUS
 62
     7
 10
92.442094949121383
 20
121.48481708432151
 30
0.0
 11
92.442094949121383
 21
121.3847804632278
 31
0.0
1001
PHOENIX7010
1002
{
1070
    41
1040
1.0
1002
}
  0
LINE
  5
130F
  8
0
  6
CONTINUOUS
 62
     7
 10
92.024919656152633
 20
121.6847987737746
 30
0.0
 11
92.242082742090133
 21
121.6847987737746
 31
0.0
1001
PHOENIX7010
1002
{
1070
    41
1040
1.0
1002
}
  0
LINE
  5
1310
  8
0
  6
CONTINUOUS
 62
     7
 10
91.042070535058883
 20
120.9851527776809
 30
0.0
 11
91.159563210840133
 21
120.9851527776809
 31
0.0
1001
PHOENIX7010
1002
{
1070
    41
1040
1.0
1002
}
  0
LINE
  5
1311
  8
0
  6
CONTINUOUS
 62
     7
 10
91.042070535058883
 20
121.83479267025901
 30
0.0
 11
91.042070535058883
 21
120.9851375188918
 31
0.0
1001
PHOENIX7010
1002
{
1070
    41
1040
1.0
1002
}
  0
LINE
  5
1312
  8
0
  6
CONTINUOUS
 62
     7
 10
89.842088845605758
 20
121.83479267025901
 30
0.0
 11
91.042070535058883
 21
121.83479267025901
 31
0.0
1001
PHOENIX7010
1002
{
1070
    41
1040
1.0
1002
}
  0
LINE
  5
1313
  8
0
  6
CONTINUOUS
 62
     7
 10
89.842088845605758
 20
120.9848018255325
 30
0.0
 11
89.842088845605758
 21
121.83479267025901
 31
0.0
1001
PHOENIX7010
1002
{
1070
    41
1040
1.0
1002
}
  0
LINE
  5
1314
  8
0
  6
CONTINUOUS
 62
     7
 10
87.842058328027633
 20
120.9848018255325
 30
0.0
 11
89.842058328027619
 21
120.9848018255325
 31
0.0
1001
PHOENIX7010
1002
{
1070
    41
1040
1.0
1002
}
  0
LINE
  5
1315
  8
0
  6
CONTINUOUS
 62
     7
 10
87.842058328027633
 20
121.83479267025901
 30
0.0
 11
87.842058328027633
 21
120.9847865667434
 31
0.0
1001
PHOENIX7010
1002
{
1070
    41
1040
1.0
1002
}
  0
LINE
  5
1316
  8
0
  6
CONTINUOUS
 62
     7
 10
85.642076638574494
 20
121.83479267025901
 30
0.0
 11
87.842058328027633
 21
121.83479267025901
 31
0.0
1001
PHOENIX7010
1002
{
1070
    41
1040
1.0
1002
}
  0
LINE
  5
1317
  8
0
  6
CONTINUOUS
 62
     7
 10
85.642076638574494
 20
120.9848018255325
 30
0.0
 11
85.642076638574494
 21
121.83479267025901
 31
0.0
1001
PHOENIX7010
1002
{
1070
    41
1040
1.0
1002
}
  0
ARC
  5
1318
  8
0
  6
CONTINUOUS
 62
     7
 10
93.129915383691696
 20
115.386779364595
 30
0.0
 40
0.2000000029802322
 50
134.99996948241821
 51
165.8260955810542
1001
PHOENIX7010
1002
{
1070
    41
1040
1.0
1002
}
  0
ARC
  5
1319
  8
0
  6
CONTINUOUS
 62
     7
 10
92.742098000879196
 20
115.4847255315871
 30
0.0
 40
0.1999990046024322
 50
270.0
 51
345.82632446289227
1001
PHOENIX7010
1002
{
1070
    41
1040
1.0
1002
}
  0
LINE
  5
131A
  8
0
  6
CONTINUOUS
 62
     7
 10
92.988481667871383
 20
115.52827411557151
 30
0.0
 11
93.042070535058883
 21
115.58186298275901
 31
0.0
1001
PHOENIX7010
1002
{
1070
    41
1040
1.0
1002
}
  0
LINE
  5
131B
  8
0
  6
CONTINUOUS
 62
     7
 10
83.492113259668244
 20
115.2848048772903
 30
0.0
 11
92.742082742090133
 21
115.2848048772903
 31
0.0
1001
PHOENIX7010
1002
{
1070
    41
1040
1.0
1002
}
  0
ARC
  5
131C
  8
0
  6
CONTINUOUS
 62
     7
 10
84.042085793847946
 20
122.8847423162551
 30
0.0
 40
0.2000000029802322
 50
270.0
 51
0.0
1001
PHOENIX7010
1002
{
1070
    41
1040
1.0
1002
}
  0
LINE
  5
131D
  8
0
  6
CONTINUOUS
 62
     7
 10
84.042070535058883
 20
122.6847987737746
 30
0.0
 11
82.842058328027633
 21
122.6847987737746
 31
0.0
1001
PHOENIX7010
1002
{
1070
    41
1040
1.0
1002
}
  0
LINE
  5
131E
  8
0
  6
CONTINUOUS
 62
     7
 10
84.242082742090119
 20
124.2848048772903
 30
0.0
 11
84.242082742090119
 21
122.8848109808059
 31
0.0
1001
PHOENIX7010
1002
{
1070
    41
1040
1.0
1002
}
  0
ARC
  5
131F
  8
0
  6
CONTINUOUS
 62
     7
 10
92.742098000879196
 20
117.2347331609817
 30
0.0
 40
0.2000049948692322
 50
13.60136795043406
 51
90.001071929931115
1001
PHOENIX7010
1002
{
1070
    41
1040
1.0
1002
}
  0
ARC
  5
1320
  8
0
  6
CONTINUOUS
 62
     7
 10
93.130891946191696
 20
117.3287883367629
 30
0.0
 40
0.2000000029802322
 50
193.5999908447275
 51
224.9996948242123
1001
PHOENIX7010
1002
{
1070
    41
1040
1.0
1002
}
  0
ARC
  5
1321
  8
0
  6
CONTINUOUS
 62
     7
 10
93.142061379785446
 20
123.7175822820754
 30
0.0
 40
0.2000010013580322
 50
180.0003662109346
 51
225.00036621094091
1001
PHOENIX7010
1002
{
1070
    41
1040
1.0
1002
}
  0
LINE
  5
1322
  8
0
  6
CONTINUOUS
 62
     7
 10
93.042070535058883
 20
117.1348109808059
 30
0.0
 11
92.989427712793258
 21
117.18745380307151
 31
0.0
1001
PHOENIX7010
1002
{
1070
    41
1040
1.0
1002
}
  0
LINE
  5
1323
  8
0
  6
CONTINUOUS
 62
     7
 10
93.042070535058883
 20
123.5348048772903
 30
0.0
 11
93.000627663965119
 21
123.576232489595
 31
0.0
1001
PHOENIX7010
1002
{
1070
    41
1040
1.0
1002
}
  0
ARC
  5
1324
  8
0
  6
CONTINUOUS
 62
     7
 10
76.742082742090133
 20
238.13055377865749
 30
0.0
 40
0.800000011920929
 50
270.0
 51
0.000007629390401
1001
PHOENIX7010
1002
{
1070
    41
1040
1.0
1002
}
  0
ARC
  5
1325
  8
0
  6
CONTINUOUS
 62
     7
 10
69.542070535058883
 20
238.13055377865749
 30
0.0
 40
0.800000011920929
 50
0.0
 51
90.000007629390396
1001
PHOENIX7010
1002
{
1070
    41
1040
1.0
1002
}
  0
ARC
  5
1326
  8
0
  6
CONTINUOUS
 62
     7
 10
67.742082742090133
 20
238.73055988217311
 30
0.0
 40
0.2000000029802322
 50
90.000007629390396
 51
180.0
1001
PHOENIX7010
1002
{
1070
    41
1040
1.0
1002
}
  0
ARC
  5
1327
  8
0
  6
CONTINUOUS
 62
     7
 10
67.742082742090133
 20
238.3305507268997
 30
0.0
 40
0.2000000029802322
 50
180.0
 51
270.0
1001
PHOENIX7010
1002
{
1070
    41
1040
1.0
1002
}
  0
ARC
  5
1328
  8
0
  6
CONTINUOUS
 62
     7
 10
67.742082742090133
 20
236.4305568304153
 30
0.0
 40
0.2000000029802322
 50
90.000007629390396
 51
180.0
1001
PHOENIX7010
1002
{
1070
    41
1040
1.0
1002
}
  0
ARC
  5
1329
  8
0
  6
CONTINUOUS
 62
     7
 10
67.742082742090133
 20
236.0305629339309
 30
0.0
 40
0.2000000029802322
 50
180.0
 51
270.0
1001
PHOENIX7010
1002
{
1070
    41
1040
1.0
1002
}
  0
ARC
  5
132A
  8
0
  6
CONTINUOUS
 62
     7
 10
78.385637429590133
 20
244.0305629339309
 30
0.0
 40
0.1999959945678711
 50
29.999269485471491
 51
89.999254226687682
1001
PHOENIX7010
1002
{
1070
    41
1040
1.0
1002
}
  0
ARC
  5
132B
  8
0
  6
CONTINUOUS
 62
     7
 10
77.742082742090133
 20
244.0305629339309
 30
0.0
 40
0.2000000029802322
 50
90.000007629390396
 51
180.0
1001
PHOENIX7010
1002
{
1070
    41
1040
1.0
1002
}
  0
LINE
  5
132C
  8
0
  6
CONTINUOUS
 62
     7
 10
70.342058328027633
 20
237.3305812444778
 30
0.0
 11
70.792070535058883
 21
237.3305812444778
 31
0.0
1001
PHOENIX7010
1002
{
1070
    41
1040
1.0
1002
}
  0
LINE
  5
132D
  8
0
  6
CONTINUOUS
 62
     7
 10
70.342058328027633
 20
238.13056903744649
 30
0.0
 11
70.342058328027633
 21
237.33056598568879
 31
0.0
1001
PHOENIX7010
1002
{
1070
    41
1040
1.0
1002
}
  0
LINE
  5
132E
  8
0
  6
CONTINUOUS
 62
     7
 10
67.742082742090133
 20
238.9305873479934
 30
0.0
 11
69.542070535058883
 21
238.9305873479934
 31
0.0
1001
PHOENIX7010
1002
{
1070
    41
1040
1.0
1002
}
  0
LINE
  5
132F
  8
0
  6
CONTINUOUS
 62
     7
 10
67.542070535058883
 20
238.3305812444778
 30
0.0
 11
67.542070535058883
 21
238.7305751409622
 31
0.0
1001
PHOENIX7010
1002
{
1070
    41
1040
1.0
1002
}
  0
LINE
  5
1330
  8
0
  6
CONTINUOUS
 62
     7
 10
69.542070535058883
 20
238.13056903744649
 30
0.0
 11
67.742082742090133
 21
238.13056903744649
 31
0.0
1001
PHOENIX7010
1002
{
1070
    41
1040
1.0
1002
}
  0
LINE
  5
1331
  8
0
  6
CONTINUOUS
 62
     7
 10
69.542070535058883
 20
236.63056903744661
 30
0.0
 11
69.542070535058883
 21
238.13056903744649
 31
0.0
1001
PHOENIX7010
1002
{
1070
    41
1040
1.0
1002
}
  0
LINE
  5
1332
  8
0
  6
CONTINUOUS
 62
     7
 10
67.742082742090133
 20
236.63056903744661
 30
0.0
 11
69.542070535058883
 21
236.63056903744661
 31
0.0
1001
PHOENIX7010
1002
{
1070
    41
1040
1.0
1002
}
  0
LINE
  5
1333
  8
0
  6
CONTINUOUS
 62
     7
 10
67.542070535058883
 20
236.03057819271999
 30
0.0
 11
67.542070535058883
 21
236.4305873479934
 31
0.0
1001
PHOENIX7010
1002
{
1070
    41
1040
1.0
1002
}
  0
LINE
  5
1334
  8
0
  6
CONTINUOUS
 62
     7
 10
74.792070535058883
 20
237.3305812444778
 30
0.0
 11
76.742082742090133
 21
237.3305812444778
 31
0.0
1001
PHOENIX7010
1002
{
1070
    41
1040
1.0
1002
}
  0
LINE
  5
1335
  8
0
  6
CONTINUOUS
 62
     7
 10
78.558824685449508
 20
244.13056903744649
 30
0.0
 11
79.367113259668244
 21
242.73078876400911
 31
0.0
1001
PHOENIX7010
1002
{
1070
    41
1040
1.0
1002
}
  0
LINE
  5
1336
  8
0
  6
CONTINUOUS
 62
     7
 10
77.742082742090133
 20
244.2305751409622
 30
0.0
 11
78.385637429590133
 21
244.2305751409622
 31
0.0
1001
PHOENIX7010
1002
{
1070
    41
1040
1.0
1002
}
  0
LINE
  5
1337
  8
0
  6
CONTINUOUS
 62
     7
 10
77.542070535058883
 20
238.13056903744649
 30
0.0
 11
77.542070535058883
 21
244.0305629339309
 31
0.0
1001
PHOENIX7010
1002
{
1070
    41
1040
1.0
1002
}
  0
LINE
  5
1338
  8
0
  6
CONTINUOUS
 62
     7
 10
70.792070535058883
 20
235.8305812444778
 30
0.0
 11
67.742082742090133
 21
235.8305812444778
 31
0.0
1001
PHOENIX7010
1002
{
1070
    41
1040
1.0
1002
}
  0
LINE
  5
1339
  8
0
  6
CONTINUOUS
 62
     7
 10
74.792070535058883
 20
237.3305812444778
 30
0.0
 11
70.792070535058883
 21
237.3305812444778
 31
0.0
1001
PHOENIX7010
1002
{
1070
    41
1040
1.0
1002
}
  0
LINE
  5
133A
  8
0
  6
CONTINUOUS
 62
     7
 10
78.742082742090133
 20
235.8305812444778
 30
0.0
 11
74.792070535058883
 21
235.8305812444778
 31
0.0
1001
PHOENIX7010
1002
{
1070
    41
1040
1.0
1002
}
  0
LINE
  5
133B
  8
0
  6
CONTINUOUS
 62
     7
 10
70.792070535058883
 20
235.8305812444778
 30
0.0
 11
74.792070535058883
 21
235.8305812444778
 31
0.0
1001
PHOENIX7010
1002
{
1070
    41
1040
1.0
1002
}
  0
LINE
  5
133C
  8
0
  6
CONTINUOUS
 62
     7
 10
82.642076638574508
 20
235.2305751409622
 30
0.0
 11
78.742082742090133
 21
235.2305751409622
 31
0.0
1001
PHOENIX7010
1002
{
1070
    41
1040
1.0
1002
}
  0
LINE
  5
133D
  8
0
  6
CONTINUOUS
 62
     7
 10
78.742082742090133
 20
235.2305751409622
 30
0.0
 11
78.742082742090133
 21
235.8305812444778
 31
0.0
1001
PHOENIX7010
1002
{
1070
    41
1040
1.0
1002
}
  0
ARC
  5
133E
  8
0
  6
CONTINUOUS
 62
     7
 10
80.867143777246369
 20
238.0305629339309
 30
0.0
 40
0.5000050067901612
 50
270.0
 51
322.70306396484409
1001
PHOENIX7010
1002
{
1070
    41
1040
1.0
1002
}
  0
ARC
  5
133F
  8
0
  6
CONTINUOUS
 62
     7
 10
79.717119363183883
 20
238.0305629339309
 30
0.0
 40
0.5000020265579224
 50
217.30351257324151
 51
270.0
1001
PHOENIX7010
1002
{
1070
    41
1040
1.0
1002
}
  0
ARC
  5
1340
  8
0
  6
CONTINUOUS
 62
     7
 10
82.025407937402633
 20
243.73054462338399
 30
0.0
 40
0.2000039964914322
 50
89.999282836911448
 51
149.99929809569829
1001
PHOENIX7010
1002
{
1070
    41
1040
1.0
1002
}
  0
ARC
  5
1341
  8
0
  6
CONTINUOUS
 62
     7
 10
80.292131570215133
 20
240.0305629339309
 30
0.0
 40
1.25
 50
317.7314453125025
 51
42.268524169917981
1001
PHOENIX7010
1002
{
1070
    41
1040
1.0
1002
}
  0
ARC
  5
1342
  8
0
  6
CONTINUOUS
 62
     7
 10
80.292131570215133
 20
240.0305629339309
 30
0.0
 40
1.25
 50
137.73135375976611
 51
222.268630981445
1001
PHOENIX7010
1002
{
1070
    41
1040
1.0
1002
}
  0
LINE
  5
1343
  8
0
  6
CONTINUOUS
 62
     7
 10
81.217119363183883
 20
242.3531337347122
 30
0.0
 11
81.217119363183883
 21
242.7306056585403
 31
0.0
1001
PHOENIX7010
1002
{
1070
    41
1040
1.0
1002
}
  0
LINE
  5
1344
  8
0
  6
CONTINUOUS
 62
     7
 10
81.217119363183883
 20
241.3360744085403
 30
0.0
 11
81.217119363183883
 21
240.8713527288528
 31
0.0
1001
PHOENIX7010
1002
{
1070
    41
1040
1.0
1002
}
  0
LINE
  5
1345
  8
0
  6
CONTINUOUS
 62
     7
 10
81.217119363183883
 20
242.3531337347122
 30
0.0
 11
81.217119363183883
 21
241.33605914975121
 31
0.0
1001
PHOENIX7010
1002
{
1070
    41
1040
1.0
1002
}
  0
LINE
  5
1346
  8
0
  6
CONTINUOUS
 62
     7
 10
81.217119363183883
 20
238.7250819768997
 30
0.0
 11
81.217119363183883
 21
238.38764911557149
 31
0.0
1001
PHOENIX7010
1002
{
1070
    41
1040
1.0
1002
}
  0
LINE
  5
1347
  8
0
  6
CONTINUOUS
 62
     7
 10
81.217119363183883
 20
239.18981891537621
 30
0.0
 11
81.217119363183883
 21
238.7250819768997
 31
0.0
1001
PHOENIX7010
1002
{
1070
    41
1040
1.0
1002
}
  0
LINE
  5
1348
  8
0
  6
CONTINUOUS
 62
     7
 10
79.717119363183883
 20
237.53057819271999
 30
0.0
 11
80.867113259668258
 21
237.53057819271999
 31
0.0
1001
PHOENIX7010
1002
{
1070
    41
1040
1.0
1002
}
  0
LINE
  5
1349
  8
0
  6
CONTINUOUS
 62
     7
 10
79.367113259668244
 20
238.38764911557149
 30
0.0
 11
79.367113259668244
 21
238.7250209417434
 31
0.0
1001
PHOENIX7010
1002
{
1070
    41
1040
1.0
1002
}
  0
LINE
  5
134A
  8
0
  6
CONTINUOUS
 62
     7
 10
79.367113259668244
 20
238.7250209417434
 30
0.0
 11
79.367113259668244
 21
239.1898036565872
 31
0.0
1001
PHOENIX7010
1002
{
1070
    41
1040
1.0
1002
}
  0
LINE
  5
134B
  8
0
  6
CONTINUOUS
 62
     7
 10
79.367113259668244
 20
241.33613544369661
 30
0.0
 11
79.367113259668244
 21
242.35317951107939
 31
0.0
1001
PHOENIX7010
1002
{
1070
    41
1040
1.0
1002
}
  0
LINE
  5
134C
  8
0
  6
CONTINUOUS
 62
     7
 10
79.367113259668244
 20
240.87133747006371
 30
0.0
 11
79.367113259668244
 21
241.33613544369661
 31
0.0
1001
PHOENIX7010
1002
{
1070
    41
1040
1.0
1002
}
  0
LINE
  5
134D
  8
0
  6
CONTINUOUS
 62
     7
 10
79.367113259668244
 20
242.73078876400911
 30
0.0
 11
79.367113259668244
 21
242.3531642522903
 31
0.0
1001
PHOENIX7010
1002
{
1070
    41
1040
1.0
1002
}
  0
LINE
  5
134E
  8
0
  6
CONTINUOUS
 62
     7
 10
81.217119363183883
 20
242.7306056585403
 30
0.0
 11
81.852190163965133
 21
243.83056598568871
 31
0.0
1001
PHOENIX7010
1002
{
1070
    41
1040
1.0
1002
}
  0
ARC
  5
134F
  8
0
  6
CONTINUOUS
 62
     7
 10
82.842058328027633
 20
236.63055377865749
 30
0.0
 40
0.2000000029802322
 50
90.000007629390396
 51
180.0
1001
PHOENIX7010
1002
{
1070
    41
1040
1.0
1002
}
  0
LINE
  5
1350
  8
0
  6
CONTINUOUS
 62
     7
 10
82.642076638574508
 20
236.63056903744661
 30
0.0
 11
82.642076638574508
 21
235.2305751409622
 31
0.0
1001
PHOENIX7010
1002
{
1070
    41
1040
1.0
1002
}
  0
LINE
  5
1351
  8
0
  6
CONTINUOUS
 62
     7
 10
93.042070535058883
 20
243.9335170354934
 30
0.0
 11
93.042070535058883
 21
242.3805995550247
 31
0.0
1001
PHOENIX7010
1002
{
1070
    41
1040
1.0
1002
}
  0
ARC
  5
1352
  8
0
  6
CONTINUOUS
 62
     7
 10
93.142076638574494
 20
237.9633937444778
 30
0.0
 40
0.2000010013580322
 50
180.0003662109346
 51
225.00036621094091
1001
PHOENIX7010
1002
{
1070
    41
1040
1.0
1002
}
  0
ARC
  5
1353
  8
0
  6
CONTINUOUS
 62
     7
 10
92.024919656152633
 20
238.0305629339309
 30
0.0
 40
0.2000110000371933
 50
225.0011291503867
 51
270.00115966796642
1001
PHOENIX7010
1002
{
1070
    41
1040
1.0
1002
}
  0
ARC
  5
1354
  8
0
  6
CONTINUOUS
 62
     7
 10
91.159593728418258
 20
238.3302150335403
 30
0.0
 40
0.1999990046024322
 50
44.999660491949378
 51
90.000007629390396
1001
PHOENIX7010
1002
{
1070
    41
1040
1.0
1002
}
  0
ARC
  5
1355
  8
0
  6
CONTINUOUS
 62
     7
 10
84.842058328027619
 20
239.3305507268997
 30
0.0
 40
0.800000011920929
 50
180.0
 51
270.0
1001
PHOENIX7010
1002
{
1070
    41
1040
1.0
1002
}
  0
ARC
  5
1356
  8
0
  6
CONTINUOUS
 62
     7
 10
84.842058328027619
 20
241.2805629339309
 30
0.0
 40
0.800000011920929
 50
90.000007629390396
 51
180.0
1001
PHOENIX7010
1002
{
1070
    41
1040
1.0
1002
}
  0
ARC
  5
1357
  8
0
  6
CONTINUOUS
 62
     7
 10
85.492082742090119
 20
235.9305568304153
 30
0.0
 40
0.2000000029802322
 50
90.000007629390396
 51
180.0
1001
PHOENIX7010
1002
{
1070
    41
1040
1.0
1002
}
  0
ARC
  5
1358
  8
0
  6
CONTINUOUS
 62
     7
 10
86.092058328027619
 20
235.9305568304153
 30
0.0
 40
0.2000010013580322
 50
14.477623939519111
 51
90.000008583072358
1001
PHOENIX7010
1002
{
1070
    41
1040
1.0
1002
}
  0
ARC
  5
1359
  8
0
  6
CONTINUOUS
 62
     7
 10
86.479387429590133
 20
236.0305629339309
 30
0.0
 40
0.2000010013580322
 50
194.4776306152261
 51
270.0
1001
PHOENIX7010
1002
{
1070
    41
1040
1.0
1002
}
  0
ARC
  5
135A
  8
0
  6
CONTINUOUS
 62
     7
 10
89.304765847558883
 20
236.0305629339309
 30
0.0
 40
0.2000010013580322
 50
270.0
 51
345.52236938477381
1001
PHOENIX7010
1002
{
1070
    41
1040
1.0
1002
}
  0
ARC
  5
135B
  8
0
  6
CONTINUOUS
 62
     7
 10
89.692064431543244
 20
235.9305568304153
 30
0.0
 40
0.2000010013580322
 50
90.000007629390396
 51
165.52236938477381
1001
PHOENIX7010
1002
{
1070
    41
1040
1.0
1002
}
  0
ARC
  5
135C
  8
0
  6
CONTINUOUS
 62
     7
 10
90.292070535058883
 20
235.9305568304153
 30
0.0
 40
0.2000000029802322
 50
0.0
 51
90.000007629390396
1001
PHOENIX7010
1002
{
1070
    41
1040
1.0
1002
}
  0
ARC
  5
135D
  8
0
  6
CONTINUOUS
 62
     7
 10
91.742082742090119
 20
235.4305568304153
 30
0.0
 40
0.2000000029802322
 50
270.0
 51
0.000007629390401
1001
PHOENIX7010
1002
{
1070
    41
1040
1.0
1002
}
  0
ARC
  5
135E
  8
0
  6
CONTINUOUS
 62
     7
 10
92.142076638574494
 20
235.7305751409622
 30
0.0
 40
0.2000000029802322
 50
90.000007629390396
 51
180.0
1001
PHOENIX7010
1002
{
1070
    41
1040
1.0
1002
}
  0
ARC
  5
135F
  8
0
  6
CONTINUOUS
 62
     7
 10
92.242082742090133
 20
235.7305751409622
 30
0.0
 40
0.2000000029802322
 50
0.0
 51
90.000007629390396
1001
PHOENIX7010
1002
{
1070
    41
1040
1.0
1002
}
  0
ARC
  5
1360
  8
0
  6
CONTINUOUS
 62
     7
 10
92.642076638574508
 20
235.63056903744649
 30
0.0
 40
0.2000000029802322
 50
180.0
 51
270.0
1001
PHOENIX7010
1002
{
1070
    41
1040
1.0
1002
}
  0
ARC
  5
1361
  8
0
  6
CONTINUOUS
 62
     7
 10
92.742082742090133
 20
235.63056903744649
 30
0.0
 40
0.2000000029802322
 50
270.0
 51
0.000007629390401
1001
PHOENIX7010
1002
{
1070
    41
1040
1.0
1002
}
  0
ARC
  5
1362
  8
0
  6
CONTINUOUS
 62
     7
 10
92.742082742090133
 20
238.1305995550247
 30
0.0
 40
0.2000000029802322
 50
0.0
 51
90.000007629390396
1001
PHOENIX7010
1002
{
1070
    41
1040
1.0
1002
}
  0
ARC
  5
1363
  8
0
  6
CONTINUOUS
 62
     7
 10
92.642107156152633
 20
238.13058429623561
 30
0.0
 40
0.2000270038843155
 50
89.999130249025271
 51
179.99914550780611
1001
PHOENIX7010
1002
{
1070
    41
1040
1.0
1002
}
  0
ARC
  5
1364
  8
0
  6
CONTINUOUS
 62
     7
 10
92.242082742090133
 20
238.0305629339309
 30
0.0
 40
0.1999939978122711
 50
270.00115966796642
 51
0.0011215209882919
1001
PHOENIX7010
1002
{
1070
    41
1040
1.0
1002
}
  0
LINE
  5
1365
  8
0
  6
CONTINUOUS
 62
     7
 10
92.942094949121383
 20
235.7977443304153
 30
0.0
 11
92.942094949121383
 21
235.63058429623561
 31
0.0
1001
PHOENIX7010
1002
{
1070
    41
1040
1.0
1002
}
  0
LINE
  5
1366
  8
0
  6
CONTINUOUS
 62
     7
 10
93.042070535058883
 20
237.78057819271999
 30
0.0
 11
93.042070535058883
 21
235.9805751409622
 31
0.0
1001
PHOENIX7010
1002
{
1070
    41
1040
1.0
1002
}
  0
LINE
  5
1367
  8
0
  6
CONTINUOUS
 62
     7
 10
93.000658181543258
 20
237.8220058050247
 30
0.0
 11
93.042070535058883
 21
237.78059345150911
 31
0.0
1001
PHOENIX7010
1002
{
1070
    41
1040
1.0
1002
}
  0
LINE
  5
1368
  8
0
  6
CONTINUOUS
 62
     7
 10
92.942094949121383
 20
238.1306300726028
 30
0.0
 11
92.942094949121383
 21
237.9634242620559
 31
0.0
1001
PHOENIX7010
1002
{
1070
    41
1040
1.0
1002
}
  0
LINE
  5
1369
  8
0
  6
CONTINUOUS
 62
     7
 10
82.025407937402633
 20
243.9305720892043
 30
0.0
 11
83.492113259668244
 21
243.9305720892043
 31
0.0
1001
PHOENIX7010
1002
{
1070
    41
1040
1.0
1002
}
  0
LINE
  5
136A
  8
0
  6
CONTINUOUS
 62
     7
 10
91.301012185449494
 20
238.47164874936061
 30
0.0
 11
91.883501199121383
 21
237.8891444768997
 31
0.0
1001
PHOENIX7010
1002
{
1070
    41
1040
1.0
1002
}
  0
LINE
  5
136B
  8
0
  6
CONTINUOUS
 62
     7
 10
83.492113259668244
 20
243.9305720892043
 30
0.0
 11
83.492113259668244
 21
244.2305751409622
 31
0.0
1001
PHOENIX7010
1002
{
1070
    41
1040
1.0
1002
}
  0
LINE
  5
136C
  8
0
  6
CONTINUOUS
 62
     7
 10
84.842058328027619
 20
238.53057819271999
 30
0.0
 11
85.642046120996383
 21
238.53057819271999
 31
0.0
1001
PHOENIX7010
1002
{
1070
    41
1040
1.0
1002
}
  0
LINE
  5
136D
  8
0
  6
CONTINUOUS
 62
     7
 10
84.042070535058883
 20
241.28059345150911
 30
0.0
 11
84.042070535058883
 21
239.3305812444778
 31
0.0
1001
PHOENIX7010
1002
{
1070
    41
1040
1.0
1002
}
  0
LINE
  5
136E
  8
0
  6
CONTINUOUS
 62
     7
 10
85.642076638574494
 20
242.0805812444778
 30
0.0
 11
84.842058328027619
 21
242.0805812444778
 31
0.0
1001
PHOENIX7010
1002
{
1070
    41
1040
1.0
1002
}
  0
LINE
  5
136F
  8
0
  6
CONTINUOUS
 62
     7
 10
85.642076638574494
 20
242.93057208920439
 30
0.0
 11
85.642076638574494
 21
242.0805812444778
 31
0.0
1001
PHOENIX7010
1002
{
1070
    41
1040
1.0
1002
}
  0
LINE
  5
1370
  8
0
  6
CONTINUOUS
 62
     7
 10
87.842058328027633
 20
242.93057208920439
 30
0.0
 11
85.642046120996383
 21
242.93057208920439
 31
0.0
1001
PHOENIX7010
1002
{
1070
    41
1040
1.0
1002
}
  0
LINE
  5
1371
  8
0
  6
CONTINUOUS
 62
     7
 10
87.842058328027633
 20
242.0805812444778
 30
0.0
 11
87.842058328027633
 21
242.93057208920439
 31
0.0
1001
PHOENIX7010
1002
{
1070
    41
1040
1.0
1002
}
  0
LINE
  5
1372
  8
0
  6
CONTINUOUS
 62
     7
 10
89.842088845605758
 20
242.0805812444778
 30
0.0
 11
87.842058328027633
 21
242.0805812444778
 31
0.0
1001
PHOENIX7010
1002
{
1070
    41
1040
1.0
1002
}
  0
LINE
  5
1373
  8
0
  6
CONTINUOUS
 62
     7
 10
89.842088845605758
 20
242.93057208920439
 30
0.0
 11
89.842088845605758
 21
242.0805812444778
 31
0.0
1001
PHOENIX7010
1002
{
1070
    41
1040
1.0
1002
}
  0
LINE
  5
1374
  8
0
  6
CONTINUOUS
 62
     7
 10
91.042070535058883
 20
242.93057208920439
 30
0.0
 11
89.842058328027619
 21
242.93057208920439
 31
0.0
1001
PHOENIX7010
1002
{
1070
    41
1040
1.0
1002
}
  0
LINE
  5
1375
  8
0
  6
CONTINUOUS
 62
     7
 10
91.042070535058883
 20
242.0805812444778
 30
0.0
 11
91.042070535058883
 21
242.93057208920439
 31
0.0
1001
PHOENIX7010
1002
{
1070
    41
1040
1.0
1002
}
  0
LINE
  5
1376
  8
0
  6
CONTINUOUS
 62
     7
 10
92.742082742090133
 20
242.0805812444778
 30
0.0
 11
91.042070535058883
 21
242.0805812444778
 31
0.0
1001
PHOENIX7010
1002
{
1070
    41
1040
1.0
1002
}
  0
LINE
  5
1377
  8
0
  6
CONTINUOUS
 62
     7
 10
85.292070535058883
 20
235.2305751409622
 30
0.0
 11
84.242082742090119
 21
235.2305751409622
 31
0.0
1001
PHOENIX7010
1002
{
1070
    41
1040
1.0
1002
}
  0
LINE
  5
1378
  8
0
  6
CONTINUOUS
 62
     7
 10
85.292070535058883
 20
235.9305873479934
 30
0.0
 11
85.292070535058883
 21
235.23059039975121
 31
0.0
1001
PHOENIX7010
1002
{
1070
    41
1040
1.0
1002
}
  0
LINE
  5
1379
  8
0
  6
CONTINUOUS
 62
     7
 10
86.092058328027619
 20
236.13056903744649
 30
0.0
 11
85.492082742090119
 21
236.13056903744649
 31
0.0
1001
PHOENIX7010
1002
{
1070
    41
1040
1.0
1002
}
  0
LINE
  5
137A
  8
0
  6
CONTINUOUS
 62
     7
 10
89.304765847558883
 20
235.8305812444778
 30
0.0
 11
86.479387429590133
 21
235.8305812444778
 31
0.0
1001
PHOENIX7010
1002
{
1070
    41
1040
1.0
1002
}
  0
LINE
  5
137B
  8
0
  6
CONTINUOUS
 62
     7
 10
90.292070535058883
 20
236.13056903744649
 30
0.0
 11
89.692033913965133
 21
236.13056903744649
 31
0.0
1001
PHOENIX7010
1002
{
1070
    41
1040
1.0
1002
}
  0
LINE
  5
137C
  8
0
  6
CONTINUOUS
 62
     7
 10
90.492082742090119
 20
235.2305751409622
 30
0.0
 11
90.492082742090119
 21
235.93057208920439
 31
0.0
1001
PHOENIX7010
1002
{
1070
    41
1040
1.0
1002
}
  0
LINE
  5
137D
  8
0
  6
CONTINUOUS
 62
     7
 10
91.742082742090119
 20
235.2305751409622
 30
0.0
 11
90.492082742090119
 21
235.2305751409622
 31
0.0
1001
PHOENIX7010
1002
{
1070
    41
1040
1.0
1002
}
  0
LINE
  5
137E
  8
0
  6
CONTINUOUS
 62
     7
 10
91.942094949121383
 20
235.7305751409622
 30
0.0
 11
91.942094949121383
 21
235.4305720892043
 31
0.0
1001
PHOENIX7010
1002
{
1070
    41
1040
1.0
1002
}
  0
LINE
  5
137F
  8
0
  6
CONTINUOUS
 62
     7
 10
92.242082742090133
 20
235.9305873479934
 30
0.0
 11
92.142076638574494
 21
235.9305873479934
 31
0.0
1001
PHOENIX7010
1002
{
1070
    41
1040
1.0
1002
}
  0
LINE
  5
1380
  8
0
  6
CONTINUOUS
 62
     7
 10
92.442094949121383
 20
235.63056903744649
 30
0.0
 11
92.442094949121383
 21
235.7305751409622
 31
0.0
1001
PHOENIX7010
1002
{
1070
    41
1040
1.0
1002
}
  0
LINE
  5
1381
  8
0
  6
CONTINUOUS
 62
     7
 10
92.742082742090133
 20
235.4305873479934
 30
0.0
 11
92.642076638574508
 21
235.4305873479934
 31
0.0
1001
PHOENIX7010
1002
{
1070
    41
1040
1.0
1002
}
  0
LINE
  5
1382
  8
0
  6
CONTINUOUS
 62
     7
 10
92.642107156152633
 20
238.33062702084499
 30
0.0
 11
92.742082742090133
 21
238.33062702084499
 31
0.0
1001
PHOENIX7010
1002
{
1070
    41
1040
1.0
1002
}
  0
LINE
  5
1383
  8
0
  6
CONTINUOUS
 62
     7
 10
92.442094949121383
 20
238.0305629339309
 30
0.0
 11
92.442094949121383
 21
238.1305995550247
 31
0.0
1001
PHOENIX7010
1002
{
1070
    41
1040
1.0
1002
}
  0
LINE
  5
1384
  8
0
  6
CONTINUOUS
 62
     7
 10
92.024919656152633
 20
237.8305812444778
 30
0.0
 11
92.242082742090133
 21
237.8305812444778
 31
0.0
1001
PHOENIX7010
1002
{
1070
    41
1040
1.0
1002
}
  0
LINE
  5
1385
  8
0
  6
CONTINUOUS
 62
     7
 10
91.042070535058883
 20
238.53022724057161
 30
0.0
 11
91.159563210840133
 21
238.53022724057161
 31
0.0
1001
PHOENIX7010
1002
{
1070
    41
1040
1.0
1002
}
  0
LINE
  5
1386
  8
0
  6
CONTINUOUS
 62
     7
 10
91.042070535058883
 20
237.6805873479934
 30
0.0
 11
91.042070535058883
 21
238.53024249936061
 31
0.0
1001
PHOENIX7010
1002
{
1070
    41
1040
1.0
1002
}
  0
LINE
  5
1387
  8
0
  6
CONTINUOUS
 62
     7
 10
89.842088845605758
 20
237.6805873479934
 30
0.0
 11
91.042070535058883
 21
237.6805873479934
 31
0.0
1001
PHOENIX7010
1002
{
1070
    41
1040
1.0
1002
}
  0
LINE
  5
1388
  8
0
  6
CONTINUOUS
 62
     7
 10
89.842088845605758
 20
238.53057819271999
 30
0.0
 11
89.842088845605758
 21
237.6805873479934
 31
0.0
1001
PHOENIX7010
1002
{
1070
    41
1040
1.0
1002
}
  0
LINE
  5
1389
  8
0
  6
CONTINUOUS
 62
     7
 10
87.842058328027633
 20
238.53057819271999
 30
0.0
 11
89.842058328027619
 21
238.53057819271999
 31
0.0
1001
PHOENIX7010
1002
{
1070
    41
1040
1.0
1002
}
  0
LINE
  5
138A
  8
0
  6
CONTINUOUS
 62
     7
 10
87.842058328027633
 20
237.6805873479934
 30
0.0
 11
87.842058328027633
 21
238.53059345150899
 31
0.0
1001
PHOENIX7010
1002
{
1070
    41
1040
1.0
1002
}
  0
LINE
  5
138B
  8
0
  6
CONTINUOUS
 62
     7
 10
85.642076638574494
 20
237.6805873479934
 30
0.0
 11
87.842058328027633
 21
237.6805873479934
 31
0.0
1001
PHOENIX7010
1002
{
1070
    41
1040
1.0
1002
}
  0
LINE
  5
138C
  8
0
  6
CONTINUOUS
 62
     7
 10
85.642076638574494
 20
238.53057819271999
 30
0.0
 11
85.642076638574494
 21
237.6805873479934
 31
0.0
1001
PHOENIX7010
1002
{
1070
    41
1040
1.0
1002
}
  0
ARC
  5
138D
  8
0
  6
CONTINUOUS
 62
     7
 10
93.129900124902633
 20
244.12850910092311
 30
0.0
 40
0.2000000029802322
 50
194.1739044189458
 51
225.00003051758179
1001
PHOENIX7010
1002
{
1070
    41
1040
1.0
1002
}
  0
ARC
  5
138E
  8
0
  6
CONTINUOUS
 62
     7
 10
92.742082742090133
 20
244.0305629339309
 30
0.0
 40
0.1999990046024322
 50
14.17366886139251
 51
90.000008583072358
1001
PHOENIX7010
1002
{
1070
    41
1040
1.0
1002
}
  0
LINE
  5
138F
  8
0
  6
CONTINUOUS
 62
     7
 10
92.988481667871383
 20
243.9871059026809
 30
0.0
 11
93.042070535058883
 21
243.9335170354934
 31
0.0
1001
PHOENIX7010
1002
{
1070
    41
1040
1.0
1002
}
  0
LINE
  5
1390
  8
0
  6
CONTINUOUS
 62
     7
 10
83.492113259668244
 20
244.2305751409622
 30
0.0
 11
92.742082742090133
 21
244.2305751409622
 31
0.0
1001
PHOENIX7010
1002
{
1070
    41
1040
1.0
1002
}
  0
ARC
  5
1391
  8
0
  6
CONTINUOUS
 62
     7
 10
84.042070535058883
 20
236.63055377865749
 30
0.0
 40
0.2000000029802322
 50
0.0
 51
90.000007629390396
1001
PHOENIX7010
1002
{
1070
    41
1040
1.0
1002
}
  0
LINE
  5
1392
  8
0
  6
CONTINUOUS
 62
     7
 10
84.042070535058883
 20
236.8305812444778
 30
0.0
 11
82.842058328027633
 21
236.8305812444778
 31
0.0
1001
PHOENIX7010
1002
{
1070
    41
1040
1.0
1002
}
  0
LINE
  5
1393
  8
0
  6
CONTINUOUS
 62
     7
 10
84.242082742090119
 20
235.2305751409622
 30
0.0
 11
84.242082742090119
 21
236.63056903744661
 31
0.0
1001
PHOENIX7010
1002
{
1070
    41
1040
1.0
1002
}
  0
ARC
  5
1394
  8
0
  6
CONTINUOUS
 62
     7
 10
92.742082742090133
 20
242.2805629339309
 30
0.0
 40
0.2000049948692322
 50
269.99893188477051
 51
346.39862060546182
1001
PHOENIX7010
1002
{
1070
    41
1040
1.0
1002
}
  0
ARC
  5
1395
  8
0
  6
CONTINUOUS
 62
     7
 10
93.130876687402633
 20
242.1865077581497
 30
0.0
 40
0.2000000029802322
 50
135.0003051757877
 51
166.4000091552725
1001
PHOENIX7010
1002
{
1070
    41
1040
1.0
1002
}
  0
ARC
  5
1396
  8
0
  6
CONTINUOUS
 62
     7
 10
93.142076638574494
 20
235.7977138128372
 30
0.0
 40
0.2000010013580322
 50
134.99963378905909
 51
179.99963378906531
1001
PHOENIX7010
1002
{
1070
    41
1040
1.0
1002
}
  0
LINE
  5
1397
  8
0
  6
CONTINUOUS
 62
     7
 10
93.042070535058883
 20
242.38056903744649
 30
0.0
 11
92.989427712793258
 21
242.3279262151809
 31
0.0
1001
PHOENIX7010
1002
{
1070
    41
1040
1.0
1002
}
  0
LINE
  5
1398
  8
0
  6
CONTINUOUS
 62
     7
 10
93.042070535058883
 20
235.9805751409622
 30
0.0
 11
93.000627663965119
 21
235.93914752865749
 31
0.0
1001
PHOENIX7010
1002
{
1070
    41
1040
1.0
1002
}
  0
INSERT
  5
13FA
  8
0
  6
CONTINUOUS
 62
     7
  2
PH_GRPBLK
 10
20.0
 20
4.9999999999998863
 30
0.0
1001
PHOENIX7010
1002
{
1070
    41
1040
1.0
1002
}
  0
LINE
  5
13FB
  8
0
  6
CONTINUOUS
 62
     1
 10
1.0
 20
295.99999999999989
 30
0.0
 11
1.0
 21
0.9999999999998863
 31
0.0
1001
PHOENIX7010
1002
{
1070
    62
1070
     1
1070
    41
1040
1.0
1002
}
  0
LINE
  5
13FC
  8
0
  6
CONTINUOUS
 62
     1
 10
209.0
 20
295.99999999999989
 30
0.0
 11
1.0
 21
295.99999999999989
 31
0.0
1001
PHOENIX7010
1002
{
1070
    62
1070
     1
1070
    41
1040
1.0
1002
}
  0
LINE
  5
13FD
  8
0
  6
CONTINUOUS
 62
     1
 10
209.0
 20
0.9999999999998863
 30
0.0
 11
209.0
 21
295.99999999999989
 31
0.0
1001
PHOENIX7010
1002
{
1070
    62
1070
     1
1070
    41
1040
1.0
1002
}
  0
LINE
  5
13FE
  8
0
  6
CONTINUOUS
 62
     1
 10
1.0
 20
0.9999999999998863
 30
0.0
 11
209.0
 21
0.9999999999998863
 31
0.0
1001
PHOENIX7010
1002
{
1070
    62
1070
     1
1070
    41
1040
1.0
1002
}
  0
LINE
  5
13FF
  8
0
  6
CONTINUOUS
 62
     3
 10
20.0
 20
291.99999999999989
 30
0.0
 11
20.0
 21
4.9999999999998863
 31
0.0
1001
PHOENIX7010
1002
{
1070
    62
1070
     3
1070
    41
1040
1.0
1002
}
  0
LINE
  5
1400
  8
0
  6
CONTINUOUS
 62
     3
 10
205.0
 20
291.99999999999989
 30
0.0
 11
20.0
 21
291.99999999999989
 31
0.0
1001
PHOENIX7010
1002
{
1070
    62
1070
     3
1070
    41
1040
1.0
1002
}
  0
LINE
  5
1401
  8
0
  6
CONTINUOUS
 62
     3
 10
205.0
 20
4.9999999999998863
 30
0.0
 11
205.0
 21
291.99999999999989
 31
0.0
1001
PHOENIX7010
1002
{
1070
    62
1070
     3
1070
    41
1040
1.0
1002
}
  0
LINE
  5
1402
  8
0
  6
CONTINUOUS
 62
     3
 10
20.0
 20
4.9999999999998863
 30
0.0
 11
205.0
 21
4.9999999999998863
 31
0.0
1001
PHOENIX7010
1002
{
1070
    62
1070
     3
1070
    41
1040
1.0
1002
}
  0
INSERT
  5
1403
  8
0
  6
CONTINUOUS
 62
     5
  2
*U11
 10
0.0
 20
0.0
 30
0.0
  0
INSERT
  5
1416
  8
0
  6
CONTINUOUS
 62
     1
  2
*X12
 10
0.0
 20
0.0
 30
0.0
1001
PHOENIX7010
1002
{
1070
    41
1040
1.0
1002
}
1001
ACAD
1000
HATCH
1002
{
1070
    19
1000
_U
1040
0.1
1040
0.7853981633974483
1070
     0
1000
ASC_BOUNDS
1070
     1
1070
     2
1070
     1
1005
145A
1000
ASC_SEEDPOINT
1011
-210.0
1021
0.0
1031
0.0
1021
-32.088852972070747
1031
0.0
1000
R14_HATCH_DATA
1000
1416
1011
1.0
1021
0.0
1031
0.0
1021
0.0
1031
0.0
1011
0.0
1021
0.0
1031
0.0
1021
1.0
1031
0.0
1011
0.0
1021
0.0
1031
0.0
1021
0.0
1031
1.0
1040
0.0
1010
0.0
1020
0.0
1030
1.0
1000
_U
1070
     0
1070
     1
1071
        1
1071
        0
1071
        5
1070
     1
1040
197.4334749940256
1040
35.164538113980257
1040
190.73347499402561
1040
27.364538113980188
1070
     1
1040
190.7334749940255
1040
27.364538113980188
1040
202.7334749940255
1040
27.364538113980188
1070
     1
1040
202.7334749940255
1040
27.364538113980188
1040
202.73347499402561
1040
35.1645381139802
1070
     1
1040
202.7334749940255
1040
35.164538113980143
1040
197.43347499402549
1040
28.264538113980251
1070
     1
1040
197.4334749940256
1040
28.264538113980279
1040
197.43347499402549
1040
35.164538113980257
1071
        1
1005
145A
1070
     0
1070
     0
1040
0.7853981633974483
1040
0.1
1070
     0
1070
     1
1040
0.7853981633974483
1040
-210.0
1040
-32.088852972070747
1040
-0.0707106781186548
1040
0.0707106781186548
1070
     0
1071
        1
1040
-210.0
1040
-32.088852972070747
1040
0.0
1002
}
  0
INSERT
  5
1417
  8
0
  6
CONTINUOUS
 62
     1
  2
*X13
 10
0.0
 20
0.0
 30
0.0
1001
PHOENIX7010
1002
{
1070
    41
1040
1.0
1002
}
1001
ACAD
1000
HATCH
1002
{
1070
    19
1000
_U
1040
0.65
1040
0.7853981633974483
1070
     0
1000
ASC_BOUNDS
1070
     1
1070
     2
1070
     1
1005
145B
1000
ASC_SEEDPOINT
1011
-210.0
1021
0.0
1031
0.0
1021
-32.088852972070747
1031
0.0
1000
R14_HATCH_DATA
1000
1417
1011
1.0
1021
0.0
1031
0.0
1021
0.0
1031
0.0
1011
0.0
1021
0.0
1031
0.0
1021
1.0
1031
0.0
1011
0.0
1021
0.0
1031
0.0
1021
0.0
1031
1.0
1040
0.0
1010
0.0
1020
0.0
1030
1.0
1000
_U
1070
     0
1070
     1
1071
        1
1071
        0
1071
        3
1070
     1
1040
189.88347499402551
1040
27.364538113980188
1040
189.88347499402551
1040
31.514538113980191
1070
     1
1040
189.88347499402551
1040
31.514538113980169
1040
194.0334749940254
1040
31.514538113980169
1070
     2
1040
189.88347499402551
1040
31.514538113980169
1040
4.1499999999999773
1040
0.0000000000000034
1040
4.7123889803846888
1070
     1
1071
        1
1005
145B
1070
     0
1070
     0
1040
0.7853981633974483
1040
0.65
1070
     0
1070
     1
1040
0.7853981633974483
1040
-210.0
1040
-32.088852972070747
1040
-0.4596194077712559
1040
0.459619407771256
1070
     0
1071
        1
1040
-210.0
1040
-32.088852972070747
1040
0.0
1002
}
  0
LINE
  5
1418
  8
0
  6
CONTINUOUS
 62
     7
 10
190.7334749940255
 20
27.364538113980188
 30
0.0
 11
202.7334749940255
 21
27.364538113980188
 31
0.0
1001
PHOENIX7010
1002
{
1070
    41
1040
1.0
1002
}
  0
LINE
  5
1419
  8
0
  6
CONTINUOUS
 62
     7
 10
202.7334749940255
 20
27.364538113980188
 30
0.0
 11
202.7334749940255
 21
35.164538113980143
 31
0.0
1001
PHOENIX7010
1002
{
1070
    41
1040
1.0
1002
}
  0
LINE
  5
141A
  8
0
  6
CONTINUOUS
 62
     7
 10
197.4334749940256
 20
28.264538113980169
 30
0.0
 11
197.4334749940256
 21
35.164538113980143
 31
0.0
1001
PHOENIX7010
1002
{
1070
    41
1040
1.0
1002
}
  0
LINE
  5
141B
  8
0
  6
CONTINUOUS
 62
     7
 10
197.4334749940256
 20
35.164538113980143
 30
0.0
 11
190.7334749940255
 21
27.364538113980188
 31
0.0
1001
PHOENIX7010
1002
{
1070
    41
1040
1.0
1002
}
  0
LINE
  5
141C
  8
0
  6
CONTINUOUS
 62
     7
 10
202.7334749940255
 20
35.164538113980143
 30
0.0
 11
197.4334749940256
 21
28.264538113980169
 31
0.0
1001
PHOENIX7010
1002
{
1070
    41
1040
1.0
1002
}
  0
INSERT
  5
141D
  8
0
  6
CONTINUOUS
 62
     1
  2
PH_GRPBLK
 10
190.7334749940255
 20
27.364538113980188
 30
0.0
1001
PHOENIX7010
1002
{
1070
    41
1040
1.0
1002
}
  0
INSERT
  5
141E
  8
0
  6
CONTINUOUS
 62
     5
  2
*U14
 10
0.0
 20
0.0
 30
0.0
  0
INSERT
  5
141F
  8
0
  6
CONTINUOUS
 62
     5
  2
*U15
 10
0.0
 20
0.0
 30
0.0
  0
INSERT
  5
1420
  8
0
  6
CONTINUOUS
 62
     7
  2
PH_GRPBLK
 10
190.7334749940255
 20
27.364538113980188
 30
0.0
1001
PHOENIX7010
1002
{
1070
    41
1040
1.0
1002
}
  0
INSERT
  5
1421
  8
0
  6
CONTINUOUS
 62
     5
  2
*U16
 10
0.0
 20
0.0
 30
0.0
  0
INSERT
  5
1422
  8
0
  6
CONTINUOUS
 62
     5
  2
*U17
 10
0.0
 20
0.0
 30
0.0
  0
INSERT
  5
1423
  8
0
  6
CONTINUOUS
 62
     5
  2
*U18
 10
0.0
 20
0.0
 30
0.0
  0
INSERT
  5
1424
  8
0
  6
CONTINUOUS
 62
     5
  2
*U19
 10
0.0
 20
0.0
 30
0.0
  0
INSERT
  5
1425
  8
0
  6
CONTINUOUS
 62
     5
  2
*U20
 10
0.0
 20
0.0
 30
0.0
  0
INSERT
  5
1426
  8
0
  6
CONTINUOUS
 62
     5
  2
*U21
 10
0.0
 20
0.0
 30
0.0
  0
INSERT
  5
1427
  8
0
  6
CONTINUOUS
 62
     5
  2
*U22
 10
0.0
 20
0.0
 30
0.0
  0
INSERT
  5
1428
  8
0
  6
CONTINUOUS
 62
     5
  2
*U23
 10
0.0
 20
0.0
 30
0.0
  0
INSERT
  5
1429
  8
0
  6
CONTINUOUS
 62
     5
  2
*U24
 10
0.0
 20
0.0
 30
0.0
  0
INSERT
  5
142A
  8
0
  6
CONTINUOUS
 62
     5
  2
*U25
 10
0.0
 20
0.0
 30
0.0
  0
INSERT
  5
142B
  8
0
  6
CONTINUOUS
 62
     5
  2
*U26
 10
0.0
 20
0.0
 30
0.0
  0
INSERT
  5
142C
  8
0
  6
CONTINUOUS
 62
     5
  2
*U27
 10
0.0
 20
0.0
 30
0.0
  0
INSERT
  5
142D
  8
0
  6
CONTINUOUS
 62
     5
  2
*U28
 10
0.0
 20
0.0
 30
0.0
  0
INSERT
  5
142E
  8
0
  6
CONTINUOUS
 62
     5
  2
*U29
 10
0.0
 20
0.0
 30
0.0
  0
LINE
  5
142F
  8
0
  6
CONTINUOUS
 62
     5
 10
104.9999999999998
 20
14.5
 30
0.0
 11
205.0
 21
14.5
 31
0.0
1001
PHOENIX7010
1002
{
1070
    41
1040
1.0
1002
}
  0
LINE
  5
1430
  8
0
  6
CONTINUOUS
 62
     5
 10
195.4999999999998
 20
92.499999999999886
 30
0.0
 11
195.4999999999998
 21
99.499999999999886
 31
0.0
1001
PHOENIX7010
1002
{
1070
    62
1070
     5
1070
    41
1040
1.0
1002
}
  0
LINE
  5
1431
  8
0
  6
ACAD_ISO04W100
 62
     1
 10
200.4999999999998
 20
91.499999999999886
 30
0.0
 11
200.4999999999998
 21
100.4999999999999
 31
0.0
1001
PHOENIX7010
1002
{
1070
    62
1070
     1
1070
    41
1040
1.0
1002
}
  0
CIRCLE
  5
1432
  8
0
  6
CONTINUOUS
 62
     5
 10
200.4999999999998
 20
95.999999999999886
 30
0.0
 40
1.75
1001
PHOENIX7010
1002
{
1070
    62
1070
     5
1070
    41
1040
1.0
1002
}
  0
CIRCLE
  5
1433
  8
0
  6
CONTINUOUS
 62
     5
 10
200.4999999999998
 20
95.999999999999886
 30
0.0
 40
3.5
1001
PHOENIX7010
1002
{
1070
    62
1070
     5
1070
    41
1040
1.0
1002
}
  0
LINE
  5
1434
  8
0
  6
CONTINUOUS
 62
     5
 10
188.4999999999998
 20
94.249999999999886
 30
0.0
 11
188.4999999999998
 21
97.749999999999886
 31
0.0
1001
PHOENIX7010
1002
{
1070
    62
1070
     5
1070
    41
1040
1.0
1002
}
  0
LINE
  5
1435
  8
0
  6
ACAD_ISO04W100
 62
     1
 10
204.9999999999998
 20
95.999999999999886
 30
0.0
 11
187.4999999999998
 21
95.999999999999886
 31
0.0
1001
PHOENIX7010
1002
{
1070
    62
1070
     1
1070
    41
1040
1.0
1002
}
  0
LINE
  5
1436
  8
0
  6
CONTINUOUS
 62
     5
 10
195.4999999999998
 20
92.499999999999886
 30
0.0
 11
188.4999999999998
 21
94.249999999999886
 31
0.0
1001
PHOENIX7010
1002
{
1070
    62
1070
     5
1070
    41
1040
1.0
1002
}
  0
LINE
  5
1437
  8
0
  6
CONTINUOUS
 62
     5
 10
195.4999999999998
 20
99.499999999999886
 30
0.0
 11
188.4999999999998
 21
97.749999999999886
 31
0.0
1001
PHOENIX7010
1002
{
1070
    62
1070
     5
1070
    41
1040
1.0
1002
}
  0
ARC
  5
1438
  8
0
  6
CONTINUOUS
 62
     5
 10
107.4999999999997
 20
88.999999999999886
 30
0.0
 40
2.5
 50
90.0
 51
180.0
1001
PHOENIX7010
1002
{
1070
    62
1070
     5
1070
    41
1040
1.0
1002
}
  0
ARC
  5
1439
  8
0
  6
CONTINUOUS
 62
     5
 10
107.4999999999997
 20
99.999999999999886
 30
0.0
 40
2.5
 50
90.0
 51
180.0
1001
PHOENIX7010
1002
{
1070
    62
1070
     5
1070
    41
1040
1.0
1002
}
  0
LINE
  5
143A
  8
0
  6
CONTINUOUS
 62
     5
 10
205.0
 20
91.499999999999886
 30
0.0
 11
107.4999999999997
 21
91.499999999999886
 31
0.0
1001
PHOENIX7010
1002
{
1070
    62
1070
     5
1070
    41
1040
1.0
1002
}
  0
LINE
  5
143B
  8
0
  6
CONTINUOUS
 62
     5
 10
205.0
 20
102.4999999999999
 30
0.0
 11
107.4999999999997
 21
102.4999999999999
 31
0.0
1001
PHOENIX7010
1002
{
1070
    62
1070
     5
1070
    41
1040
1.0
1002
}
  0
LINE
  5
143C
  8
0
  6
CONTINUOUS
 62
     5
 10
140.0
 20
48.0
 30
0.0
 11
140.0
 21
14.5
 31
0.0
1001
PHOENIX7010
1002
{
1070
    62
1070
     5
1070
    41
1040
1.0
1002
}
  0
TEXT
  5
143D
  8
0
  6
CONTINUOUS
 62
     1
 10
118.9999996997324
 20
42.749999815013439
 30
0.0
 40
2.0
  1
-
 41
1.5
1001
PHOENIX7010
1002
{
1070
    62
1070
     1
1070
    41
1040
1.0
1002
}
  0
TEXT
  5
143E
  8
0
  6
CONTINUOUS
 62
     1
 10
118.9999996997324
 20
40.249999815013439
 30
0.0
 40
2.0
  1
-
 41
1.5
1001
PHOENIX7010
1002
{
1070
    62
1070
     1
1070
    41
1040
1.0
1002
}
  0
TEXT
  5
143F
  8
0
  6
CONTINUOUS
 62
     1
 10
118.9999996997324
 20
45.249999815013439
 30
0.0
 40
2.0
  1
-
 41
1.5
1001
PHOENIX7010
1002
{
1070
    62
1070
     1
1070
    41
1040
1.0
1002
}
  0
TEXT
  5
1440
  8
0
  6
CONTINUOUS
 62
     1
 10
105.9999996997323
 20
42.749999815013439
 30
0.0
 40
2.0
  1
-
 41
1.5
1001
PHOENIX7010
1002
{
1070
    62
1070
     1
1070
    41
1040
1.0
1002
}
  0
TEXT
  5
1441
  8
0
  6
CONTINUOUS
 62
     1
 10
105.9999996997323
 20
40.249999815013439
 30
0.0
 40
2.0
  1
-
 41
1.5
1001
PHOENIX7010
1002
{
1070
    62
1070
     1
1070
    41
1040
1.0
1002
}
  0
TEXT
  5
1442
  8
0
  6
CONTINUOUS
 62
     1
 10
105.9999996997323
 20
45.249999815013439
 30
0.0
 40
2.0
  1
-
 41
1.5
1001
PHOENIX7010
1002
{
1070
    62
1070
     1
1070
    41
1040
1.0
1002
}
  0
ARC
  5
1443
  8
0
  6
CONTINUOUS
 62
     5
 10
107.4999999999997
 20
45.499999999999993
 30
0.0
 40
2.5
 50
90.0
 51
180.0
1001
PHOENIX7010
1002
{
1070
    62
1070
     5
1070
    41
1040
1.0
1002
}
  0
ARC
  5
1444
  8
0
  6
CONTINUOUS
 62
     5
 10
107.4999999999997
 20
76.0
 30
0.0
 40
2.5
 50
90.0
 51
180.0
1001
PHOENIX7010
1002
{
1070
    62
1070
     5
1070
    41
1040
1.0
1002
}
  0
TEXT
  5
1445
  8
0
  6
CONTINUOUS
 62
     1
 10
118.9999996997324
 20
25.249999815013439
 30
0.0
 40
2.0
  1
-
 41
1.5
1001
PHOENIX7010
1002
{
1070
    62
1070
     1
1070
    41
1040
1.0
1002
}
  0
TEXT
  5
1446
  8
0
  6
CONTINUOUS
 62
     1
 10
118.9999996997324
 20
22.749999815013439
 30
0.0
 40
2.0
  1
-
 41
1.5
1001
PHOENIX7010
1002
{
1070
    62
1070
     1
1070
    41
1040
1.0
1002
}
  0
TEXT
  5
1447
  8
0
  6
CONTINUOUS
 62
     1
 10
118.9999996997324
 20
30.249999815013439
 30
0.0
 40
2.0
  1
-
 41
1.5
1001
PHOENIX7010
1002
{
1070
    62
1070
     1
1070
    41
1040
1.0
1002
}
  0
TEXT
  5
1448
  8
0
  6
CONTINUOUS
 62
     1
 10
118.9999996997324
 20
27.749999815013439
 30
0.0
 40
2.0
  1
-
 41
1.5
1001
PHOENIX7010
1002
{
1070
    62
1070
     1
1070
    41
1040
1.0
1002
}
  0
TEXT
  5
1449
  8
0
  6
CONTINUOUS
 62
     1
 10
118.9999996997324
 20
32.749999815013439
 30
0.0
 40
2.0
  1
-
 41
1.5
1001
PHOENIX7010
1002
{
1070
    62
1070
     1
1070
    41
1040
1.0
1002
}
  0
TEXT
  5
144A
  8
0
  6
CONTINUOUS
 62
     1
 10
118.9999996997324
 20
35.249999815013439
 30
0.0
 40
2.0
  1
-
 41
1.5
1001
PHOENIX7010
1002
{
1070
    62
1070
     1
1070
    41
1040
1.0
1002
}
  0
TEXT
  5
144B
  8
0
  6
CONTINUOUS
 62
     1
 10
118.9999996997324
 20
37.749999815013439
 30
0.0
 40
2.0
  1
-
 41
1.5
1001
PHOENIX7010
1002
{
1070
    62
1070
     1
1070
    41
1040
1.0
1002
}
  0
TEXT
  5
144C
  8
0
  6
CONTINUOUS
 62
     1
 10
105.9999996997323
 20
25.249999815013439
 30
0.0
 40
2.0
  1
-
 41
1.5
1001
PHOENIX7010
1002
{
1070
    62
1070
     1
1070
    41
1040
1.0
1002
}
  0
TEXT
  5
144D
  8
0
  6
CONTINUOUS
 62
     1
 10
105.9999996997323
 20
22.749999815013439
 30
0.0
 40
2.0
  1
-
 41
1.5
1001
PHOENIX7010
1002
{
1070
    62
1070
     1
1070
    41
1040
1.0
1002
}
  0
TEXT
  5
144E
  8
0
  6
CONTINUOUS
 62
     1
 10
105.9999996997323
 20
30.249999815013439
 30
0.0
 40
2.0
  1
-
 41
1.5
1001
PHOENIX7010
1002
{
1070
    62
1070
     1
1070
    41
1040
1.0
1002
}
  0
TEXT
  5
144F
  8
0
  6
CONTINUOUS
 62
     1
 10
105.9999996997323
 20
27.749999815013439
 30
0.0
 40
2.0
  1
-
 41
1.5
1001
PHOENIX7010
1002
{
1070
    62
1070
     1
1070
    41
1040
1.0
1002
}
  0
TEXT
  5
1450
  8
0
  6
CONTINUOUS
 62
     1
 10
105.9999996997323
 20
32.749999815013439
 30
0.0
 40
2.0
  1
-
 41
1.5
1001
PHOENIX7010
1002
{
1070
    62
1070
     1
1070
    41
1040
1.0
1002
}
  0
TEXT
  5
1451
  8
0
  6
CONTINUOUS
 62
     1
 10
105.9999996997323
 20
35.249999815013439
 30
0.0
 40
2.0
  1
-
 41
1.5
1001
PHOENIX7010
1002
{
1070
    62
1070
     1
1070
    41
1040
1.0
1002
}
  0
TEXT
  5
1452
  8
0
  6
CONTINUOUS
 62
     1
 10
105.9999996997323
 20
37.749999815013439
 30
0.0
 40
2.0
  1
-
 41
1.5
1001
PHOENIX7010
1002
{
1070
    62
1070
     1
1070
    41
1040
1.0
1002
}
  0
LINE
  5
1453
  8
0
  6
CONTINUOUS
 62
     1
 10
117.9999999999997
 20
48.0
 30
0.0
 11
117.9999999999997
 21
14.5
 31
0.0
1001
PHOENIX7010
1002
{
1070
    62
1070
     1
1070
    41
1040
1.0
1002
}
  0
LINE
  5
1454
  8
0
  6
CONTINUOUS
 62
     1
 10
104.9999999999998
 20
21.5
 30
0.0
 11
140.0
 21
21.5
 31
0.0
1001
PHOENIX7010
1002
{
1070
    62
1070
     1
1070
    41
1040
1.0
1002
}
  0
LINE
  5
1455
  8
0
  6
CONTINUOUS
 62
     5
 10
205.0
 20
78.5
 30
0.0
 11
107.4999999999997
 21
78.5
 31
0.0
1001
PHOENIX7010
1002
{
1070
    62
1070
     5
1070
    41
1040
1.0
1002
}
  0
LINE
  5
1456
  8
0
  6
CONTINUOUS
 62
     5
 10
205.0
 20
48.0
 30
0.0
 11
107.4999999999997
 21
48.0
 31
0.0
1001
PHOENIX7010
1002
{
1070
    62
1070
     5
1070
    41
1040
1.0
1002
}
  0
LINE
  5
1457
  8
0
  6
CONTINUOUS
 62
     5
 10
104.9999999999998
 20
99.999999999999886
 30
0.0
 11
104.9999999999998
 21
5.0
 31
0.0
1001
PHOENIX7010
1002
{
1070
    62
1070
     5
1070
    41
1040
1.0
1002
}
  0
INSERT
  5
1458
  8
0
  6
CONTINUOUS
 62
     5
  2
PH_GRPBLK
 10
104.9999999999998
 20
14.5
 30
0.0
1001
PHOENIX7010
1002
{
1070
    41
1040
1.0
1002
}
  0
POLYLINE
  5
145A
  8
0
  6
CONTINUOUS
 62
     7
 66
     1
 10
0.0
 20
0.0
 30
0.0
 70
     1
1001
PHOENIX7010
1002
{
1070
    41
1040
1.0
1002
}
1001
ACAD
1000
ASC_BOUNDS
1002
{
1070
    19
1005
1416
1002
}
  0
VERTEX
  5
15C5
  8
0
  6
CONTINUOUS
 62
     7
 10
197.4334749940256
 20
35.164538113980257
 30
0.0
  0
VERTEX
  5
15C6
  8
0
  6
CONTINUOUS
 62
     7
 10
190.7334749940255
 20
27.364538113980188
 30
0.0
  0
VERTEX
  5
15C7
  8
0
  6
CONTINUOUS
 62
     7
 10
202.7334749940255
 20
27.364538113980188
 30
0.0
  0
VERTEX
  5
15C8
  8
0
  6
CONTINUOUS
 62
     7
 10
202.7334749940255
 20
35.164538113980143
 30
0.0
  0
VERTEX
  5
15C9
  8
0
  6
CONTINUOUS
 62
     7
 10
197.4334749940256
 20
28.264538113980279
 30
0.0
  0
SEQEND
  5
15CA
  8
0
  6
CONTINUOUS
 62
     7
  0
POLYLINE
  5
145B
  8
0
  6
CONTINUOUS
 62
     7
 66
     1
 10
0.0
 20
0.0
 30
0.0
 70
     1
1001
PHOENIX7010
1002
{
1070
    41
1040
1.0
1002
}
1001
ACAD
1000
ASC_BOUNDS
1002
{
1070
    19
1005
1417
1002
}
  0
VERTEX
  5
15CB
  8
0
  6
CONTINUOUS
 62
     7
 10
189.88347499402551
 20
27.364538113980188
 30
0.0
  0
VERTEX
  5
15CC
  8
0
  6
CONTINUOUS
 62
     7
 10
189.88347499402551
 20
31.514538113980169
 30
0.0
  0
VERTEX
  5
15CD
  8
0
  6
CONTINUOUS
 62
     7
 10
194.0334749940254
 20
31.514538113980169
 30
0.0
 42
2.414213562373094
  0
SEQEND
  5
15CE
  8
0
  6
CONTINUOUS
 62
     7
  0
ENDSEC
  0
EOF
