  0
SECTION
  2
HEADER
  9
$ACADVER
  1
AC1015
  9
$ACADMAINTVER
 70
    20
  9
$DWGCODEPAGE
  3
ANSI_1252
  9
$INSBASE
 10
0.0
 20
0.0
 30
0.0
  9
$EXTMIN
 10
0.9805307641864828
 20
0.9879462492978063
 30
-0.000000000000013
  9
$EXTMAX
 10
419.019471191591
 20
296.0120551337162
 30
0.0000000000000023
  9
$LIMMIN
 10
0.0
 20
0.0
  9
$LIMMAX
 10
420.0
 20
297.0
  9
$ORTHOMODE
 70
     1
  9
$REGENMODE
 70
     1
  9
$FILLMODE
 70
     1
  9
$QTEXTMODE
 70
     0
  9
$MIRRTEXT
 70
     1
  9
$LTSCALE
 40
1.0
  9
$ATTMODE
 70
     1
  9
$TEXTSIZE
 40
2.5
  9
$TRACEWID
 40
1.0
  9
$TEXTSTYLE
  7
STANDARD
  9
$CLAYER
  8
0
  9
$CELTYPE
  6
ACAD_ISO05W100
  9
$CECOLOR
 62
     3
  9
$CELTSCALE
 40
1.0
  9
$DISPSILH
 70
     0
  9
$DIMSCALE
 40
1.0
  9
$DIMASZ
 40
2.5
  9
$DIMEXO
 40
0.625
  9
$DIMDLI
 40
3.75
  9
$DIMRND
 40
0.0
  9
$DIMDLE
 40
0.0
  9
$DIMEXE
 40
1.25
  9
$DIMTP
 40
0.0
  9
$DIMTM
 40
0.0
  9
$DIMTXT
 40
2.5
  9
$DIMCEN
 40
2.5
  9
$DIMTSZ
 40
0.0
  9
$DIMTOL
 70
     0
  9
$DIMLIM
 70
     0
  9
$DIMTIH
 70
     0
  9
$DIMTOH
 70
     0
  9
$DIMSE1
 70
     0
  9
$DIMSE2
 70
     0
  9
$DIMTAD
 70
     1
  9
$DIMZIN
 70
     0
  9
$DIMBLK
  1

  9
$DIMASO
 70
     1
  9
$DIMSHO
 70
     1
  9
$DIMPOST
  1

  9
$DIMAPOST
  1

  9
$DIMALT
 70
     0
  9
$DIMALTD
 70
     4
  9
$DIMALTF
 40
0.0394
  9
$DIMLFAC
 40
1.0
  9
$DIMTOFL
 70
     1
  9
$DIMTVP
 40
0.0
  9
$DIMTIX
 70
     0
  9
$DIMSOXD
 70
     0
  9
$DIMSAH
 70
     0
  9
$DIMBLK1
  1

  9
$DIMBLK2
  1

  9
$DIMSTYLE
  2
STANDARD
  9
$DIMCLRD
 70
     0
  9
$DIMCLRE
 70
     0
  9
$DIMCLRT
 70
     0
  9
$DIMTFAC
 40
1.0
  9
$DIMGAP
 40
0.625
  9
$DIMJUST
 70
     0
  9
$DIMSD1
 70
     0
  9
$DIMSD2
 70
     0
  9
$DIMTOLJ
 70
     1
  9
$DIMTZIN
 70
     0
  9
$DIMALTZ
 70
     0
  9
$DIMALTTZ
 70
     0
  9
$DIMUPT
 70
     0
  9
$DIMDEC
 70
     4
  9
$DIMTDEC
 70
     4
  9
$DIMALTU
 70
     8
  9
$DIMALTTD
 70
     4
  9
$DIMTXSTY
  7
STANDARD
  9
$DIMAUNIT
 70
     0
  9
$DIMADEC
 70
     0
  9
$DIMALTRND
 40
0.0
  9
$DIMAZIN
 70
     0
  9
$DIMDSEP
 70
    46
  9
$DIMATFIT
 70
     3
  9
$DIMFRAC
 70
     0
  9
$DIMLDRBLK
  1

  9
$DIMLUNIT
 70
     6
  9
$DIMLWD
 70
    -2
  9
$DIMLWE
 70
    -2
  9
$DIMTMOVE
 70
     0
  9
$LUNITS
 70
     2
  9
$LUPREC
 70
     4
  9
$SKETCHINC
 40
1.0
  9
$FILLETRAD
 40
0.0
  9
$AUNITS
 70
     0
  9
$AUPREC
 70
     0
  9
$MENU
  1
.
  9
$ELEVATION
 40
0.0
  9
$PELEVATION
 40
0.0
  9
$THICKNESS
 40
0.0
  9
$LIMCHECK
 70
     0
  9
$CHAMFERA
 40
10.0
  9
$CHAMFERB
 40
10.0
  9
$CHAMFERC
 40
20.0
  9
$CHAMFERD
 40
0.0
  9
$SKPOLY
 70
     0
  9
$TDCREATE
 40
2451306.582590023
  9
$TDUCREATE
 40
2451306.540923357
  9
$TDUPDATE
 40
2457045.557685579
  9
$TDUUPDATE
 40
2457045.516018912
  9
$TDINDWG
 40
0.0389431366
  9
$TDUSRTIMER
 40
0.0389431366
  9
$USRTIMER
 70
     1
  9
$ANGBASE
 50
0.0
  9
$ANGDIR
 70
     0
  9
$PDMODE
 70
    35
  9
$PDSIZE
 40
-2.0
  9
$PLINEWID
 40
0.0
  9
$SPLFRAME
 70
     0
  9
$SPLINETYPE
 70
     6
  9
$SPLINESEGS
 70
     8
  9
$HANDSEED
  5
92A
  9
$SURFTAB1
 70
     6
  9
$SURFTAB2
 70
     6
  9
$SURFTYPE
 70
     6
  9
$SURFU
 70
     6
  9
$SURFV
 70
     6
  9
$UCSBASE
  2

  9
$UCSNAME
  2

  9
$UCSORG
 10
0.0
 20
0.0
 30
0.0
  9
$UCSXDIR
 10
1.0
 20
0.0
 30
0.0
  9
$UCSYDIR
 10
0.0
 20
1.0
 30
0.0
  9
$UCSORTHOREF
  2

  9
$UCSORTHOVIEW
 70
     0
  9
$UCSORGTOP
 10
0.0
 20
0.0
 30
0.0
  9
$UCSORGBOTTOM
 10
0.0
 20
0.0
 30
0.0
  9
$UCSORGLEFT
 10
0.0
 20
0.0
 30
0.0
  9
$UCSORGRIGHT
 10
0.0
 20
0.0
 30
0.0
  9
$UCSORGFRONT
 10
0.0
 20
0.0
 30
0.0
  9
$UCSORGBACK
 10
0.0
 20
0.0
 30
0.0
  9
$PUCSBASE
  2

  9
$PUCSNAME
  2

  9
$PUCSORG
 10
0.0
 20
0.0
 30
0.0
  9
$PUCSXDIR
 10
1.0
 20
0.0
 30
0.0
  9
$PUCSYDIR
 10
0.0
 20
1.0
 30
0.0
  9
$PUCSORTHOREF
  2

  9
$PUCSORTHOVIEW
 70
     0
  9
$PUCSORGTOP
 10
0.0
 20
0.0
 30
0.0
  9
$PUCSORGBOTTOM
 10
0.0
 20
0.0
 30
0.0
  9
$PUCSORGLEFT
 10
0.0
 20
0.0
 30
0.0
  9
$PUCSORGRIGHT
 10
0.0
 20
0.0
 30
0.0
  9
$PUCSORGFRONT
 10
0.0
 20
0.0
 30
0.0
  9
$PUCSORGBACK
 10
0.0
 20
0.0
 30
0.0
  9
$USERI1
 70
     0
  9
$USERI2
 70
     0
  9
$USERI3
 70
     0
  9
$USERI4
 70
     0
  9
$USERI5
 70
     0
  9
$USERR1
 40
0.0
  9
$USERR2
 40
0.0
  9
$USERR3
 40
0.0
  9
$USERR4
 40
0.0
  9
$USERR5
 40
0.0
  9
$WORLDVIEW
 70
     1
  9
$SHADEDGE
 70
     3
  9
$SHADEDIF
 70
    70
  9
$TILEMODE
 70
     1
  9
$MAXACTVP
 70
    48
  9
$PINSBASE
 10
0.0
 20
0.0
 30
0.0
  9
$PLIMCHECK
 70
     0
  9
$PEXTMIN
 10
1.000000000000000E+20
 20
1.000000000000000E+20
 30
1.000000000000000E+20
  9
$PEXTMAX
 10
-1.000000000000000E+20
 20
-1.000000000000000E+20
 30
-1.000000000000000E+20
  9
$PLIMMIN
 10
0.0
 20
0.0
  9
$PLIMMAX
 10
420.0
 20
297.0
  9
$UNITMODE
 70
     0
  9
$VISRETAIN
 70
     1
  9
$PLINEGEN
 70
     0
  9
$PSLTSCALE
 70
     1
  9
$TREEDEPTH
 70
  3020
  9
$CMLSTYLE
  2
STANDARD
  9
$CMLJUST
 70
     0
  9
$CMLSCALE
 40
20.0
  9
$PROXYGRAPHICS
 70
     1
  9
$MEASUREMENT
 70
     1
  9
$CELWEIGHT
370
    70
  9
$ENDCAPS
280
     0
  9
$JOINSTYLE
280
     0
  9
$LWDISPLAY
290
     0
  9
$INSUNITS
 70
     0
  9
$HYPERLINKBASE
  1

  9
$STYLESHEET
  1
HP_SW.ctb
  9
$XEDIT
290
     1
  9
$CEPSNTYPE
380
     0
  9
$PSTYLEMODE
290
     1
  9
$FINGERPRINTGUID
  2
{A34EFE2F-8822-4C21-8DCD-16387A964CB6}
  9
$VERSIONGUID
  2
{E6B6A4A8-B310-4424-8F98-AC897CD4B36F}
  9
$EXTNAMES
290
     1
  9
$PSVPSCALE
 40
0.0
  9
$OLESTARTUP
290
     0
  0
ENDSEC
  0
SECTION
  2
CLASSES
  0
CLASS
  1
PH_VARS
  2
PhoenixVars
  3
PHOENIX7010
 90
        0
280
     0
281
     0
  0
CLASS
  1
PH_GROUP
  2
PhGroup
  3
PHOENIX7010
 90
        0
280
     0
281
     0
  0
CLASS
  1
ACDBDICTIONARYWDFLT
  2
AcDbDictionaryWithDefault
  3
ObjectDBX Classes
 90
        0
280
     0
281
     0
  0
CLASS
  1
MATERIAL
  2
AcDbMaterial
  3
ObjectDBX Classes
 90
     1153
280
     0
281
     0
  0
CLASS
  1
VISUALSTYLE
  2
AcDbVisualStyle
  3
ObjectDBX Classes
 90
     4095
280
     0
281
     0
  0
CLASS
  1
TABLESTYLE
  2
AcDbTableStyle
  3
ObjectDBX Classes
 90
     4095
280
     0
281
     0
  0
CLASS
  1
SCALE
  2
AcDbScale
  3
ObjectDBX Classes
 90
     1153
280
     0
281
     0
  0
CLASS
  1
MLEADERSTYLE
  2
AcDbMLeaderStyle
  3
ACDB_MLEADERSTYLE_CLASS
 90
     4095
280
     0
281
     0
  0
CLASS
  1
CELLSTYLEMAP
  2
AcDbCellStyleMap
  3
ObjectDBX Classes
 90
     1152
280
     0
281
     0
  0
CLASS
  1
DICTIONARYVAR
  2
AcDbDictionaryVar
  3
ObjectDBX Classes
 90
        0
280
     0
281
     0
  0
CLASS
  1
ACDBPLACEHOLDER
  2
AcDbPlaceHolder
  3
ObjectDBX Classes
 90
        0
280
     0
281
     0
  0
CLASS
  1
LAYOUT
  2
AcDbLayout
  3
ObjectDBX Classes
 90
        0
280
     0
281
     0
  0
CLASS
  1
PDFDEFINITION
  2
AcDbPdfDefinition
  3
ObjectDBX Classes
 90
     1153
280
     0
281
     0
  0
CLASS
  1
PDFUNDERLAY
  2
AcDbPdfReference
  3
ObjectDBX Classes
 90
     1153
280
     0
281
     1
  0
ENDSEC
  0
SECTION
  2
TABLES
  0
TABLE
  2
VPORT
  5
8
102
{ACAD_XDICTIONARY
360
495
102
}
330
0
100
AcDbSymbolTable
 70
     1
  0
VPORT
  5
359
330
8
100
AcDbSymbolTableRecord
100
AcDbViewportTableRecord
  2
*ACTIVE
 70
     0
 10
0.0
 20
0.0
 11
1.0
 21
1.0
 12
212.1787521104062
 22
148.500000691507
 13
0.0
 23
0.0
 14
10.0
 24
10.0
 15
10.0
 25
10.0
 16
0.0
 26
0.0
 36
1.0
 17
0.0
 27
0.0
 37
0.0
 40
297.1176614051243
 41
1.906175771971496
 42
50.0
 43
0.0
 44
0.0
 50
0.0
 51
0.0
 71
     0
 72
   100
 73
     1
 74
     0
 75
     0
 76
     0
 77
     0
 78
     0
281
     0
 65
     1
110
0.0
120
0.0
130
0.0
111
1.0
121
0.0
131
0.0
112
0.0
122
1.0
132
0.0
 79
     0
146
0.0
  0
ENDTAB
  0
TABLE
  2
LTYPE
  5
5
330
0
100
AcDbSymbolTable
 70
     3
  0
LTYPE
  5
12
330
5
100
AcDbSymbolTableRecord
100
AcDbLinetypeTableRecord
  2
BYBLOCK
 70
     0
  3

 72
    65
 73
     0
 40
0.0
  0
LTYPE
  5
13
330
5
100
AcDbSymbolTableRecord
100
AcDbLinetypeTableRecord
  2
BYLAYER
 70
     0
  3

 72
    65
 73
     0
 40
0.0
  0
LTYPE
  5
14
330
5
100
AcDbSymbolTableRecord
100
AcDbLinetypeTableRecord
  2
CONTINUOUS
 70
     0
  3
Solid line
 72
    65
 73
     0
 40
0.0
  0
LTYPE
  5
2C7
330
5
100
AcDbSymbolTableRecord
100
AcDbLinetypeTableRecord
  2
ACAD_ISO04W100
 70
     0
  3
____ . ____ . ____ . ____ . ____ . ____ . ____ 
 72
    65
 73
     4
 40
30.5
 49
24.0
 74
     0
 49
-3.0
 74
     0
 49
0.5
 74
     0
 49
-3.0
 74
     0
  0
LTYPE
  5
50F
330
5
100
AcDbSymbolTableRecord
100
AcDbLinetypeTableRecord
  2
ACAD_ISO05W100
 70
     0
  3
ISO Lang gestrichelt doppelpunktiert ____ .. __
 72
    65
 73
     6
 40
33.0
 49
24.0
 74
     0
 49
-3.0
 74
     0
 49
0.0
 74
     0
 49
-3.0
 74
     0
 49
0.0
 74
     0
 49
-3.0
 74
     0
  0
ENDTAB
  0
TABLE
  2
LAYER
  5
2
102
{ACAD_XDICTIONARY
360
440
102
}
330
0
100
AcDbSymbolTable
 70
     7
  0
LAYER
  5
E
102
{ACAD_XDICTIONARY
360
3A7
102
}
330
2
100
AcDbSymbolTableRecord
100
AcDbLayerTableRecord
  2
0
 70
     0
 62
     7
  6
CONTINUOUS
370
    -3
390
35C
  0
LAYER
  5
21
102
{ACAD_XDICTIONARY
360
3A9
102
}
330
2
100
AcDbSymbolTableRecord
100
AcDbLayerTableRecord
  2
BZA45776
 70
     0
 62
     7
  6
CONTINUOUS
370
    -3
390
35C
  0
LAYER
  5
C5
102
{ACAD_XDICTIONARY
360
3AB
102
}
330
2
100
AcDbSymbolTableRecord
100
AcDbLayerTableRecord
  2
30
 70
     0
 62
     7
  6
CONTINUOUS
370
    -3
390
35C
  0
LAYER
  5
14E
102
{ACAD_XDICTIONARY
360
3AD
102
}
330
2
100
AcDbSymbolTableRecord
100
AcDbLayerTableRecord
  2
RAHMEN
 70
     0
 62
     7
  6
CONTINUOUS
370
    -3
390
35C
  0
LAYER
  5
1CA
102
{ACAD_XDICTIONARY
360
3AF
102
}
330
2
100
AcDbSymbolTableRecord
100
AcDbLayerTableRecord
  2
2KOPF
 70
     0
 62
     7
  6
CONTINUOUS
370
    -3
390
35C
  0
LAYER
  5
216
102
{ACAD_XDICTIONARY
360
3B1
102
}
330
2
100
AcDbSymbolTableRecord
100
AcDbLayerTableRecord
  2
PH_HILFSELEMENTE
 70
     0
 62
    -7
  6
CONTINUOUS
370
    -3
390
35C
  0
LAYER
  5
2C8
330
2
100
AcDbSymbolTableRecord
100
AcDbLayerTableRecord
  2
DEFPOINTS
 70
     0
 62
     7
  6
CONTINUOUS
290
     0
370
    -3
390
35C
  0
ENDTAB
  0
TABLE
  2
STYLE
  5
3
330
0
100
AcDbSymbolTable
 70
     5
  0
STYLE
  5
F
330
3
100
AcDbSymbolTableRecord
100
AcDbTextStyleTableRecord
  2
STANDARD
 70
     0
 40
0.0
 41
1.0
 50
0.0
 71
     0
 42
2.5
  3
isocp.shx
  4

  0
ENDTAB
  0
TABLE
  2
VIEW
  5
6
330
0
100
AcDbSymbolTable
 70
     0
  0
ENDTAB
  0
TABLE
  2
UCS
  5
7
330
0
100
AcDbSymbolTable
 70
     0
  0
ENDTAB
  0
TABLE
  2
APPID
  5
9
330
0
100
AcDbSymbolTable
 70
     6
  0
APPID
  5
10
330
9
100
AcDbSymbolTableRecord
100
AcDbRegAppTableRecord
  2
ACAD
 70
     0
  0
APPID
  5
1FF
330
9
100
AcDbSymbolTableRecord
100
AcDbRegAppTableRecord
  2
PHOENIX7010
 70
     0
  0
APPID
  5
43F
330
9
100
AcDbSymbolTableRecord
100
AcDbRegAppTableRecord
  2
ACAD_PSEXT
 70
     0
  0
APPID
  5
4C1
330
9
100
AcDbSymbolTableRecord
100
AcDbRegAppTableRecord
  2
ACAD_MLEADERVER
 70
     0
  0
APPID
  5
4D3
330
9
100
AcDbSymbolTableRecord
100
AcDbRegAppTableRecord
  2
ACAD_EXEMPT_FROM_CAD_STANDARDS
 70
     0
  0
APPID
  5
50E
330
9
100
AcDbSymbolTableRecord
100
AcDbRegAppTableRecord
  2
AdeskUnderlayLayerOverrideData
 70
     0
  0
ENDTAB
  0
TABLE
  2
DIMSTYLE
  5
A
330
0
100
AcDbSymbolTable
 70
     8
100
AcDbDimStyleTable
 71
     1
340
1D
  0
DIMSTYLE
105
1D
330
A
100
AcDbSymbolTableRecord
100
AcDbDimStyleTableRecord
  2
STANDARD
 70
     0
340
F
  0
DIMSTYLE
105
206
330
A
100
AcDbSymbolTableRecord
100
AcDbDimStyleTableRecord
  2
PHOENIX
 70
     0
  4
"
 41
3.72
 42
0.0
 43
7.0
 44
1.5
 73
     0
 74
     0
 77
     1
 78
     8
140
3.5
141
0.0
143
0.0393700787401575
146
0.6666666666666666
147
2.0
172
     1
173
     1
176
     1
177
     1
178
     5
271
     2
272
     2
284
     8
288
     1
289
     0
340
F
341
200
343
200
344
200
  0
DIMSTYLE
105
207
330
A
100
AcDbSymbolTableRecord
100
AcDbDimStyleTableRecord
  2
PHOENIX$4
 70
     0
  4
"
 41
3.72
 42
0.0
 43
7.0
 44
1.5
 73
     0
 74
     0
 77
     1
 78
     8
140
3.5
141
0.0
143
0.0393700787401575
146
0.6666666666666666
147
2.0
173
     1
176
     1
177
     1
178
     5
271
     2
272
     2
281
     1
284
     8
288
     1
289
     0
340
F
341
200
343
200
344
200
  0
DIMSTYLE
105
3F0
330
A
100
AcDbSymbolTableRecord
100
AcDbDimStyleTableRecord
  2
ISO-25
 70
     0
 41
2.5
 42
0.625
 43
3.75
 44
1.25
 73
     0
 74
     0
 77
     1
 78
     8
140
2.5
141
2.5
143
0.03937007874016
147
0.625
171
     3
172
     1
271
     2
272
     2
274
     3
278
    44
283
     0
284
     8
340
F
  0
ENDTAB
  0
TABLE
  2
BLOCK_RECORD
  5
1
330
0
100
AcDbSymbolTable
 70
     6
  0
BLOCK_RECORD
  5
18
330
1
100
AcDbSymbolTableRecord
100
AcDbBlockTableRecord
  2
*MODEL_SPACE
340
3A3
  0
BLOCK_RECORD
  5
15
330
1
100
AcDbSymbolTableRecord
100
AcDbBlockTableRecord
  2
*PAPER_SPACE
340
3A4
  0
BLOCK_RECORD
  5
200
330
1
100
AcDbSymbolTableRecord
100
AcDbBlockTableRecord
  2
_OPEN15
340
0
  0
BLOCK_RECORD
  5
22A
330
1
100
AcDbSymbolTableRecord
100
AcDbBlockTableRecord
  2
PH_GRPBLK
340
0
102
{BLKREFS
331
3FE
331
449
331
44C
331
484
331
66C
102
}
  0
ENDTAB
  0
ENDSEC
  0
SECTION
  2
BLOCKS
  0
BLOCK
  5
19
330
18
100
AcDbEntity
  8
0
100
AcDbBlockBegin
  2
*MODEL_SPACE
 70
     0
 10
0.0
 20
0.0
 30
0.0
  3
*MODEL_SPACE
  1

  0
ENDBLK
  5
1A
330
18
100
AcDbEntity
  8
0
100
AcDbBlockEnd
  0
BLOCK
  5
16
330
15
100
AcDbEntity
 67
     1
  8
0
100
AcDbBlockBegin
  2
*PAPER_SPACE
 70
     0
 10
0.0
 20
0.0
 30
0.0
  3
*PAPER_SPACE
  1

  0
ENDBLK
  5
17
330
15
100
AcDbEntity
 67
     1
  8
0
100
AcDbBlockEnd
  0
BLOCK
  5
204
330
200
100
AcDbEntity
  8
0
100
AcDbBlockBegin
  2
_OPEN15
 70
     0
 10
1.0
 20
0.0
 30
0.0
  3
_OPEN15
  1

  0
LINE
  5
201
330
200
100
AcDbEntity
  8
0
  6
ByBlock
 62
     0
100
AcDbLine
 10
0.0
 20
0.0
 30
0.0
 11
1.0
 21
0.0
 31
0.0
  0
LINE
  5
202
330
200
100
AcDbEntity
  8
0
  6
ByBlock
 62
     0
100
AcDbLine
 10
1.0
 20
0.0
 30
0.0
 11
0.0
 21
0.1316524975873958
 31
0.0
  0
LINE
  5
203
330
200
100
AcDbEntity
  8
0
  6
ByBlock
 62
     0
100
AcDbLine
 10
1.0
 20
0.0
 30
0.0
 11
0.0
 21
-0.1316524975873958
 31
0.0
  0
ENDBLK
  5
205
330
200
100
AcDbEntity
  8
0
100
AcDbBlockEnd
  0
BLOCK
  5
22C
330
22A
100
AcDbEntity
  8
0
 62
     7
100
AcDbBlockBegin
  2
PH_GRPBLK
 70
     0
 10
0.0
 20
0.0
 30
0.0
  3
PH_GRPBLK
  1

  0
POINT
  5
22B
330
22A
100
AcDbEntity
  8
DEFPOINTS
  6
Continuous
 62
     0
100
AcDbPoint
 10
0.0
 20
0.0
 30
0.0
  0
ENDBLK
  5
22D
330
22A
100
AcDbEntity
  8
0
 62
     7
100
AcDbBlockEnd
  0
ENDSEC
  0
SECTION
  2
ENTITIES
  0
LINE
  5
22
330
18
100
AcDbEntity
  8
BZA45776
 62
     1
100
AcDbLine
 10
128.2377128075261
 20
200.9123196641028
 30
0.0
 11
115.9376944969792
 21
200.9123196641028
 31
0.0
1001
PHOENIX7010
1002
{
1070
    41
1040
0.6666666666666666
1002
}
  0
LINE
  5
23
330
18
100
AcDbEntity
  8
BZA45776
 62
     1
100
AcDbLine
 10
128.2377128075261
 20
168.3623013535559
 30
0.0
 11
115.9376944969792
 21
168.3623013535559
 31
0.0
1001
PHOENIX7010
1002
{
1070
    41
1040
0.6666666666666666
1002
}
  0
LINE
  5
24
330
18
100
AcDbEntity
  8
BZA45776
 62
     1
100
AcDbLine
 10
148.0305442284245
 20
184.6372876206458
 30
0.0
 11
114.2874564598699
 21
184.6372876206458
 31
0.0
1001
PHOENIX7010
1002
{
1070
    41
1040
0.6666666666666666
1002
}
  0
LINE
  5
26
330
18
100
AcDbEntity
  8
BZA45776
  6
Continuous
 62
     1
100
AcDbLine
 10
100.9376944969792
 20
153.137276176554
 30
0.0
 11
100.9376944969792
 21
216.1372876206458
 31
0.0
1001
PHOENIX7010
1002
{
1070
    41
1040
0.6666666666666666
1002
}
  0
LINE
  5
27
330
18
100
AcDbEntity
  8
BZA45776
  6
Continuous
 62
     1
100
AcDbLine
 10
121.9376944969792
 20
153.137276176554
 30
0.0
 11
99.43769449697924
 21
153.137276176554
 31
0.0
1001
PHOENIX7010
1002
{
1070
    41
1040
0.6666666666666666
1002
}
  0
LINE
  5
28
330
18
100
AcDbEntity
  8
BZA45776
  6
Continuous
 62
     1
100
AcDbLine
 10
121.9376944969792
 20
216.1372876206458
 30
0.0
 11
99.43769449697924
 21
216.1372876206458
 31
0.0
1001
PHOENIX7010
1002
{
1070
    41
1040
0.6666666666666666
1002
}
  0
LINE
  5
29
330
18
100
AcDbEntity
  8
BZA45776
  6
Continuous
 62
     1
100
AcDbLine
 10
100.9376944969792
 20
153.137276176554
 30
0.0
 11
100.5950583885808
 21
155.7398114243567
 31
0.0
1001
PHOENIX7010
1002
{
1070
    41
1040
0.6666666666666666
1002
}
  0
LINE
  5
2A
330
18
100
AcDbEntity
  8
BZA45776
  6
Continuous
 62
     1
100
AcDbLine
 10
100.9376944969792
 20
153.137276176554
 30
0.0
 11
101.2803306053777
 21
155.7398114243567
 31
0.0
1001
PHOENIX7010
1002
{
1070
    41
1040
0.6666666666666666
1002
}
  0
LINE
  5
2B
330
18
100
AcDbEntity
  8
BZA45776
  6
Continuous
 62
     1
100
AcDbLine
 10
100.9376944969792
 20
216.1372876206458
 30
0.0
 11
100.5950583885808
 21
213.5347409287513
 31
0.0
1001
PHOENIX7010
1002
{
1070
    41
1040
0.6666666666666666
1002
}
  0
LINE
  5
2C
330
18
100
AcDbEntity
  8
BZA45776
  6
Continuous
 62
     1
100
AcDbLine
 10
100.9376944969792
 20
216.1372876206458
 30
0.0
 11
101.2803306053777
 21
213.5347409287513
 31
0.0
1001
PHOENIX7010
1002
{
1070
    41
1040
0.6666666666666666
1002
}
  0
TEXT
  5
2D
330
18
100
AcDbEntity
  8
BZA45776
 62
     5
100
AcDbText
 10
100.1876944969792
 20
182.0122876206458
 30
0.0
 40
2.625
  1
 21 
 50
90.0
 72
     1
 11
100.1876944969792
 21
184.6372876206458
 31
0.0
100
AcDbText
1001
PHOENIX7010
1002
{
1070
    41
1040
0.6666666666666666
1002
}
  0
LINE
  5
2F
330
18
100
AcDbEntity
  8
BZA45776
  6
Continuous
 62
     1
100
AcDbLine
 10
108.4376944969792
 20
168.3623013535559
 30
0.0
 11
108.4376944969792
 21
200.9123196641028
 31
0.0
1001
PHOENIX7010
1002
{
1070
    41
1040
0.6666666666666666
1002
}
  0
LINE
  5
30
330
18
100
AcDbEntity
  8
BZA45776
  6
Continuous
 62
     1
100
AcDbLine
 10
115.9376944969792
 20
168.3623013535559
 30
0.0
 11
106.9376944969792
 21
168.3623013535559
 31
0.0
1001
PHOENIX7010
1002
{
1070
    41
1040
0.6666666666666666
1002
}
  0
LINE
  5
31
330
18
100
AcDbEntity
  8
BZA45776
  6
Continuous
 62
     1
100
AcDbLine
 10
115.9376944969792
 20
200.9123196641028
 30
0.0
 11
106.9376944969792
 21
200.9123196641028
 31
0.0
1001
PHOENIX7010
1002
{
1070
    41
1040
0.6666666666666666
1002
}
  0
LINE
  5
32
330
18
100
AcDbEntity
  8
BZA45776
  6
Continuous
 62
     1
100
AcDbLine
 10
108.4376944969792
 20
168.3623013535559
 30
0.0
 11
108.0950583885808
 21
170.9648480454505
 31
0.0
1001
PHOENIX7010
1002
{
1070
    41
1040
0.6666666666666666
1002
}
  0
LINE
  5
33
330
18
100
AcDbEntity
  8
BZA45776
  6
Continuous
 62
     1
100
AcDbLine
 10
108.4376944969792
 20
168.3623013535559
 30
0.0
 11
108.7803306053777
 21
170.9648480454505
 31
0.0
1001
PHOENIX7010
1002
{
1070
    41
1040
0.6666666666666666
1002
}
  0
LINE
  5
34
330
18
100
AcDbEntity
  8
BZA45776
  6
Continuous
 62
     1
100
AcDbLine
 10
108.4376944969792
 20
200.9123196641028
 30
0.0
 11
108.0950583885808
 21
198.3097729722083
 31
0.0
1001
PHOENIX7010
1002
{
1070
    41
1040
0.6666666666666666
1002
}
  0
LINE
  5
35
330
18
100
AcDbEntity
  8
BZA45776
  6
Continuous
 62
     1
100
AcDbLine
 10
108.4376944969792
 20
200.9123196641028
 30
0.0
 11
108.7803306053777
 21
198.3097729722083
 31
0.0
1001
PHOENIX7010
1002
{
1070
    41
1040
0.6666666666666666
1002
}
  0
TEXT
  5
36
330
18
100
AcDbEntity
  8
BZA45776
 62
     5
100
AcDbText
 10
107.6876944969792
 20
181.6558440676395
 30
0.0
 40
2.625
  1
10.9
 50
90.0
 72
     1
 11
107.6876944969792
 21
184.6373105088294
 31
0.0
100
AcDbText
1001
PHOENIX7010
1002
{
1070
    41
1040
0.6666666666666666
1002
}
  0
LINE
  5
38
330
18
100
AcDbEntity
  8
BZA45776
  6
Continuous
 62
     1
100
AcDbLine
 10
144.4376944969792
 20
176.2373242417395
 30
0.0
 11
166.9376944969792
 21
176.2373242417395
 31
0.0
1001
PHOENIX7010
1002
{
1070
    41
1040
0.6666666666666666
1002
}
  0
LINE
  5
39
330
18
100
AcDbEntity
  8
BZA45776
  6
Continuous
 62
     1
100
AcDbLine
 10
144.4376944969792
 20
160.4872899094641
 30
0.0
 11
166.9376944969792
 21
160.4872899094641
 31
0.0
1001
PHOENIX7010
1002
{
1070
    41
1040
0.6666666666666666
1002
}
  0
LINE
  5
3A
330
18
100
AcDbEntity
  8
BZA45776
  6
Continuous
 62
     1
100
AcDbLine
 10
165.4376944969792
 20
160.4872899094641
 30
0.0
 11
165.4376944969792
 21
176.2373242417395
 31
0.0
1001
PHOENIX7010
1002
{
1070
    41
1040
0.6666666666666666
1002
}
  0
LINE
  5
3B
330
18
100
AcDbEntity
  8
BZA45776
  6
Continuous
 62
     1
100
AcDbLine
 10
165.4376944969792
 20
160.4872899094641
 30
0.0
 11
165.0950583885808
 21
163.0898251572669
 31
0.0
1001
PHOENIX7010
1002
{
1070
    41
1040
0.6666666666666666
1002
}
  0
LINE
  5
3C
330
18
100
AcDbEntity
  8
BZA45776
  6
Continuous
 62
     1
100
AcDbLine
 10
165.4376944969792
 20
160.4872899094641
 30
0.0
 11
165.7803306053777
 21
163.0898251572669
 31
0.0
1001
PHOENIX7010
1002
{
1070
    41
1040
0.6666666666666666
1002
}
  0
LINE
  5
3D
330
18
100
AcDbEntity
  8
BZA45776
  6
Continuous
 62
     1
100
AcDbLine
 10
165.4376944969792
 20
176.2373242417395
 30
0.0
 11
165.0950583885808
 21
173.634777549845
 31
0.0
1001
PHOENIX7010
1002
{
1070
    41
1040
0.6666666666666666
1002
}
  0
LINE
  5
3E
330
18
100
AcDbEntity
  8
BZA45776
  6
Continuous
 62
     1
100
AcDbLine
 10
165.4376944969792
 20
176.2373242417395
 30
0.0
 11
165.7803306053777
 21
173.634777549845
 31
0.0
1001
PHOENIX7010
1002
{
1070
    41
1040
0.6666666666666666
1002
}
  0
TEXT
  5
3F
330
18
100
AcDbEntity
  8
BZA45776
 62
     5
100
AcDbText
 10
164.6876944969792
 20
165.0810513535559
 30
0.0
 40
2.625
  1
 5.3 
 50
90.0
 72
     1
 11
164.6876944969792
 21
168.3623013535559
 31
0.0
100
AcDbText
1001
PHOENIX7010
1002
{
1070
    41
1040
0.6666666666666666
1002
}
  0
LINE
  5
41
330
18
100
AcDbEntity
  8
BZA45776
  6
Continuous
 62
     1
100
AcDbLine
 10
157.9376944969792
 20
163.0372967759192
 30
0.0
 11
157.9376944969792
 21
173.6873059311927
 31
0.0
1001
PHOENIX7010
1002
{
1070
    41
1040
0.6666666666666666
1002
}
  0
LINE
  5
42
330
18
100
AcDbEntity
  8
BZA45776
  6
Continuous
 62
     1
100
AcDbLine
 10
149.8377494286198
 20
173.6873059311927
 30
0.0
 11
159.4376944969792
 21
173.6873059311927
 31
0.0
1001
PHOENIX7010
1002
{
1070
    41
1040
0.6666666666666666
1002
}
  0
LINE
  5
43
330
18
100
AcDbEntity
  8
BZA45776
  6
Continuous
 62
     1
100
AcDbLine
 10
157.9376944969792
 20
163.0372967759192
 30
0.0
 11
157.5950583885808
 21
165.6398434678138
 31
0.0
1001
PHOENIX7010
1002
{
1070
    41
1040
0.6666666666666666
1002
}
  0
LINE
  5
44
330
18
100
AcDbEntity
  8
BZA45776
  6
Continuous
 62
     1
100
AcDbLine
 10
157.9376944969792
 20
163.0372967759192
 30
0.0
 11
158.2803306053777
 21
165.6398434678138
 31
0.0
1001
PHOENIX7010
1002
{
1070
    41
1040
0.6666666666666666
1002
}
  0
LINE
  5
45
330
18
100
AcDbEntity
  8
BZA45776
  6
Continuous
 62
     1
100
AcDbLine
 10
157.9376944969792
 20
173.6873059311927
 30
0.0
 11
157.5950583885808
 21
171.0847592392981
 31
0.0
1001
PHOENIX7010
1002
{
1070
    41
1040
0.6666666666666666
1002
}
  0
LINE
  5
46
330
18
100
AcDbEntity
  8
BZA45776
  6
Continuous
 62
     1
100
AcDbLine
 10
157.9376944969792
 20
173.6873059311927
 30
0.0
 11
158.2803306053777
 21
171.0847592392981
 31
0.0
1001
PHOENIX7010
1002
{
1070
    41
1040
0.6666666666666666
1002
}
  0
TEXT
  5
47
330
18
100
AcDbEntity
  8
BZA45776
 62
     5
100
AcDbText
 10
157.1876944969792
 20
166.0659430858394
 30
0.0
 40
2.625
  1
3.6
 50
90.0
 72
     1
 11
157.1876944969792
 21
168.3623013535559
 31
0.0
100
AcDbText
1001
PHOENIX7010
1002
{
1070
    41
1040
0.6666666666666666
1002
}
  0
LINE
  5
48
330
18
100
AcDbEntity
  8
BZA45776
  6
Continuous
 62
     1
100
AcDbLine
 10
144.7891654442448
 20
163.0372967759192
 30
0.0
 11
159.4376944969792
 21
163.0372967759192
 31
0.0
1001
PHOENIX7010
1002
{
1070
    41
1040
0.6666666666666666
1002
}
  0
LINE
  5
4A
330
18
100
AcDbEntity
  8
BZA45776
  6
Continuous
 62
     1
100
AcDbLine
 10
123.4376944969792
 20
166.1873059311926
 30
0.0
 11
150.4376944969792
 21
166.1873059311926
 31
0.0
1001
PHOENIX7010
1002
{
1070
    41
1040
0.6666666666666666
1002
}
  0
LINE
  5
4B
330
18
100
AcDbEntity
  8
BZA45776
  6
Continuous
 62
     1
100
AcDbLine
 10
150.4376944969792
 20
160.7872853318274
 30
0.0
 11
150.4376944969792
 21
167.6873059311926
 31
0.0
1001
PHOENIX7010
1002
{
1070
    41
1040
0.6666666666666666
1002
}
  0
LINE
  5
4C
330
18
100
AcDbEntity
  8
BZA45776
  6
Continuous
 62
     1
100
AcDbLine
 10
123.4376944969792
 20
166.1873059311926
 30
0.0
 11
126.0402183006902
 21
166.5299420395911
 31
0.0
1001
PHOENIX7010
1002
{
1070
    41
1040
0.6666666666666666
1002
}
  0
LINE
  5
4D
330
18
100
AcDbEntity
  8
BZA45776
  6
Continuous
 62
     1
100
AcDbLine
 10
123.4376944969792
 20
166.1873059311926
 30
0.0
 11
126.0402183006902
 21
165.8446698227942
 31
0.0
1001
PHOENIX7010
1002
{
1070
    41
1040
0.6666666666666666
1002
}
  0
LINE
  5
4E
330
18
100
AcDbEntity
  8
BZA45776
  6
Continuous
 62
     1
100
AcDbLine
 10
150.4376944969792
 20
166.1873059311926
 30
0.0
 11
147.8351249169011
 21
166.5299420395911
 31
0.0
1001
PHOENIX7010
1002
{
1070
    41
1040
0.6666666666666666
1002
}
  0
LINE
  5
4F
330
18
100
AcDbEntity
  8
BZA45776
  6
Continuous
 62
     1
100
AcDbLine
 10
150.4376944969792
 20
166.1873059311926
 30
0.0
 11
147.8351249169011
 21
165.8446698227942
 31
0.0
1001
PHOENIX7010
1002
{
1070
    41
1040
0.6666666666666666
1002
}
  0
TEXT
  5
50
330
18
100
AcDbEntity
  8
BZA45776
 62
     5
100
AcDbText
 10
133.9143581882055
 20
166.9373059311926
 30
0.0
 40
2.625
  1
  9  
 72
     1
 11
136.9376944969792
 21
166.9373059311926
 31
0.0
100
AcDbText
1001
PHOENIX7010
1002
{
1070
    41
1040
0.6666666666666666
1002
}
  0
LINE
  5
52
330
18
100
AcDbEntity
  8
BZA45776
  6
Continuous
 62
     1
100
AcDbLine
 10
134.0876578758855
 20
199.4123196641028
 30
0.0
 11
150.4376944969792
 21
199.4123196641028
 31
0.0
1001
PHOENIX7010
1002
{
1070
    41
1040
0.6666666666666666
1002
}
  0
LINE
  5
53
330
18
100
AcDbEntity
  8
BZA45776
  6
Continuous
 62
     1
100
AcDbLine
 10
134.0876578758855
 20
184.6372876206458
 30
0.0
 11
134.0876578758855
 21
200.9123196641028
 31
0.0
1001
PHOENIX7010
1002
{
1070
    41
1040
0.6666666666666666
1002
}
  0
LINE
  5
54
330
18
100
AcDbEntity
  8
BZA45776
  6
Continuous
 62
     1
100
AcDbLine
 10
150.4376944969792
 20
194.6873059311927
 30
0.0
 11
150.4376944969792
 21
200.9123196641028
 31
0.0
1001
PHOENIX7010
1002
{
1070
    41
1040
0.6666666666666666
1002
}
  0
LINE
  5
55
330
18
100
AcDbEntity
  8
BZA45776
  6
Continuous
 62
     1
100
AcDbLine
 10
134.0876578758855
 20
199.4123196641028
 30
0.0
 11
136.6901816795964
 21
199.7549557725012
 31
0.0
1001
PHOENIX7010
1002
{
1070
    41
1040
0.6666666666666666
1002
}
  0
LINE
  5
56
330
18
100
AcDbEntity
  8
BZA45776
  6
Continuous
 62
     1
100
AcDbLine
 10
134.0876578758855
 20
199.4123196641028
 30
0.0
 11
136.6901816795964
 21
199.0696835557044
 31
0.0
1001
PHOENIX7010
1002
{
1070
    41
1040
0.6666666666666666
1002
}
  0
LINE
  5
57
330
18
100
AcDbEntity
  8
BZA45776
  6
Continuous
 62
     1
100
AcDbLine
 10
150.4376944969792
 20
199.4123196641028
 30
0.0
 11
147.8351249169011
 21
199.7549557725012
 31
0.0
1001
PHOENIX7010
1002
{
1070
    41
1040
0.6666666666666666
1002
}
  0
LINE
  5
58
330
18
100
AcDbEntity
  8
BZA45776
  6
Continuous
 62
     1
100
AcDbLine
 10
150.4376944969792
 20
199.4123196641028
 30
0.0
 11
147.8351249169011
 21
199.0696835557044
 31
0.0
1001
PHOENIX7010
1002
{
1070
    41
1040
0.6666666666666666
1002
}
  0
TEXT
  5
59
330
18
100
AcDbEntity
  8
BZA45776
 62
     5
100
AcDbText
 10
138.9814261864323
 20
200.1623196641028
 30
0.0
 40
2.625
  1
 5.5 
 72
     1
 11
142.2626761864323
 21
200.1623196641028
 31
0.0
100
AcDbText
1001
PHOENIX7010
1002
{
1070
    41
1040
0.6666666666666666
1002
}
  0
TEXT
  5
5B
330
18
100
AcDbEntity
  8
BZA45776
 62
     5
100
AcDbText
 10
157.6459617088933
 20
200.1719098130286
 30
0.0
 40
2.625
  1
M 4
100
AcDbText
1001
PHOENIX7010
1002
{
1070
    41
1040
0.6666666666666666
1002
}
  0
LINE
  5
5C
330
18
100
AcDbEntity
  8
BZA45776
  6
Continuous
 62
     1
100
AcDbLine
 10
134.0876578758855
 20
184.6372876206458
 30
0.0
 11
156.496471352448
 21
199.4123196641028
 31
0.0
1001
PHOENIX7010
1002
{
1070
    41
1040
0.6666666666666666
1002
}
  0
LINE
  5
5D
330
18
100
AcDbEntity
  8
BZA45776
  6
Continuous
 62
     1
100
AcDbLine
 10
156.496471352448
 20
199.4123196641028
 30
0.0
 11
163.1113051842351
 21
199.4123196641028
 31
0.0
1001
PHOENIX7010
1002
{
1070
    41
1040
0.6666666666666666
1002
}
  0
LINE
  5
5F
330
18
100
AcDbEntity
  8
BZA45776
  6
Continuous
 62
     1
100
AcDbLine
 10
115.9376944969792
 20
223.6372876206458
 30
0.0
 11
150.4376944969792
 21
223.6372876206458
 31
0.0
1001
PHOENIX7010
1002
{
1070
    41
1040
0.6666666666666666
1002
}
  0
LINE
  5
60
330
18
100
AcDbEntity
  8
BZA45776
  6
Continuous
 62
     1
100
AcDbLine
 10
115.9376944969792
 20
210.1373105088294
 30
0.0
 11
115.9376944969792
 21
225.1372876206458
 31
0.0
1001
PHOENIX7010
1002
{
1070
    41
1040
0.6666666666666666
1002
}
  0
LINE
  5
61
330
18
100
AcDbEntity
  8
BZA45776
  6
Continuous
 62
     1
100
AcDbLine
 10
150.4376944969792
 20
213.8871731797278
 30
0.0
 11
150.4376944969792
 21
225.1372876206458
 31
0.0
1001
PHOENIX7010
1002
{
1070
    41
1040
0.6666666666666666
1002
}
  0
LINE
  5
62
330
18
100
AcDbEntity
  8
BZA45776
  6
Continuous
 62
     1
100
AcDbLine
 10
115.9376944969792
 20
223.6372876206458
 30
0.0
 11
118.5402183006902
 21
223.9799237290442
 31
0.0
1001
PHOENIX7010
1002
{
1070
    41
1040
0.6666666666666666
1002
}
  0
LINE
  5
63
330
18
100
AcDbEntity
  8
BZA45776
  6
Continuous
 62
     1
100
AcDbLine
 10
115.9376944969792
 20
223.6372876206458
 30
0.0
 11
118.5402183006902
 21
223.2946515122474
 31
0.0
1001
PHOENIX7010
1002
{
1070
    41
1040
0.6666666666666666
1002
}
  0
LINE
  5
64
330
18
100
AcDbEntity
  8
BZA45776
  6
Continuous
 62
     1
100
AcDbLine
 10
150.4376944969792
 20
223.6372876206458
 30
0.0
 11
147.8351249169011
 21
223.9799237290442
 31
0.0
1001
PHOENIX7010
1002
{
1070
    41
1040
0.6666666666666666
1002
}
  0
LINE
  5
65
330
18
100
AcDbEntity
  8
BZA45776
  6
Continuous
 62
     1
100
AcDbLine
 10
150.4376944969792
 20
223.6372876206458
 30
0.0
 11
147.8351249169011
 21
223.2946515122474
 31
0.0
1001
PHOENIX7010
1002
{
1070
    41
1040
0.6666666666666666
1002
}
  0
TEXT
  5
66
330
18
100
AcDbEntity
  8
BZA45776
 62
     5
100
AcDbText
 10
130.5083289669178
 20
224.3872876206458
 30
0.0
 40
2.625
  1
11.5
 72
     1
 11
133.1876944969792
 21
224.3872876206458
 31
0.0
100
AcDbText
1001
PHOENIX7010
1002
{
1070
    41
1040
0.6666666666666666
1002
}
  0
LINE
  5
68
330
18
100
AcDbEntity
  8
BZA45776
  6
Continuous
 62
     1
100
AcDbLine
 10
93.43769449697925
 20
112.3370003739417
 30
0.0
 11
93.43769449697925
 21
256.9369854966224
 31
0.0
1001
PHOENIX7010
1002
{
1070
    41
1040
0.6666666666666666
1002
}
  0
LINE
  5
69
330
18
100
AcDbEntity
  8
BZA45776
  6
Continuous
 62
     1
100
AcDbLine
 10
93.43769449697925
 20
112.3370003739417
 30
0.0
 11
93.09505838858081
 21
114.9395413437903
 31
0.0
1001
PHOENIX7010
1002
{
1070
    41
1040
0.6666666666666666
1002
}
  0
LINE
  5
6A
330
18
100
AcDbEntity
  8
BZA45776
  6
Continuous
 62
     1
100
AcDbLine
 10
93.43769449697925
 20
112.3370003739417
 30
0.0
 11
93.78033060537768
 21
114.9395413437903
 31
0.0
1001
PHOENIX7010
1002
{
1070
    41
1040
0.6666666666666666
1002
}
  0
LINE
  5
6B
330
18
100
AcDbEntity
  8
BZA45776
  6
Continuous
 62
     1
100
AcDbLine
 10
93.43769449697925
 20
256.9369854966224
 30
0.0
 11
93.09505838858081
 21
254.3344388047278
 31
0.0
1001
PHOENIX7010
1002
{
1070
    41
1040
0.6666666666666666
1002
}
  0
LINE
  5
6C
330
18
100
AcDbEntity
  8
BZA45776
  6
Continuous
 62
     1
100
AcDbLine
 10
93.43769449697925
 20
256.9369854966224
 30
0.0
 11
93.78033060537768
 21
254.3344388047278
 31
0.0
1001
PHOENIX7010
1002
{
1070
    41
1040
0.6666666666666666
1002
}
  0
TEXT
  5
6D
330
18
100
AcDbEntity
  8
BZA45776
 62
     5
100
AcDbText
 10
92.68769449697925
 20
181.2769125644165
 30
0.0
 40
2.625
  1
48.2
 50
90.0
 72
     1
 11
92.68769449697925
 21
184.6369900742591
 31
0.0
100
AcDbText
1001
PHOENIX7010
1002
{
1070
    41
1040
0.6666666666666666
1002
}
  0
LINE
  5
6E
330
18
100
AcDbEntity
  8
BZA45776
  6
Continuous
 62
     1
100
AcDbLine
 10
150.4376944969792
 20
256.9369854966224
 30
0.0
 11
91.93769449697924
 21
256.9369854966224
 31
0.0
1001
PHOENIX7010
1002
{
1070
    41
1040
0.6666666666666666
1002
}
  0
LINE
  5
6F
330
18
100
AcDbEntity
  8
BZA45776
  6
Continuous
 62
     1
100
AcDbLine
 10
150.4376944969792
 20
112.3370003739417
 30
0.0
 11
91.93769449697924
 21
112.3370003739417
 31
0.0
1001
PHOENIX7010
1002
{
1070
    41
1040
0.6666666666666666
1002
}
  0
LINE
  5
71
330
18
100
AcDbEntity
  8
BZA45776
  6
Continuous
 62
     1
100
AcDbLine
 10
156.4376944969792
 20
134.5369305649817
 30
0.0
 11
174.4376944969792
 21
134.5369305649817
 31
0.0
1001
PHOENIX7010
1002
{
1070
    41
1040
0.6666666666666666
1002
}
  0
LINE
  5
72
330
18
100
AcDbEntity
  8
BZA45776
  6
Continuous
 62
     1
100
AcDbLine
 10
156.4376944969792
 20
234.7369122544348
 30
0.0
 11
174.4376944969792
 21
234.7369122544348
 31
0.0
1001
PHOENIX7010
1002
{
1070
    41
1040
0.6666666666666666
1002
}
  0
LINE
  5
73
330
18
100
AcDbEntity
  8
BZA45776
  6
Continuous
 62
     1
100
AcDbLine
 10
172.9376944969792
 20
134.5369305649817
 30
0.0
 11
172.9376944969792
 21
234.7369122544348
 31
0.0
1001
PHOENIX7010
1002
{
1070
    41
1040
0.6666666666666666
1002
}
  0
LINE
  5
74
330
18
100
AcDbEntity
  8
BZA45776
  6
Continuous
 62
     1
100
AcDbLine
 10
172.9376944969792
 20
134.5369305649817
 30
0.0
 11
172.5950583885808
 21
137.1394772568762
 31
0.0
1001
PHOENIX7010
1002
{
1070
    41
1040
0.6666666666666666
1002
}
  0
LINE
  5
75
330
18
100
AcDbEntity
  8
BZA45776
  6
Continuous
 62
     1
100
AcDbLine
 10
172.9376944969792
 20
134.5369305649817
 30
0.0
 11
173.2803306053777
 21
137.1394772568762
 31
0.0
1001
PHOENIX7010
1002
{
1070
    41
1040
0.6666666666666666
1002
}
  0
LINE
  5
76
330
18
100
AcDbEntity
  8
BZA45776
  6
Continuous
 62
     1
100
AcDbLine
 10
172.9376944969792
 20
234.7369122544348
 30
0.0
 11
172.5950583885808
 21
232.1343655625403
 31
0.0
1001
PHOENIX7010
1002
{
1070
    41
1040
0.6666666666666666
1002
}
  0
LINE
  5
77
330
18
100
AcDbEntity
  8
BZA45776
  6
Continuous
 62
     1
100
AcDbLine
 10
172.9376944969792
 20
234.7369122544348
 30
0.0
 11
173.2803306053777
 21
232.1343655625403
 31
0.0
1001
PHOENIX7010
1002
{
1070
    41
1040
0.6666666666666666
1002
}
  0
TEXT
  5
78
330
18
100
AcDbEntity
  8
BZA45776
 62
     5
100
AcDbText
 10
172.1876944969792
 20
181.3556714097083
 30
0.0
 40
2.625
  1
33.4
 50
90.0
 72
     1
 11
172.1876944969792
 21
184.6369214097083
 31
0.0
100
AcDbText
1001
PHOENIX7010
1002
{
1070
    41
1040
0.6666666666666666
1002
}
  0
LINE
  5
7A
330
18
100
AcDbEntity
  8
BZA45776
  6
Continuous
 62
     1
100
AcDbLine
 10
128.2376670311589
 20
97.3369774857581
 30
0.0
 11
130.840236611237
 21
96.99434137735966
 31
0.0
1001
PHOENIX7010
1002
{
1070
    41
1040
0.6666666666666666
1002
}
  0
LINE
  5
7B
330
18
100
AcDbEntity
  8
BZA45776
  6
Continuous
 62
     1
100
AcDbLine
 10
128.2376670311589
 20
97.3369774857581
 30
0.0
 11
130.840236611237
 21
97.67961359415654
 31
0.0
1001
PHOENIX7010
1002
{
1070
    41
1040
0.6666666666666666
1002
}
  0
LINE
  5
7C
330
18
100
AcDbEntity
  8
BZA45776
  6
Continuous
 62
     1
100
AcDbLine
 10
128.2376670311589
 20
97.3369774857581
 30
0.0
 11
134.8377036522527
 21
97.3369774857581
 31
0.0
1001
PHOENIX7010
1002
{
1070
    41
1040
0.6666666666666666
1002
}
  0
LINE
  5
7D
330
18
100
AcDbEntity
  8
BZA45776
  6
Continuous
 62
     1
100
AcDbLine
 10
134.8377036522527
 20
97.3369774857581
 30
0.0
 11
132.2351798485417
 21
96.99434137735966
 31
0.0
1001
PHOENIX7010
1002
{
1070
    41
1040
0.6666666666666666
1002
}
  0
TEXT
  5
7E
330
18
100
AcDbEntity
  8
BZA45776
 62
     5
100
AcDbText
 10
129.5640372704167
 20
98.16027689371708
 30
0.0
 40
2.625
  1
2.2
100
AcDbText
1001
PHOENIX7010
1002
{
1070
    41
1040
0.6666666666666666
1002
}
  0
LINE
  5
7F
330
18
100
AcDbEntity
  8
BZA45776
  6
Continuous
 62
     1
100
AcDbLine
 10
134.8377036522527
 20
97.3369774857581
 30
0.0
 11
132.2351798485417
 21
97.67961359415654
 31
0.0
1001
PHOENIX7010
1002
{
1070
    41
1040
0.6666666666666666
1002
}
  0
LINE
  5
80
330
18
100
AcDbEntity
  8
BZA45776
  6
Continuous
 62
     1
100
AcDbLine
 10
128.2376670311589
 20
160.4873242417395
 30
0.0
 11
128.2376670311589
 21
95.8369717637122
 31
0.0
1001
PHOENIX7010
1002
{
1070
    41
1040
0.6666666666666666
1002
}
  0
LINE
  5
81
330
18
100
AcDbEntity
  8
BZA45776
  6
Continuous
 62
     1
100
AcDbLine
 10
134.8377494286199
 20
160.4873242417395
 30
0.0
 11
134.8377036522527
 21
95.8369717637122
 31
0.0
1001
PHOENIX7010
1002
{
1070
    41
1040
0.6666666666666666
1002
}
  0
TEXT
  5
83
330
18
100
AcDbEntity
  8
BZA45776
 62
     5
100
AcDbText
 10
135.8173179100652
 20
105.8232922593177
 30
0.0
 40
2.625
  1
1.2
100
AcDbText
1001
PHOENIX7010
1002
{
1070
    41
1040
0.6666666666666666
1002
}
  0
LINE
  5
85
330
18
100
AcDbEntity
  8
BZA45776
  6
Continuous
 62
     1
100
AcDbLine
 10
140.8376578758855
 20
104.8369946518958
 30
0.0
 11
138.2350882958073
 21
105.1796307602942
 31
0.0
1001
PHOENIX7010
1002
{
1070
    41
1040
0.6666666666666666
1002
}
  0
LINE
  5
86
330
18
100
AcDbEntity
  8
BZA45776
  6
Continuous
 62
     1
100
AcDbLine
 10
140.8376578758855
 20
104.8369946518958
 30
0.0
 11
138.2350882958073
 21
104.4943585434973
 31
0.0
1001
PHOENIX7010
1002
{
1070
    41
1040
0.6666666666666666
1002
}
  0
LINE
  5
87
330
18
100
AcDbEntity
  8
BZA45776
  6
Continuous
 62
     1
100
AcDbLine
 10
135.5876578758855
 20
104.8369946518958
 30
0.0
 11
144.4376944969792
 21
104.8369946518958
 31
0.0
1001
PHOENIX7010
1002
{
1070
    41
1040
0.6666666666666666
1002
}
  0
LINE
  5
88
330
18
100
AcDbEntity
  8
BZA45776
  6
Continuous
 62
     1
100
AcDbLine
 10
144.4376944969792
 20
108.2914395371497
 30
0.0
 11
144.4376944969792
 21
103.3369946518958
 31
0.0
1001
PHOENIX7010
1002
{
1070
    41
1040
0.6666666666666666
1002
}
  0
LINE
  5
89
330
18
100
AcDbEntity
  8
BZA45776
  6
Continuous
 62
     1
100
AcDbLine
 10
140.8376578758855
 20
160.4872784653723
 30
0.0
 11
140.8376578758855
 21
103.3369946518958
 31
0.0
1001
PHOENIX7010
1002
{
1070
    41
1040
0.6666666666666666
1002
}
  0
LINE
  5
8B
330
18
100
AcDbEntity
  8
BZA45776
  6
Continuous
 62
     1
100
AcDbLine
 10
134.8376578758855
 20
97.3369774857581
 30
0.0
 11
150.4376944969792
 21
97.3369774857581
 31
0.0
1001
PHOENIX7010
1002
{
1070
    41
1040
0.6666666666666666
1002
}
  0
LINE
  5
8C
330
18
100
AcDbEntity
  8
BZA45776
  6
Continuous
 62
     1
100
AcDbLine
 10
150.4376944969792
 20
104.8370118180335
 30
0.0
 11
150.4376944969792
 21
95.8369774857581
 31
0.0
1001
PHOENIX7010
1002
{
1070
    41
1040
0.6666666666666666
1002
}
  0
LINE
  5
8D
330
18
100
AcDbEntity
  8
BZA45776
  6
Continuous
 62
     1
100
AcDbLine
 10
134.8376578758855
 20
97.3369774857581
 30
0.0
 11
137.4402274559636
 21
97.67961359415654
 31
0.0
1001
PHOENIX7010
1002
{
1070
    41
1040
0.6666666666666666
1002
}
  0
LINE
  5
8E
330
18
100
AcDbEntity
  8
BZA45776
  6
Continuous
 62
     1
100
AcDbLine
 10
134.8376578758855
 20
97.3369774857581
 30
0.0
 11
137.4402274559636
 21
96.99434137735966
 31
0.0
1001
PHOENIX7010
1002
{
1070
    41
1040
0.6666666666666666
1002
}
  0
LINE
  5
8F
330
18
100
AcDbEntity
  8
BZA45776
  6
Continuous
 62
     1
100
AcDbLine
 10
150.4376944969792
 20
97.3369774857581
 30
0.0
 11
147.8351249169011
 21
97.67961359415654
 31
0.0
1001
PHOENIX7010
1002
{
1070
    41
1040
0.6666666666666666
1002
}
  0
LINE
  5
90
330
18
100
AcDbEntity
  8
BZA45776
  6
Continuous
 62
     1
100
AcDbLine
 10
150.4376944969792
 20
97.3369774857581
 30
0.0
 11
147.8351249169011
 21
96.99434137735966
 31
0.0
1001
PHOENIX7010
1002
{
1070
    41
1040
0.6666666666666666
1002
}
  0
TEXT
  5
91
330
18
100
AcDbEntity
  8
BZA45776
 62
     5
100
AcDbText
 10
139.8814261864323
 20
98.08697748575809
 30
0.0
 40
2.625
  1
5.2 
 72
     1
 11
142.6376761864323
 21
98.08697748575809
 31
0.0
100
AcDbText
1001
PHOENIX7010
1002
{
1070
    41
1040
0.6666666666666666
1002
}
  0
TEXT
  5
93
330
18
100
AcDbEntity
  8
BZA45776
 62
     5
100
AcDbText
 10
146.0958060692449
 20
105.5789208451331
 30
0.0
 40
2.625
  1
 2 
100
AcDbText
1001
PHOENIX7010
1002
{
1070
    41
1040
0.6666666666666666
1002
}
  0
LINE
  5
94
330
18
100
AcDbEntity
  8
BZA45776
  6
Continuous
 62
     1
100
AcDbLine
 10
144.4376944969792
 20
104.8370003739417
 30
0.0
 11
147.0402183006902
 21
105.1796364823401
 31
0.0
1001
PHOENIX7010
1002
{
1070
    41
1040
0.6666666666666666
1002
}
  0
LINE
  5
95
330
18
100
AcDbEntity
  8
BZA45776
  6
Continuous
 62
     1
100
AcDbLine
 10
144.4376944969792
 20
104.8370003739417
 30
0.0
 11
150.4376944969792
 21
104.8370003739417
 31
0.0
1001
PHOENIX7010
1002
{
1070
    41
1040
0.6666666666666666
1002
}
  0
LINE
  5
96
330
18
100
AcDbEntity
  8
BZA45776
  6
Continuous
 62
     1
100
AcDbLine
 10
144.4376944969792
 20
104.8370003739417
 30
0.0
 11
147.0402183006902
 21
104.4943642655432
 31
0.0
1001
PHOENIX7010
1002
{
1070
    41
1040
0.6666666666666666
1002
}
  0
LINE
  5
97
330
18
100
AcDbEntity
  8
BZA45776
  6
Continuous
 62
     1
100
AcDbLine
 10
150.4376944969792
 20
104.8370003739417
 30
0.0
 11
147.8351249169011
 21
104.4943642655432
 31
0.0
1001
PHOENIX7010
1002
{
1070
    41
1040
0.6666666666666666
1002
}
  0
LINE
  5
98
330
18
100
AcDbEntity
  8
BZA45776
  6
Continuous
 62
     1
100
AcDbLine
 10
150.4376944969792
 20
104.8370003739417
 30
0.0
 11
147.8351249169011
 21
105.1796364823401
 31
0.0
1001
PHOENIX7010
1002
{
1070
    41
1040
0.6666666666666666
1002
}
  0
LINE
  5
99
330
18
100
AcDbEntity
  8
BZA45776
  6
Continuous
 62
     1
100
AcDbLine
 10
144.4376944969792
 20
160.4873242417395
 30
0.0
 11
144.4376944969792
 21
103.3369946518958
 31
0.0
1001
PHOENIX7010
1002
{
1070
    41
1040
0.6666666666666666
1002
}
  0
LINE
  5
9A
330
18
100
AcDbEntity
  8
BZA45776
  6
Continuous
 62
     1
100
AcDbLine
 10
150.4376944969792
 20
153.137104515177
 30
0.0
 11
150.4376944969792
 21
103.3369946518958
 31
0.0
1001
PHOENIX7010
1002
{
1070
    41
1040
0.6666666666666666
1002
}
  0
TEXT
  5
9C
330
18
100
AcDbEntity
  8
BZA45776
 62
     5
100
AcDbText
 10
152.0958060692448
 20
98.0789208451331
 30
0.0
 40
2.625
  1
 2 
100
AcDbText
1001
PHOENIX7010
1002
{
1070
    41
1040
0.6666666666666666
1002
}
  0
LINE
  5
9D
330
18
100
AcDbEntity
  8
BZA45776
  6
Continuous
 62
     1
100
AcDbLine
 10
150.4376944969792
 20
97.3370003739417
 30
0.0
 11
153.0402183006902
 21
97.67963648234013
 31
0.0
1001
PHOENIX7010
1002
{
1070
    41
1040
0.6666666666666666
1002
}
  0
LINE
  5
9E
330
18
100
AcDbEntity
  8
BZA45776
  6
Continuous
 62
     1
100
AcDbLine
 10
150.4376944969792
 20
97.3370003739417
 30
0.0
 11
156.4376944969792
 21
97.3370003739417
 31
0.0
1001
PHOENIX7010
1002
{
1070
    41
1040
0.6666666666666666
1002
}
  0
LINE
  5
9F
330
18
100
AcDbEntity
  8
BZA45776
  6
Continuous
 62
     1
100
AcDbLine
 10
150.4376944969792
 20
97.3370003739417
 30
0.0
 11
153.0402183006902
 21
96.99436426554326
 31
0.0
1001
PHOENIX7010
1002
{
1070
    41
1040
0.6666666666666666
1002
}
  0
LINE
  5
A0
330
18
100
AcDbEntity
  8
BZA45776
  6
Continuous
 62
     1
100
AcDbLine
 10
156.4376944969792
 20
97.3370003739417
 30
0.0
 11
153.8351249169011
 21
96.99436426554326
 31
0.0
1001
PHOENIX7010
1002
{
1070
    41
1040
0.6666666666666666
1002
}
  0
LINE
  5
A1
330
18
100
AcDbEntity
  8
BZA45776
  6
Continuous
 62
     1
100
AcDbLine
 10
156.4376944969792
 20
97.3370003739417
 30
0.0
 11
153.8351249169011
 21
97.67963648234013
 31
0.0
1001
PHOENIX7010
1002
{
1070
    41
1040
0.6666666666666666
1002
}
  0
LINE
  5
A2
330
18
100
AcDbEntity
  8
BZA45776
  6
Continuous
 62
     1
100
AcDbLine
 10
156.4376944969792
 20
112.3369088212073
 30
0.0
 11
156.4376944969792
 21
95.83700037394169
 31
0.0
1001
PHOENIX7010
1002
{
1070
    41
1040
0.6666666666666666
1002
}
  0
LINE
  5
A4
330
18
100
AcDbEntity
  8
BZA45776
  6
Continuous
 62
     1
100
AcDbLine
 10
115.9376944969792
 20
89.83699465189578
 30
0.0
 11
156.4376944969792
 21
89.83699465189578
 31
0.0
1001
PHOENIX7010
1002
{
1070
    41
1040
0.6666666666666666
1002
}
  0
LINE
  5
A5
330
18
100
AcDbEntity
  8
BZA45776
  6
Continuous
 62
     1
100
AcDbLine
 10
115.9376944969792
 20
159.1372876206458
 30
0.0
 11
115.9376944969792
 21
88.3369946518958
 31
0.0
1001
PHOENIX7010
1002
{
1070
    41
1040
0.6666666666666666
1002
}
  0
LINE
  5
A6
330
18
100
AcDbEntity
  8
BZA45776
  6
Continuous
 62
     1
100
AcDbLine
 10
156.4376944969792
 20
97.3369946518958
 30
0.0
 11
156.4376944969792
 21
88.3369946518958
 31
0.0
1001
PHOENIX7010
1002
{
1070
    41
1040
0.6666666666666666
1002
}
  0
LINE
  5
A7
330
18
100
AcDbEntity
  8
BZA45776
  6
Continuous
 62
     1
100
AcDbLine
 10
115.9376944969792
 20
89.83699465189578
 30
0.0
 11
118.5402411888738
 21
90.17962503824833
 31
0.0
1001
PHOENIX7010
1002
{
1070
    41
1040
0.6666666666666666
1002
}
  0
LINE
  5
A8
330
18
100
AcDbEntity
  8
BZA45776
  6
Continuous
 62
     1
100
AcDbLine
 10
115.9376944969792
 20
89.83699465189578
 30
0.0
 11
118.5402411888738
 21
89.49436426554326
 31
0.0
1001
PHOENIX7010
1002
{
1070
    41
1040
0.6666666666666666
1002
}
  0
LINE
  5
A9
330
18
100
AcDbEntity
  8
BZA45776
  6
Continuous
 62
     1
100
AcDbLine
 10
156.4376944969792
 20
89.83699465189578
 30
0.0
 11
153.8351478050847
 21
90.17962503824833
 31
0.0
1001
PHOENIX7010
1002
{
1070
    41
1040
0.6666666666666666
1002
}
  0
LINE
  5
AA
330
18
100
AcDbEntity
  8
BZA45776
  6
Continuous
 62
     1
100
AcDbLine
 10
156.4376944969792
 20
89.83699465189578
 30
0.0
 11
153.8351478050847
 21
89.49436426554326
 31
0.0
1001
PHOENIX7010
1002
{
1070
    41
1040
0.6666666666666666
1002
}
  0
TEXT
  5
AB
330
18
100
AcDbEntity
  8
BZA45776
 62
     5
100
AcDbText
 10
133.2458289669177
 20
90.5869946518958
 30
0.0
 40
2.625
  1
13.5
 72
     1
 11
136.1876944969792
 21
90.5869946518958
 31
0.0
100
AcDbText
1001
PHOENIX7010
1002
{
1070
    41
1040
0.6666666666666666
1002
}
  0
LINE
  5
AD
330
18
100
AcDbEntity
  8
BZA45776
  6
Continuous
 62
     1
100
AcDbLine
 10
150.4376944969792
 20
231.1372876206458
 30
0.0
 11
153.0402297447819
 21
231.4799237290442
 31
0.0
1001
PHOENIX7010
1002
{
1070
    41
1040
0.6666666666666666
1002
}
  0
LINE
  5
AE
330
18
100
AcDbEntity
  8
BZA45776
  6
Continuous
 62
     1
100
AcDbLine
 10
150.4376944969792
 20
231.1372876206458
 30
0.0
 11
153.0402297447819
 21
230.7946515122473
 31
0.0
1001
PHOENIX7010
1002
{
1070
    41
1040
0.6666666666666666
1002
}
  0
LINE
  5
AF
330
18
100
AcDbEntity
  8
BZA45776
  6
Continuous
 62
     1
100
AcDbLine
 10
134.5177783440251
 20
231.1372876206458
 30
0.0
 11
156.4838942955632
 21
231.1372876206458
 31
0.0
1001
PHOENIX7010
1002
{
1070
    41
1040
0.6666666666666666
1002
}
  0
LINE
  5
B0
330
18
100
AcDbEntity
  8
BZA45776
  6
Continuous
 62
     1
100
AcDbLine
 10
142.7876395653386
 20
231.1372876206458
 30
0.0
 11
140.18509859549
 21
230.7946515122473
 31
0.0
1001
PHOENIX7010
1002
{
1070
    41
1040
0.6666666666666666
1002
}
  0
LINE
  5
B1
330
18
100
AcDbEntity
  8
BZA45776
  6
Continuous
 62
     1
100
AcDbLine
 10
142.7876395653386
 20
231.1372876206458
 30
0.0
 11
140.18509859549
 21
231.4799237290442
 31
0.0
1001
PHOENIX7010
1002
{
1070
    41
1040
0.6666666666666666
1002
}
  0
TEXT
  5
B2
330
18
100
AcDbEntity
  8
BZA45776
 62
     5
100
AcDbText
 10
135.1652875784737
 20
231.946831230265
 30
0.0
 40
2.625
  1
2.5
 72
     1
 11
137.4175738762517
 21
231.946831230265
 31
0.0
100
AcDbText
1001
PHOENIX7010
1002
{
1070
    41
1040
0.6666666666666666
1002
}
  0
LINE
  5
B3
330
18
100
AcDbEntity
  8
BZA45776
  6
Continuous
 62
     1
100
AcDbLine
 10
150.4376944969792
 20
240.736958030802
 30
0.0
 11
150.4376944969792
 21
223.6372876206458
 31
0.0
1001
PHOENIX7010
1002
{
1070
    41
1040
0.6666666666666666
1002
}
  0
LINE
  5
B5
330
18
100
AcDbEntity
  8
BZA45776
  6
Continuous
 62
     1
100
AcDbLine
 10
135.2876395653386
 20
240.7370495835364
 30
0.0
 11
135.2876395653386
 21
256.9369854966224
 31
0.0
1001
PHOENIX7010
1002
{
1070
    41
1040
0.6666666666666666
1002
}
  0
LINE
  5
B6
330
18
100
AcDbEntity
  8
BZA45776
  6
Continuous
 62
     1
100
AcDbLine
 10
142.7876395653386
 20
240.7370495835364
 30
0.0
 11
133.7876395653386
 21
240.7370495835364
 31
0.0
1001
PHOENIX7010
1002
{
1070
    41
1040
0.6666666666666666
1002
}
  0
LINE
  5
B7
330
18
100
AcDbEntity
  8
BZA45776
  6
Continuous
 62
     1
100
AcDbLine
 10
150.4376944969792
 20
256.9369854966224
 30
0.0
 11
133.7876395653386
 21
256.9369854966224
 31
0.0
1001
PHOENIX7010
1002
{
1070
    41
1040
0.6666666666666666
1002
}
  0
LINE
  5
B8
330
18
100
AcDbEntity
  8
BZA45776
  6
Continuous
 62
     1
100
AcDbLine
 10
135.2876395653386
 20
240.7370495835364
 30
0.0
 11
134.9450091789861
 21
243.339596275431
 31
0.0
1001
PHOENIX7010
1002
{
1070
    41
1040
0.6666666666666666
1002
}
  0
LINE
  5
B9
330
18
100
AcDbEntity
  8
BZA45776
  6
Continuous
 62
     1
100
AcDbLine
 10
135.2876395653386
 20
240.7370495835364
 30
0.0
 11
135.6302699516911
 21
243.339596275431
 31
0.0
1001
PHOENIX7010
1002
{
1070
    41
1040
0.6666666666666666
1002
}
  0
LINE
  5
BA
330
18
100
AcDbEntity
  8
BZA45776
  6
Continuous
 62
     1
100
AcDbLine
 10
135.2876395653386
 20
256.9369854966224
 30
0.0
 11
134.9450091789861
 21
254.3344388047278
 31
0.0
1001
PHOENIX7010
1002
{
1070
    41
1040
0.6666666666666666
1002
}
  0
LINE
  5
BB
330
18
100
AcDbEntity
  8
BZA45776
  6
Continuous
 62
     1
100
AcDbLine
 10
135.2876395653386
 20
256.9369854966224
 30
0.0
 11
135.6302699516911
 21
254.3344388047278
 31
0.0
1001
PHOENIX7010
1002
{
1070
    41
1040
0.6666666666666666
1002
}
  0
TEXT
  5
BC
330
18
100
AcDbEntity
  8
BZA45776
 62
     5
100
AcDbText
 10
134.5376395653386
 20
245.4245175400794
 30
0.0
 40
2.625
  1
 5.4 
 50
90.0
 72
     1
 11
134.5376395653386
 21
248.8370175400794
 31
0.0
100
AcDbText
1001
PHOENIX7010
1002
{
1070
    41
1040
0.6666666666666666
1002
}
  0
LINE
  5
BE
330
18
100
AcDbEntity
  8
BZA45776
 62
     1
100
AcDbLine
 10
150.4376944969792
 20
255.1744809189856
 30
0.0
 11
156.4376944969792
 21
255.1744809189856
 31
0.0
1001
PHOENIX7010
1002
{
1070
    41
1040
0.6666666666666666
1002
}
  0
LINE
  5
BF
330
18
100
AcDbEntity
  8
BZA45776
 62
     1
100
AcDbLine
 10
147.4376944969792
 20
253.2994809189856
 30
0.0
 11
159.4376944969792
 21
253.2994809189856
 31
0.0
1001
PHOENIX7010
1002
{
1070
    41
1040
0.6666666666666666
1002
}
  0
LINE
  5
C0
330
18
100
AcDbEntity
  8
BZA45776
 62
     1
100
AcDbLine
 10
150.4376944969792
 20
251.4244809189857
 30
0.0
 11
156.4376944969792
 21
251.4244809189857
 31
0.0
1001
PHOENIX7010
1002
{
1070
    41
1040
0.6666666666666666
1002
}
  0
LINE
  5
C1
330
18
100
AcDbEntity
  8
BZA45776
 62
     1
100
AcDbLine
 10
150.4376944969792
 20
117.8494992295325
 30
0.0
 11
156.4376944969792
 21
117.8494992295325
 31
0.0
1001
PHOENIX7010
1002
{
1070
    41
1040
0.6666666666666666
1002
}
  0
LINE
  5
C2
330
18
100
AcDbEntity
  8
BZA45776
 62
     1
100
AcDbLine
 10
147.4376944969792
 20
115.9744992295325
 30
0.0
 11
159.4376944969792
 21
115.9744992295325
 31
0.0
1001
PHOENIX7010
1002
{
1070
    41
1040
0.6666666666666666
1002
}
  0
LINE
  5
C3
330
18
100
AcDbEntity
  8
BZA45776
 62
     1
100
AcDbLine
 10
150.4376944969792
 20
114.0994992295325
 30
0.0
 11
156.4376944969792
 21
114.0994992295325
 31
0.0
1001
PHOENIX7010
1002
{
1070
    41
1040
0.6666666666666666
1002
}
  0
LINE
  5
C6
330
18
100
AcDbEntity
  8
30
  6
Continuous
 62
     7
100
AcDbLine
 10
156.4376944969792
 20
256.9369397202552
 30
0.0
 11
150.4376944969792
 21
256.9369854966224
 31
0.0
1001
PHOENIX7010
1002
{
1070
    41
1040
0.6666666666666666
1002
}
  0
LINE
  5
C7
330
18
100
AcDbEntity
  8
30
  6
Continuous
 62
     7
100
AcDbLine
 10
156.4376944969792
 20
253.5619854966224
 30
0.0
 11
156.4376944969792
 21
256.9369397202552
 31
0.0
1001
PHOENIX7010
1002
{
1070
    41
1040
0.6666666666666666
1002
}
  0
LINE
  5
C8
330
18
100
AcDbEntity
  8
30
  6
Continuous
 62
     7
100
AcDbLine
 10
150.4376944969792
 20
256.9369854966224
 30
0.0
 11
150.4376944969792
 21
253.5619854966224
 31
0.0
1001
PHOENIX7010
1002
{
1070
    41
1040
0.6666666666666666
1002
}
  0
LINE
  5
C9
330
18
100
AcDbEntity
  8
30
  6
Continuous
 62
     7
100
AcDbLine
 10
148.7876395653386
 20
153.137104515177
 30
0.0
 11
150.4375113915105
 21
153.137104515177
 31
0.0
1001
PHOENIX7010
1002
{
1070
    41
1040
0.6666666666666666
1002
}
  0
LINE
  5
CA
330
18
100
AcDbEntity
  8
30
  6
Continuous
 62
     7
100
AcDbLine
 10
150.4375113915105
 20
153.137104515177
 30
0.0
 11
150.4375113915105
 21
162.4369397202551
 31
0.0
1001
PHOENIX7010
1002
{
1070
    41
1040
0.6666666666666666
1002
}
  0
LINE
  5
CB
330
18
100
AcDbEntity
  8
30
  6
Continuous
 62
     7
100
AcDbLine
 10
150.4376944969792
 20
206.8369488755286
 30
0.0
 11
150.4376944969792
 21
216.1369671860755
 31
0.0
1001
PHOENIX7010
1002
{
1070
    41
1040
0.6666666666666666
1002
}
  0
LINE
  5
CC
330
18
100
AcDbEntity
  8
30
  6
Continuous
 62
     7
100
AcDbLine
 10
150.4376944969792
 20
216.1369671860755
 30
0.0
 11
148.7876395653386
 21
216.1369671860755
 31
0.0
1001
PHOENIX7010
1002
{
1070
    41
1040
0.6666666666666666
1002
}
  0
LINE
  5
CD
330
18
100
AcDbEntity
  8
30
  6
Continuous
 62
     7
100
AcDbLine
 10
144.4376944969792
 20
206.2373242417395
 30
0.0
 11
149.8376578758855
 21
206.2370038071692
 31
0.0
1001
PHOENIX7010
1002
{
1070
    41
1040
0.6666666666666666
1002
}
  0
LINE
  5
CE
330
18
100
AcDbEntity
  8
30
  6
Continuous
 62
     7
100
AcDbLine
 10
144.4376944969792
 20
208.7872967759192
 30
0.0
 11
144.4376944969792
 21
206.2373242417395
 31
0.0
1001
PHOENIX7010
1002
{
1070
    41
1040
0.6666666666666666
1002
}
  0
LINE
  5
CF
330
18
100
AcDbEntity
  8
30
  6
Continuous
 62
     7
100
AcDbLine
 10
140.8376578758855
 20
206.2373242417395
 30
0.0
 11
140.8376578758855
 21
208.7872967759192
 31
0.0
1001
PHOENIX7010
1002
{
1070
    41
1040
0.6666666666666666
1002
}
  0
LINE
  5
D0
330
18
100
AcDbEntity
  8
30
  6
Continuous
 62
     7
100
AcDbLine
 10
134.8376578758855
 20
206.2373242417395
 30
0.0
 11
140.8376578758855
 21
206.2373242417395
 31
0.0
1001
PHOENIX7010
1002
{
1070
    41
1040
0.6666666666666666
1002
}
  0
LINE
  5
D1
330
18
100
AcDbEntity
  8
30
  6
Continuous
 62
     7
100
AcDbLine
 10
134.8376578758855
 20
208.7872967759192
 30
0.0
 11
134.8376578758855
 21
206.2373242417395
 31
0.0
1001
PHOENIX7010
1002
{
1070
    41
1040
0.6666666666666666
1002
}
  0
LINE
  5
D2
330
18
100
AcDbEntity
  8
30
  6
Continuous
 62
     7
100
AcDbLine
 10
128.2377128075261
 20
208.7872967759192
 30
0.0
 11
134.8376349877019
 21
208.7872967759192
 31
0.0
1001
PHOENIX7010
1002
{
1070
    41
1040
0.6666666666666666
1002
}
  0
LINE
  5
D3
330
18
100
AcDbEntity
  8
30
  6
Continuous
 62
     7
100
AcDbLine
 10
128.2377128075261
 20
206.2373242417395
 30
0.0
 11
128.2377128075261
 21
208.7872967759192
 31
0.0
1001
PHOENIX7010
1002
{
1070
    41
1040
0.6666666666666666
1002
}
  0
LINE
  5
D4
330
18
100
AcDbEntity
  8
30
  6
Continuous
 62
     7
100
AcDbLine
 10
125.8376578758855
 20
206.2373242417395
 30
0.0
 11
128.2377128075261
 21
206.2373242417395
 31
0.0
1001
PHOENIX7010
1002
{
1070
    41
1040
0.6666666666666666
1002
}
  0
LINE
  5
D5
330
18
100
AcDbEntity
  8
30
  6
Continuous
 62
     7
100
AcDbLine
 10
123.4376944969792
 20
197.9873242417395
 30
0.0
 11
123.4376944969792
 21
203.8373150864661
 31
0.0
1001
PHOENIX7010
1002
{
1070
    41
1040
0.6666666666666666
1002
}
  0
LINE
  5
D6
330
18
100
AcDbEntity
  8
30
  6
Continuous
 62
     7
100
AcDbLine
 10
128.2377128075261
 20
195.5873150864661
 30
0.0
 11
125.8376578758855
 21
195.5873150864661
 31
0.0
1001
PHOENIX7010
1002
{
1070
    41
1040
0.6666666666666666
1002
}
  0
LINE
  5
D7
330
18
100
AcDbEntity
  8
30
  6
Continuous
 62
     7
100
AcDbLine
 10
128.2377128075261
 20
193.0372967759192
 30
0.0
 11
128.2377128075261
 21
195.5873150864661
 31
0.0
1001
PHOENIX7010
1002
{
1070
    41
1040
0.6666666666666666
1002
}
  0
LINE
  5
D8
330
18
100
AcDbEntity
  8
30
  6
Continuous
 62
     7
100
AcDbLine
 10
134.8376578758855
 20
193.0372967759192
 30
0.0
 11
128.2377128075261
 21
193.0372967759192
 31
0.0
1001
PHOENIX7010
1002
{
1070
    41
1040
0.6666666666666666
1002
}
  0
LINE
  5
D9
330
18
100
AcDbEntity
  8
30
  6
Continuous
 62
     7
100
AcDbLine
 10
134.8376578758855
 20
195.5873150864661
 30
0.0
 11
134.8376578758855
 21
193.0372967759192
 31
0.0
1001
PHOENIX7010
1002
{
1070
    41
1040
0.6666666666666666
1002
}
  0
LINE
  5
DA
330
18
100
AcDbEntity
  8
30
  6
Continuous
 62
     7
100
AcDbLine
 10
140.8347281883855
 20
195.5873150864661
 30
0.0
 11
134.8376578758855
 21
195.5873150864661
 31
0.0
1001
PHOENIX7010
1002
{
1070
    41
1040
0.6666666666666666
1002
}
  0
LINE
  5
DB
330
18
100
AcDbEntity
  8
30
  6
Continuous
 62
     7
100
AcDbLine
 10
140.8347281883855
 20
193.0372967759192
 30
0.0
 11
140.8347281883855
 21
195.5873150864661
 31
0.0
1001
PHOENIX7010
1002
{
1070
    41
1040
0.6666666666666666
1002
}
  0
LINE
  5
DC
330
18
100
AcDbEntity
  8
30
  6
Continuous
 62
     7
100
AcDbLine
 10
144.4376944969792
 20
195.5873150864661
 30
0.0
 11
144.4346732567449
 21
193.0372967759192
 31
0.0
1001
PHOENIX7010
1002
{
1070
    41
1040
0.6666666666666666
1002
}
  0
LINE
  5
DD
330
18
100
AcDbEntity
  8
30
  6
Continuous
 62
     7
100
AcDbLine
 10
149.8376578758855
 20
195.5870862046301
 30
0.0
 11
144.4376944969792
 21
195.5873150864661
 31
0.0
1001
PHOENIX7010
1002
{
1070
    41
1040
0.6666666666666666
1002
}
  0
LINE
  5
DE
330
18
100
AcDbEntity
  8
30
  6
Continuous
 62
     7
100
AcDbLine
 10
145.0376395653386
 20
189.1372876206458
 30
0.0
 11
149.8376578758855
 21
189.1369671860755
 31
0.0
1001
PHOENIX7010
1002
{
1070
    41
1040
0.6666666666666666
1002
}
  0
LINE
  5
DF
330
18
100
AcDbEntity
  8
30
  6
Continuous
 62
     7
100
AcDbLine
 10
144.4376944969792
 20
180.7373242417395
 30
0.0
 11
144.4376944969792
 21
188.5372967759192
 31
0.0
1001
PHOENIX7010
1002
{
1070
    41
1040
0.6666666666666666
1002
}
  0
LINE
  5
E0
330
18
100
AcDbEntity
  8
30
  6
Continuous
 62
     7
100
AcDbLine
 10
149.8376578758855
 20
180.1369671860754
 30
0.0
 11
145.0376395653386
 21
180.1372876206458
 31
0.0
1001
PHOENIX7010
1002
{
1070
    41
1040
0.6666666666666666
1002
}
  0
LINE
  5
E1
330
18
100
AcDbEntity
  8
30
  6
Continuous
 62
     7
100
AcDbLine
 10
144.4376944969792
 20
173.6873059311927
 30
0.0
 11
149.8376578758855
 21
173.6870770493567
 31
0.0
1001
PHOENIX7010
1002
{
1070
    41
1040
0.6666666666666666
1002
}
  0
LINE
  5
E2
330
18
100
AcDbEntity
  8
30
  6
Continuous
 62
     7
100
AcDbLine
 10
144.4376944969792
 20
176.2373242417395
 30
0.0
 11
144.4376944969792
 21
173.6873059311927
 31
0.0
1001
PHOENIX7010
1002
{
1070
    41
1040
0.6666666666666666
1002
}
  0
LINE
  5
E3
330
18
100
AcDbEntity
  8
30
  6
Continuous
 62
     7
100
AcDbLine
 10
140.8515738915105
 20
173.6873517075598
 30
0.0
 11
140.8515738915105
 21
176.2373700181067
 31
0.0
1001
PHOENIX7010
1002
{
1070
    41
1040
0.6666666666666666
1002
}
  0
LINE
  5
E4
330
18
100
AcDbEntity
  8
30
  6
Continuous
 62
     7
100
AcDbLine
 10
134.8376578758855
 20
173.6873059311927
 30
0.0
 11
140.8515738915105
 21
173.6873517075598
 31
0.0
1001
PHOENIX7010
1002
{
1070
    41
1040
0.6666666666666666
1002
}
  0
LINE
  5
E5
330
18
100
AcDbEntity
  8
30
  6
Continuous
 62
     7
100
AcDbLine
 10
134.8376578758855
 20
176.2373242417395
 30
0.0
 11
134.8376578758855
 21
173.6873059311927
 31
0.0
1001
PHOENIX7010
1002
{
1070
    41
1040
0.6666666666666666
1002
}
  0
LINE
  5
E6
330
18
100
AcDbEntity
  8
30
  6
Continuous
 62
     7
100
AcDbLine
 10
128.2377128075261
 20
176.2373242417395
 30
0.0
 11
134.8376349877019
 21
176.2373242417395
 31
0.0
1001
PHOENIX7010
1002
{
1070
    41
1040
0.6666666666666666
1002
}
  0
LINE
  5
E7
330
18
100
AcDbEntity
  8
30
  6
Continuous
 62
     7
100
AcDbLine
 10
128.2377128075261
 20
173.6873059311927
 30
0.0
 11
128.2377128075261
 21
176.2373242417395
 31
0.0
1001
PHOENIX7010
1002
{
1070
    41
1040
0.6666666666666666
1002
}
  0
LINE
  5
E8
330
18
100
AcDbEntity
  8
30
  6
Continuous
 62
     7
100
AcDbLine
 10
125.8376578758855
 20
173.6873059311927
 30
0.0
 11
128.2377128075261
 21
173.6873059311927
 31
0.0
1001
PHOENIX7010
1002
{
1070
    41
1040
0.6666666666666666
1002
}
  0
LINE
  5
E9
330
18
100
AcDbEntity
  8
30
  6
Continuous
 62
     7
100
AcDbLine
 10
123.4376944969792
 20
171.2872967759192
 30
0.0
 11
123.4376944969792
 21
165.4373059311927
 31
0.0
1001
PHOENIX7010
1002
{
1070
    41
1040
0.6666666666666666
1002
}
  0
LINE
  5
EA
330
18
100
AcDbEntity
  8
30
  6
Continuous
 62
     7
100
AcDbLine
 10
128.2377128075261
 20
163.0372967759192
 30
0.0
 11
125.8376578758855
 21
163.0372967759192
 31
0.0
1001
PHOENIX7010
1002
{
1070
    41
1040
0.6666666666666666
1002
}
  0
LINE
  5
EB
330
18
100
AcDbEntity
  8
30
  6
Continuous
 62
     7
100
AcDbLine
 10
128.2377128075261
 20
160.4873242417395
 30
0.0
 11
128.2377128075261
 21
163.0372967759192
 31
0.0
1001
PHOENIX7010
1002
{
1070
    41
1040
0.6666666666666666
1002
}
  0
LINE
  5
EC
330
18
100
AcDbEntity
  8
30
  6
Continuous
 62
     7
100
AcDbLine
 10
134.8376578758855
 20
160.4873242417395
 30
0.0
 11
128.2377128075261
 21
160.4873242417395
 31
0.0
1001
PHOENIX7010
1002
{
1070
    41
1040
0.6666666666666666
1002
}
  0
LINE
  5
ED
330
18
100
AcDbEntity
  8
30
  6
Continuous
 62
     7
100
AcDbLine
 10
134.8376578758855
 20
163.0372967759192
 30
0.0
 11
134.8376578758855
 21
160.4873242417395
 31
0.0
1001
PHOENIX7010
1002
{
1070
    41
1040
0.6666666666666666
1002
}
  0
LINE
  5
EE
330
18
100
AcDbEntity
  8
30
  6
Continuous
 62
     7
100
AcDbLine
 10
140.8376578758855
 20
163.0372967759192
 30
0.0
 11
134.8376578758855
 21
163.0372967759192
 31
0.0
1001
PHOENIX7010
1002
{
1070
    41
1040
0.6666666666666666
1002
}
  0
LINE
  5
EF
330
18
100
AcDbEntity
  8
30
  6
Continuous
 62
     7
100
AcDbLine
 10
140.8376578758855
 20
160.4872784653723
 30
0.0
 11
140.8376578758855
 21
163.0372967759192
 31
0.0
1001
PHOENIX7010
1002
{
1070
    41
1040
0.6666666666666666
1002
}
  0
LINE
  5
F0
330
18
100
AcDbEntity
  8
30
  6
Continuous
 62
     7
100
AcDbLine
 10
144.4376944969792
 20
163.0372967759192
 30
0.0
 11
144.4376944969792
 21
160.4873242417395
 31
0.0
1001
PHOENIX7010
1002
{
1070
    41
1040
0.6666666666666666
1002
}
  0
LINE
  5
F1
330
18
100
AcDbEntity
  8
30
  6
Continuous
 62
     7
100
AcDbLine
 10
142.7876395653386
 20
155.5372967759192
 30
0.0
 11
142.7876395653386
 21
128.5370221177161
 31
0.0
1001
PHOENIX7010
1002
{
1070
    41
1040
0.6666666666666666
1002
}
  0
LINE
  5
F2
330
18
100
AcDbEntity
  8
30
  6
Continuous
 62
     7
100
AcDbLine
 10
140.3876761864323
 20
156.1372876206458
 30
0.0
 11
142.1876944969792
 21
156.1372876206458
 31
0.0
1001
PHOENIX7010
1002
{
1070
    41
1040
0.6666666666666666
1002
}
  0
LINE
  5
F3
330
18
100
AcDbEntity
  8
30
  6
Continuous
 62
     7
100
AcDbLine
 10
130.7495536278386
 20
155.2373242417395
 30
0.0
 11
139.2257804344792
 21
155.2373242417395
 31
0.0
1001
PHOENIX7010
1002
{
1070
    41
1040
0.6666666666666666
1002
}
  0
LINE
  5
F4
330
18
100
AcDbEntity
  8
30
  6
Continuous
 62
     7
100
AcDbLine
 10
127.7814139794011
 20
156.1372876206458
 30
0.0
 11
129.5876578758855
 21
156.1372876206458
 31
0.0
1001
PHOENIX7010
1002
{
1070
    41
1040
0.6666666666666666
1002
}
  0
LINE
  5
F5
330
18
100
AcDbEntity
  8
30
  6
Continuous
 62
     7
100
AcDbLine
 10
127.1814689110417
 20
153.1372876206458
 30
0.0
 11
127.1814689110417
 21
155.5372967759192
 31
0.0
1001
PHOENIX7010
1002
{
1070
    41
1040
0.6666666666666666
1002
}
  0
LINE
  5
F6
330
18
100
AcDbEntity
  8
30
  6
Continuous
 62
     7
100
AcDbLine
 10
121.9376944969792
 20
153.1372876206458
 30
0.0
 11
127.1814689110417
 21
153.1372876206458
 31
0.0
1001
PHOENIX7010
1002
{
1070
    41
1040
0.6666666666666666
1002
}
  0
LINE
  5
F7
330
18
100
AcDbEntity
  8
30
  6
Continuous
 62
     7
100
AcDbLine
 10
123.4376944969792
 20
189.1372876206458
 30
0.0
 11
123.4376944969792
 21
180.1372876206458
 31
0.0
1001
PHOENIX7010
1002
{
1070
    41
1040
0.6666666666666666
1002
}
  0
LINE
  5
F8
330
18
100
AcDbEntity
  8
30
  6
Continuous
 62
     7
100
AcDbLine
 10
127.1876944969792
 20
216.1372876206458
 30
0.0
 11
121.9376944969792
 21
216.1372876206458
 31
0.0
1001
PHOENIX7010
1002
{
1070
    41
1040
0.6666666666666666
1002
}
  0
LINE
  5
F9
330
18
100
AcDbEntity
  8
30
  6
Continuous
 62
     7
100
AcDbLine
 10
127.1845817040105
 20
213.7373242417396
 30
0.0
 11
127.1876944969792
 21
216.1372876206458
 31
0.0
1001
PHOENIX7010
1002
{
1070
    41
1040
0.6666666666666666
1002
}
  0
LINE
  5
FA
330
18
100
AcDbEntity
  8
30
  6
Continuous
 62
     7
100
AcDbLine
 10
129.5876578758855
 20
213.1372876206458
 30
0.0
 11
127.7845267723698
 21
213.1372876206458
 31
0.0
1001
PHOENIX7010
1002
{
1070
    41
1040
0.6666666666666666
1002
}
  0
LINE
  5
FB
330
18
100
AcDbEntity
  8
30
  6
Continuous
 62
     7
100
AcDbLine
 10
139.2257804344792
 20
214.0372967759192
 30
0.0
 11
130.7495536278386
 21
214.0372967759192
 31
0.0
1001
PHOENIX7010
1002
{
1070
    41
1040
0.6666666666666666
1002
}
  0
LINE
  5
FC
330
18
100
AcDbEntity
  8
30
  6
Continuous
 62
     7
100
AcDbLine
 10
142.1876944969792
 20
213.1372876206458
 30
0.0
 11
140.3876761864323
 21
213.1372876206458
 31
0.0
1001
PHOENIX7010
1002
{
1070
    41
1040
0.6666666666666666
1002
}
  0
LINE
  5
FD
330
18
100
AcDbEntity
  8
30
  6
Continuous
 62
     7
100
AcDbLine
 10
144.4376944969792
 20
160.4873242417395
 30
0.0
 11
140.8376578758855
 21
160.4872784653723
 31
0.0
1001
PHOENIX7010
1002
{
1070
    41
1040
0.6666666666666666
1002
}
  0
LINE
  5
FE
330
18
100
AcDbEntity
  8
30
  6
Continuous
 62
     7
100
AcDbLine
 10
140.8515738915105
 20
176.2373700181067
 30
0.0
 11
144.4376944969792
 21
176.2373242417395
 31
0.0
1001
PHOENIX7010
1002
{
1070
    41
1040
0.6666666666666666
1002
}
  0
LINE
  5
FF
330
18
100
AcDbEntity
  8
30
  6
Continuous
 62
     7
100
AcDbLine
 10
144.4346732567449
 20
193.0372967759192
 30
0.0
 11
140.8347281883855
 21
193.0372967759192
 31
0.0
1001
PHOENIX7010
1002
{
1070
    41
1040
0.6666666666666666
1002
}
  0
LINE
  5
100
330
18
100
AcDbEntity
  8
30
  6
Continuous
 62
     7
100
AcDbLine
 10
140.8376578758855
 20
208.7872967759192
 30
0.0
 11
144.4376944969792
 21
208.7872967759192
 31
0.0
1001
PHOENIX7010
1002
{
1070
    41
1040
0.6666666666666666
1002
}
  0
LINE
  5
101
330
18
100
AcDbEntity
  8
30
  6
Continuous
 62
     7
100
AcDbLine
 10
149.8374747704167
 20
163.0369763413489
 30
0.0
 11
144.4376944969792
 21
163.0372967759192
 31
0.0
1001
PHOENIX7010
1002
{
1070
    41
1040
0.6666666666666666
1002
}
  0
LINE
  5
102
330
18
100
AcDbEntity
  8
30
  6
Continuous
 62
     7
100
AcDbLine
 10
148.7876395653386
 20
216.1369671860755
 30
0.0
 11
148.7876395653386
 21
234.736958030802
 31
0.0
1001
PHOENIX7010
1002
{
1070
    41
1040
0.6666666666666666
1002
}
  0
LINE
  5
103
330
18
100
AcDbEntity
  8
30
  6
Continuous
 62
     7
100
AcDbLine
 10
148.7876395653386
 20
234.736958030802
 30
0.0
 11
156.4376944969792
 21
234.7369122544348
 31
0.0
1001
PHOENIX7010
1002
{
1070
    41
1040
0.6666666666666666
1002
}
  0
LINE
  5
104
330
18
100
AcDbEntity
  8
30
  6
Continuous
 62
     7
100
AcDbLine
 10
150.4376944969792
 20
240.736958030802
 30
0.0
 11
142.7876395653386
 21
240.7370495835364
 31
0.0
1001
PHOENIX7010
1002
{
1070
    41
1040
0.6666666666666666
1002
}
  0
LINE
  5
105
330
18
100
AcDbEntity
  8
30
  6
Continuous
 62
     7
100
AcDbLine
 10
142.7876395653386
 20
128.5370221177161
 30
0.0
 11
150.4376944969792
 21
128.5369763413489
 31
0.0
1001
PHOENIX7010
1002
{
1070
    41
1040
0.6666666666666666
1002
}
  0
LINE
  5
106
330
18
100
AcDbEntity
  8
30
  6
Continuous
 62
     7
100
AcDbLine
 10
150.4376944969792
 20
112.3370003739417
 30
0.0
 11
156.4376944969792
 21
112.3369088212073
 31
0.0
1001
PHOENIX7010
1002
{
1070
    41
1040
0.6666666666666666
1002
}
  0
LINE
  5
107
330
18
100
AcDbEntity
  8
30
  6
Continuous
 62
     7
100
AcDbLine
 10
156.4376944969792
 20
134.5369305649817
 30
0.0
 11
148.7876395653386
 21
134.5369763413489
 31
0.0
1001
PHOENIX7010
1002
{
1070
    41
1040
0.6666666666666666
1002
}
  0
LINE
  5
108
330
18
100
AcDbEntity
  8
30
  6
Continuous
 62
     7
100
AcDbLine
 10
148.7876395653386
 20
134.5369763413489
 30
0.0
 11
148.7876395653386
 21
153.137104515177
 31
0.0
1001
PHOENIX7010
1002
{
1070
    41
1040
0.6666666666666666
1002
}
  0
LINE
  5
109
330
18
100
AcDbEntity
  8
30
  6
Continuous
 62
     7
100
AcDbLine
 10
150.4376944969792
 20
189.736958030802
 30
0.0
 11
150.4376944969792
 21
194.9870953599036
 31
0.0
1001
PHOENIX7010
1002
{
1070
    41
1040
0.6666666666666666
1002
}
  0
LINE
  5
10A
330
18
100
AcDbEntity
  8
30
  6
Continuous
 62
     7
100
AcDbLine
 10
156.4376944969792
 20
253.5619854966224
 30
0.0
 11
156.4376944969792
 21
245.7619671860755
 31
0.0
1001
PHOENIX7010
1002
{
1070
    41
1040
0.6666666666666666
1002
}
  0
LINE
  5
10B
330
18
100
AcDbEntity
  8
30
  6
Continuous
 62
     7
100
AcDbLine
 10
156.4376944969792
 20
234.7369122544348
 30
0.0
 11
156.4376944969792
 21
245.7619671860755
 31
0.0
1001
PHOENIX7010
1002
{
1070
    41
1040
0.6666666666666666
1002
}
  0
LINE
  5
10C
330
18
100
AcDbEntity
  8
30
  6
Continuous
 62
     7
100
AcDbLine
 10
156.4376944969792
 20
123.5119671860755
 30
0.0
 11
156.4376944969792
 21
115.7119946518958
 31
0.0
1001
PHOENIX7010
1002
{
1070
    41
1040
0.6666666666666666
1002
}
  0
LINE
  5
10D
330
18
100
AcDbEntity
  8
30
  6
Continuous
 62
     7
100
AcDbLine
 10
156.4376944969792
 20
112.3369088212073
 30
0.0
 11
156.4376944969792
 21
115.7119946518958
 31
0.0
1001
PHOENIX7010
1002
{
1070
    41
1040
0.6666666666666666
1002
}
  0
LINE
  5
10E
330
18
100
AcDbEntity
  8
30
  6
Continuous
 62
     7
100
AcDbLine
 10
156.4376944969792
 20
123.5119671860755
 30
0.0
 11
156.4376944969792
 21
134.5369305649817
 31
0.0
1001
PHOENIX7010
1002
{
1070
    41
1040
0.6666666666666666
1002
}
  0
LINE
  5
10F
330
18
100
AcDbEntity
  8
30
  6
Continuous
 62
     7
100
AcDbLine
 10
150.4376944969792
 20
245.7619671860755
 30
0.0
 11
150.4376944969792
 21
240.736958030802
 31
0.0
1001
PHOENIX7010
1002
{
1070
    41
1040
0.6666666666666666
1002
}
  0
LINE
  5
110
330
18
100
AcDbEntity
  8
30
  6
Continuous
 62
     7
100
AcDbLine
 10
150.4376944969792
 20
128.5369763413489
 30
0.0
 11
150.4376944969792
 21
123.5119671860755
 31
0.0
1001
PHOENIX7010
1002
{
1070
    41
1040
0.6666666666666666
1002
}
  0
LINE
  5
111
330
18
100
AcDbEntity
  8
30
  6
Continuous
 62
     7
100
AcDbLine
 10
150.4376944969792
 20
115.7119946518958
 30
0.0
 11
150.4376944969792
 21
112.3369946518958
 31
0.0
1001
PHOENIX7010
1002
{
1070
    41
1040
0.6666666666666666
1002
}
  0
LINE
  5
112
330
18
100
AcDbEntity
  8
30
  6
Continuous
 62
     7
100
AcDbLine
 10
150.4376944969792
 20
115.7119946518958
 30
0.0
 11
150.4376944969792
 21
123.5119671860755
 31
0.0
1001
PHOENIX7010
1002
{
1070
    41
1040
0.6666666666666666
1002
}
  0
ARC
  5
113
330
18
100
AcDbEntity
  8
30
  6
Continuous
 62
     7
100
AcDbCircle
 10
145.0376395653386
 20
188.5372967759192
 30
0.0
 40
0.6000000089406968
100
AcDbArc
 50
90.00000762939448
 51
180.0
1001
PHOENIX7010
1002
{
1070
    41
1040
0.6666666666666666
1002
}
  0
ARC
  5
114
330
18
100
AcDbEntity
  8
30
  6
Continuous
 62
     7
100
AcDbCircle
 10
145.0376395653386
 20
180.7373242417395
 30
0.0
 40
0.6000000089406968
100
AcDbArc
 50
180.0
 51
270.0
1001
PHOENIX7010
1002
{
1070
    41
1040
0.6666666666666666
1002
}
  0
ARC
  5
115
330
18
100
AcDbEntity
  8
30
  6
Continuous
 62
     7
100
AcDbCircle
 10
142.1876944969792
 20
155.5372967759192
 30
0.0
 40
0.6000000089406968
100
AcDbArc
 50
0.0
 51
90.00000762939448
1001
PHOENIX7010
1002
{
1070
    41
1040
0.6666666666666666
1002
}
  0
ARC
  5
116
330
18
100
AcDbEntity
  8
30
  6
Continuous
 62
     7
100
AcDbCircle
 10
140.3876761864323
 20
155.5372967759192
 30
0.0
 40
0.6000030040740967
100
AcDbArc
 50
90.00000762939448
 51
165.5223846435544
1001
PHOENIX7010
1002
{
1070
    41
1040
0.6666666666666666
1002
}
  0
ARC
  5
117
330
18
100
AcDbEntity
  8
30
  6
Continuous
 62
     7
100
AcDbCircle
 10
139.2257804344792
 20
155.8373150864661
 30
0.0
 40
0.6000030040740967
100
AcDbArc
 50
270.0
 51
345.5223693847659
1001
PHOENIX7010
1002
{
1070
    41
1040
0.6666666666666666
1002
}
  0
ARC
  5
118
330
18
100
AcDbEntity
  8
30
  6
Continuous
 62
     7
100
AcDbCircle
 10
130.7495536278386
 20
155.8373150864661
 30
0.0
 40
0.6000030040740967
100
AcDbArc
 50
194.4776306152341
 51
270.0
1001
PHOENIX7010
1002
{
1070
    41
1040
0.6666666666666666
1002
}
  0
ARC
  5
119
330
18
100
AcDbEntity
  8
30
  6
Continuous
 62
     7
100
AcDbCircle
 10
129.5876578758855
 20
155.5372967759192
 30
0.0
 40
0.6000030040740967
100
AcDbArc
 50
14.47763252258308
 51
90.00000953674309
1001
PHOENIX7010
1002
{
1070
    41
1040
0.6666666666666666
1002
}
  0
ARC
  5
11A
330
18
100
AcDbEntity
  8
30
  6
Continuous
 62
     7
100
AcDbCircle
 10
127.7814139794011
 20
155.5372967759192
 30
0.0
 40
0.6000000089406968
100
AcDbArc
 50
90.00000762939448
 51
180.0
1001
PHOENIX7010
1002
{
1070
    41
1040
0.6666666666666666
1002
}
  0
ARC
  5
11B
330
18
100
AcDbEntity
  8
30
  6
Continuous
 62
     7
100
AcDbCircle
 10
127.7845267723698
 20
213.7373242417396
 30
0.0
 40
0.6000000089406968
100
AcDbArc
 50
180.0
 51
270.0
1001
PHOENIX7010
1002
{
1070
    41
1040
0.6666666666666666
1002
}
  0
ARC
  5
11C
330
18
100
AcDbEntity
  8
30
  6
Continuous
 62
     7
100
AcDbCircle
 10
129.5876578758855
 20
213.7373242417396
 30
0.0
 40
0.6000030040740967
100
AcDbArc
 50
270.0
 51
345.5223693847659
1001
PHOENIX7010
1002
{
1070
    41
1040
0.6666666666666666
1002
}
  0
ARC
  5
11D
330
18
100
AcDbEntity
  8
30
  6
Continuous
 62
     7
100
AcDbCircle
 10
130.7495536278386
 20
213.4373059311927
 30
0.0
 40
0.6000030040740967
100
AcDbArc
 50
90.00000762939448
 51
165.5223846435544
1001
PHOENIX7010
1002
{
1070
    41
1040
0.6666666666666666
1002
}
  0
ARC
  5
11E
330
18
100
AcDbEntity
  8
30
  6
Continuous
 62
     7
100
AcDbCircle
 10
139.2257804344792
 20
213.4373059311927
 30
0.0
 40
0.6000030040740967
100
AcDbArc
 50
14.47763252258308
 51
90.00000953674309
1001
PHOENIX7010
1002
{
1070
    41
1040
0.6666666666666666
1002
}
  0
ARC
  5
11F
330
18
100
AcDbEntity
  8
30
  6
Continuous
 62
     7
100
AcDbCircle
 10
140.3876761864323
 20
213.7373242417396
 30
0.0
 40
0.6000030040740967
100
AcDbArc
 50
194.4776306152341
 51
270.0
1001
PHOENIX7010
1002
{
1070
    41
1040
0.6666666666666666
1002
}
  0
ARC
  5
120
330
18
100
AcDbEntity
  8
30
  6
Continuous
 62
     7
100
AcDbCircle
 10
142.1876944969792
 20
213.7373242417396
 30
0.0
 40
0.6000000089406968
100
AcDbArc
 50
270.0
 51
0.0000076293944721
1001
PHOENIX7010
1002
{
1070
    41
1040
0.6666666666666666
1002
}
  0
ARC
  5
121
330
18
100
AcDbEntity
  8
30
  6
Continuous
 62
     7
100
AcDbCircle
 10
125.8376578758855
 20
165.4373059311927
 30
0.0
 40
2.400000035762786
100
AcDbArc
 50
180.0
 51
270.0
1001
PHOENIX7010
1002
{
1070
    41
1040
0.6666666666666666
1002
}
  0
ARC
  5
122
330
18
100
AcDbEntity
  8
30
  6
Continuous
 62
     7
100
AcDbCircle
 10
125.8376578758855
 20
171.2872967759192
 30
0.0
 40
2.400000035762786
100
AcDbArc
 50
90.00000762939448
 51
180.0
1001
PHOENIX7010
1002
{
1070
    41
1040
0.6666666666666666
1002
}
  0
ARC
  5
123
330
18
100
AcDbEntity
  8
30
  6
Continuous
 62
     7
100
AcDbCircle
 10
125.8376578758855
 20
197.9873242417395
 30
0.0
 40
2.400000035762786
100
AcDbArc
 50
180.0
 51
270.0
1001
PHOENIX7010
1002
{
1070
    41
1040
0.6666666666666666
1002
}
  0
ARC
  5
124
330
18
100
AcDbEntity
  8
30
  6
Continuous
 62
     7
100
AcDbCircle
 10
125.8376578758855
 20
203.8373150864661
 30
0.0
 40
2.400000035762786
100
AcDbArc
 50
90.00000762939448
 51
180.0
1001
PHOENIX7010
1002
{
1070
    41
1040
0.6666666666666666
1002
}
  0
ARC
  5
125
330
18
100
AcDbEntity
  8
30
  6
Continuous
 62
     7
100
AcDbCircle
 10
149.8377494286198
 20
206.8369488755286
 30
0.0
 40
0.5999519973993302
100
AcDbArc
 50
269.9983520507814
 51
359.9987792968746
1001
PHOENIX7010
1002
{
1070
    41
1040
0.6666666666666666
1002
}
  0
ARC
  5
126
330
18
100
AcDbEntity
  8
30
  6
Continuous
 62
     7
100
AcDbCircle
 10
149.8374747704167
 20
162.436893943888
 30
0.0
 40
0.6000629961490631
100
AcDbArc
 50
0.0002180000160783
 51
90.00000437696863
1001
PHOENIX7010
1002
{
1070
    41
1040
0.6666666666666666
1002
}
  0
ARC
  5
127
330
18
100
AcDbEntity
  8
30
  6
Continuous
 62
     7
100
AcDbCircle
 10
149.8376578758855
 20
174.2870678940833
 30
0.0
 40
0.6000000089406968
100
AcDbArc
 50
270.0
 51
0.0000076293944721
1001
PHOENIX7010
1002
{
1070
    41
1040
0.6666666666666666
1002
}
  0
ARC
  5
128
330
18
100
AcDbEntity
  8
30
  6
Continuous
 62
     7
100
AcDbCircle
 10
149.8376578758855
 20
179.5369763413489
 30
0.0
 40
0.6000000089406968
100
AcDbArc
 50
0.0
 51
90.00000762939448
1001
PHOENIX7010
1002
{
1070
    41
1040
0.6666666666666666
1002
}
  0
ARC
  5
129
330
18
100
AcDbEntity
  8
30
  6
Continuous
 62
     7
100
AcDbCircle
 10
149.8376578758855
 20
189.736958030802
 30
0.0
 40
0.6000000089406968
100
AcDbArc
 50
270.0
 51
0.0000076293944721
1001
PHOENIX7010
1002
{
1070
    41
1040
0.6666666666666666
1002
}
  0
ARC
  5
12A
330
18
100
AcDbEntity
  8
30
  6
Continuous
 62
     7
100
AcDbCircle
 10
149.8376578758855
 20
194.9870953599036
 30
0.0
 40
0.6000000089406968
100
AcDbArc
 50
0.0
 51
90.00000762939448
1001
PHOENIX7010
1002
{
1070
    41
1040
0.6666666666666666
1002
}
  0
ARC
  5
12B
330
18
100
AcDbEntity
  8
30
  6
Continuous
 62
     7
100
AcDbCircle
 10
134.0876578758855
 20
184.6372876206458
 30
0.0
 40
3.75
100
AcDbArc
 50
0.0
 51
180.0
1001
PHOENIX7010
1002
{
1070
    41
1040
0.6666666666666666
1002
}
  0
ARC
  5
12C
330
18
100
AcDbEntity
  8
30
  6
Continuous
 62
     7
100
AcDbCircle
 10
134.0876578758855
 20
184.6372876206458
 30
0.0
 40
3.75
100
AcDbArc
 50
180.0
 51
0.0000152587897585
1001
PHOENIX7010
1002
{
1070
    41
1040
0.6666666666666666
1002
}
  0
LINE
  5
12D
330
18
100
AcDbEntity
  8
30
  6
Continuous
 62
     7
100
AcDbLine
 10
150.4376944969792
 20
174.2870678940833
 30
0.0
 11
150.4376944969792
 21
179.5369763413489
 31
0.0
1001
PHOENIX7010
1002
{
1070
    41
1040
0.6666666666666666
1002
}
  0
LINE
  5
12E
330
18
100
AcDbEntity
  8
30
  6
Continuous
 62
     7
100
AcDbLine
 10
150.4376944969792
 20
245.7619671860755
 30
0.0
 11
150.4376944969792
 21
253.5619854966224
 31
0.0
1001
PHOENIX7010
1002
{
1070
    41
1040
0.6666666666666666
1002
}
  0
LINE
  5
12F
330
18
100
AcDbEntity
  8
30
  6
Continuous
 62
     7
100
AcDbLine
 10
142.7876395653386
 20
240.7370495835364
 30
0.0
 11
142.7876395653386
 21
213.7373242417396
 31
0.0
1001
PHOENIX7010
1002
{
1070
    41
1040
0.6666666666666666
1002
}
  0
LINE
  5
130
330
18
100
AcDbEntity
  8
30
  6
Continuous
 62
     7
100
AcDbLine
 10
115.9376944969792
 20
179.5372967759192
 30
0.0
 11
115.9376944969792
 21
159.1372876206458
 31
0.0
1001
PHOENIX7010
1002
{
1070
    41
1040
0.6666666666666666
1002
}
  0
LINE
  5
131
330
18
100
AcDbEntity
  8
30
  6
Continuous
 62
     7
100
AcDbLine
 10
123.4376944969792
 20
180.1372876206458
 30
0.0
 11
116.5376395653386
 21
180.1372876206458
 31
0.0
1001
PHOENIX7010
1002
{
1070
    41
1040
0.6666666666666666
1002
}
  0
LINE
  5
132
330
18
100
AcDbEntity
  8
30
  6
Continuous
 62
     7
100
AcDbLine
 10
116.5376395653386
 20
189.1372876206458
 30
0.0
 11
123.4376944969792
 21
189.1372876206458
 31
0.0
1001
PHOENIX7010
1002
{
1070
    41
1040
0.6666666666666666
1002
}
  0
LINE
  5
133
330
18
100
AcDbEntity
  8
30
  6
Continuous
 62
     7
100
AcDbLine
 10
115.9376944969792
 20
210.1372876206458
 30
0.0
 11
115.9376944969792
 21
189.7373242417395
 31
0.0
1001
PHOENIX7010
1002
{
1070
    41
1040
0.6666666666666666
1002
}
  0
ARC
  5
134
330
18
100
AcDbEntity
  8
30
  6
Continuous
 62
     7
100
AcDbCircle
 10
121.9376944969792
 20
159.1372876206458
 30
0.0
 40
6.0
100
AcDbArc
 50
180.0
 51
270.0
1001
PHOENIX7010
1002
{
1070
    41
1040
0.6666666666666666
1002
}
  0
ARC
  5
135
330
18
100
AcDbEntity
  8
30
  6
Continuous
 62
     7
100
AcDbCircle
 10
116.5376395653386
 20
179.5372967759192
 30
0.0
 40
0.6000000089406968
100
AcDbArc
 50
90.00000762939448
 51
180.0
1001
PHOENIX7010
1002
{
1070
    41
1040
0.6666666666666666
1002
}
  0
ARC
  5
136
330
18
100
AcDbEntity
  8
30
  6
Continuous
 62
     7
100
AcDbCircle
 10
116.5376395653386
 20
189.7373242417395
 30
0.0
 40
0.6000000089406968
100
AcDbArc
 50
180.0
 51
270.0
1001
PHOENIX7010
1002
{
1070
    41
1040
0.6666666666666666
1002
}
  0
ARC
  5
137
330
18
100
AcDbEntity
  8
30
  6
Continuous
 62
     7
100
AcDbCircle
 10
121.9376944969792
 20
210.1372876206458
 30
0.0
 40
6.0
100
AcDbArc
 50
90.00000762939448
 51
180.0
1001
PHOENIX7010
1002
{
1070
    41
1040
0.6666666666666666
1002
}
  0
LINE
  5
139
330
18
100
AcDbEntity
  8
BZA45776
  6
Continuous
 62
     1
100
AcDbLine
 10
156.4376944969792
 20
112.3369088212073
 30
0.0
 11
166.9376944969792
 21
112.3369088212073
 31
0.0
1001
PHOENIX7010
1002
{
1070
    41
1040
0.6666666666666666
1002
}
  0
LINE
  5
13A
330
18
100
AcDbEntity
  8
BZA45776
  6
Continuous
 62
     1
100
AcDbLine
 10
159.4376944969792
 20
115.9744992295325
 30
0.0
 11
166.9376944969792
 21
115.9744992295325
 31
0.0
1001
PHOENIX7010
1002
{
1070
    41
1040
0.6666666666666666
1002
}
  0
LINE
  5
13B
330
18
100
AcDbEntity
  8
BZA45776
  6
Continuous
 62
     1
100
AcDbLine
 10
165.4376944969792
 20
112.3369088212073
 30
0.0
 11
165.0950583885808
 21
109.7343678513587
 31
0.0
1001
PHOENIX7010
1002
{
1070
    41
1040
0.6666666666666666
1002
}
  0
LINE
  5
13C
330
18
100
AcDbEntity
  8
BZA45776
  6
Continuous
 62
     1
100
AcDbLine
 10
165.4376944969792
 20
112.3369088212073
 30
0.0
 11
165.7803306053777
 21
109.7343678513587
 31
0.0
1001
PHOENIX7010
1002
{
1070
    41
1040
0.6666666666666666
1002
}
  0
LINE
  5
13D
330
18
100
AcDbEntity
  8
BZA45776
  6
Continuous
 62
     1
100
AcDbLine
 10
165.4376944969792
 20
115.9744992295325
 30
0.0
 11
165.0950583885808
 21
118.5770401993811
 31
0.0
1001
PHOENIX7010
1002
{
1070
    41
1040
0.6666666666666666
1002
}
  0
LINE
  5
13E
330
18
100
AcDbEntity
  8
BZA45776
  6
Continuous
 62
     1
100
AcDbLine
 10
165.4376944969792
 20
115.9744992295325
 30
0.0
 11
165.7803306053777
 21
118.5770401993811
 31
0.0
1001
PHOENIX7010
1002
{
1070
    41
1040
0.6666666666666666
1002
}
  0
TEXT
  5
13F
330
18
100
AcDbEntity
  8
BZA45776
 62
     5
100
AcDbText
 10
164.6876944969792
 20
119.7244992295325
 30
0.0
 40
2.625
  1
2.4
 50
90.0
100
AcDbText
1001
PHOENIX7010
1002
{
1070
    41
1040
0.6666666666666666
1002
}
  0
LINE
  5
140
330
18
100
AcDbEntity
  8
BZA45776
  6
Continuous
 62
     1
100
AcDbLine
 10
165.4376944969792
 20
107.0869088212073
 30
0.0
 11
165.4376944969792
 21
125.1956505814612
 31
0.0
1001
PHOENIX7010
1002
{
1070
    41
1040
0.6666666666666666
1002
}
  0
LINE
  5
142
330
18
100
AcDbEntity
  8
BZA45776
  6
Continuous
 62
     1
100
AcDbLine
 10
172.9376944969792
 20
108.8494992295325
 30
0.0
 11
172.9376944969792
 21
129.0994992295325
 31
0.0
1001
PHOENIX7010
1002
{
1070
    41
1040
0.6666666666666666
1002
}
  0
LINE
  5
143
330
18
100
AcDbEntity
  8
BZA45776
  6
Continuous
 62
     1
100
AcDbLine
 10
156.4376944969792
 20
114.0994992295325
 30
0.0
 11
163.6806144188542
 21
114.0994992295325
 31
0.0
1001
PHOENIX7010
1002
{
1070
    41
1040
0.6666666666666666
1002
}
  0
LINE
  5
144
330
18
100
AcDbEntity
  8
BZA45776
  6
Continuous
 62
     1
100
AcDbLine
 10
156.4376944969792
 20
117.8494992295325
 30
0.0
 11
160.7418631981511
 21
117.8494992295325
 31
0.0
1001
PHOENIX7010
1002
{
1070
    41
1040
0.6666666666666666
1002
}
  0
LINE
  5
145
330
18
100
AcDbEntity
  8
BZA45776
  6
Continuous
 62
     1
100
AcDbLine
 10
172.9376944969792
 20
114.0994992295325
 30
0.0
 11
172.5950583885808
 21
111.4969582596839
 31
0.0
1001
PHOENIX7010
1002
{
1070
    41
1040
0.6666666666666666
1002
}
  0
LINE
  5
146
330
18
100
AcDbEntity
  8
BZA45776
  6
Continuous
 62
     1
100
AcDbLine
 10
172.9376944969792
 20
114.0994992295325
 30
0.0
 11
173.2803306053777
 21
111.4969582596839
 31
0.0
1001
PHOENIX7010
1002
{
1070
    41
1040
0.6666666666666666
1002
}
  0
LINE
  5
147
330
18
100
AcDbEntity
  8
BZA45776
  6
Continuous
 62
     1
100
AcDbLine
 10
172.9376944969792
 20
117.8494992295325
 30
0.0
 11
172.5950583885808
 21
120.4520401993811
 31
0.0
1001
PHOENIX7010
1002
{
1070
    41
1040
0.6666666666666666
1002
}
  0
LINE
  5
148
330
18
100
AcDbEntity
  8
BZA45776
  6
Continuous
 62
     1
100
AcDbLine
 10
172.9376944969792
 20
117.8494992295325
 30
0.0
 11
173.2803306053777
 21
120.4520401993811
 31
0.0
1001
PHOENIX7010
1002
{
1070
    41
1040
0.6666666666666666
1002
}
  0
TEXT
  5
149
330
18
100
AcDbEntity
  8
BZA45776
 62
     5
100
AcDbText
 10
172.1876944969792
 20
121.5994992295325
 30
0.0
 40
2.625
  1
M 2.5
 50
90.0
100
AcDbText
1001
PHOENIX7010
1002
{
1070
    41
1040
0.6666666666666666
1002
}
  0
LINE
  5
14A
330
18
100
AcDbEntity
  8
BZA45776
  6
Continuous
 62
     1
100
AcDbLine
 10
167.3010901878972
 20
117.8494992295325
 30
0.0
 11
174.4376944969792
 21
117.8494992295325
 31
0.0
1001
PHOENIX7010
1002
{
1070
    41
1040
0.6666666666666666
1002
}
  0
LINE
  5
14B
330
18
100
AcDbEntity
  8
BZA45776
  6
Continuous
 62
     1
100
AcDbLine
 10
167.1354712914128
 20
114.0994992295325
 30
0.0
 11
174.4376944969792
 21
114.0994992295325
 31
0.0
1001
PHOENIX7010
1002
{
1070
    41
1040
0.6666666666666666
1002
}
  0
LINE
  5
3F1
102
{ACAD_REACTORS
330
400
102
}
330
18
100
AcDbEntity
  8
0
  6
Continuous
 62
     1
100
AcDbLine
 10
230.0
 20
5.000000000000113
 30
0.0
 11
230.0
 21
1.000000000000113
 31
0.0
1001
PHOENIX7010
1002
{
1070
    62
1070
     1
1070
    41
1040
1.0
1002
}
  0
LINE
  5
3F2
102
{ACAD_REACTORS
330
400
102
}
330
18
100
AcDbEntity
  8
0
  6
Continuous
 62
     3
100
AcDbLine
 10
415.0
 20
5.000000000000113
 30
0.0
 11
20.0
 21
5.000000000000113
 31
0.0
1001
PHOENIX7010
1002
{
1070
    62
1070
     3
1070
    41
1040
1.0
1002
}
  0
LINE
  5
3F3
102
{ACAD_REACTORS
330
400
102
}
330
18
100
AcDbEntity
  8
0
  6
Continuous
 62
     1
100
AcDbLine
 10
125.0
 20
296.0000000000001
 30
0.0
 11
125.0
 21
292.0000000000001
 31
0.0
1001
PHOENIX7010
1002
{
1070
    62
1070
     1
1070
    41
1040
1.0
1002
}
  0
LINE
  5
3F4
102
{ACAD_REACTORS
330
400
102
}
330
18
100
AcDbEntity
  8
0
  6
Continuous
 62
     1
100
AcDbLine
 10
230.0
 20
296.0000000000001
 30
0.0
 11
230.0
 21
292.0000000000001
 31
0.0
1001
PHOENIX7010
1002
{
1070
    62
1070
     1
1070
    41
1040
1.0
1002
}
  0
LINE
  5
3F5
102
{ACAD_REACTORS
330
400
102
}
330
18
100
AcDbEntity
  8
0
  6
Continuous
 62
     1
100
AcDbLine
 10
125.0
 20
5.000000000000113
 30
0.0
 11
125.0
 21
1.000000000000113
 31
0.0
1001
PHOENIX7010
1002
{
1070
    62
1070
     1
1070
    41
1040
1.0
1002
}
  0
LINE
  5
3F6
102
{ACAD_REACTORS
330
400
102
}
330
18
100
AcDbEntity
  8
0
  6
Continuous
 62
     1
100
AcDbLine
 10
419.0
 20
1.000000000000113
 30
0.0
 11
1.0
 21
1.000000000000113
 31
0.0
1001
PHOENIX7010
1002
{
1070
    62
1070
     1
1070
    41
1040
1.0
1002
}
  0
LINE
  5
3F7
102
{ACAD_REACTORS
330
400
102
}
330
18
100
AcDbEntity
  8
0
  6
Continuous
 62
     1
100
AcDbLine
 10
1.0
 20
1.000000000000113
 30
0.0
 11
1.0
 21
296.0000000000001
 31
0.0
1001
PHOENIX7010
1002
{
1070
    62
1070
     1
1070
    41
1040
1.0
1002
}
  0
LINE
  5
3F8
102
{ACAD_REACTORS
330
400
102
}
330
18
100
AcDbEntity
  8
0
  6
Continuous
 62
     1
100
AcDbLine
 10
1.0
 20
296.0000000000001
 30
0.0
 11
419.0
 21
296.0000000000001
 31
0.0
1001
PHOENIX7010
1002
{
1070
    62
1070
     1
1070
    41
1040
1.0
1002
}
  0
LINE
  5
3F9
102
{ACAD_REACTORS
330
400
102
}
330
18
100
AcDbEntity
  8
0
  6
Continuous
 62
     1
100
AcDbLine
 10
419.0
 20
296.0000000000001
 30
0.0
 11
419.0
 21
1.000000000000113
 31
0.0
1001
PHOENIX7010
1002
{
1070
    62
1070
     1
1070
    41
1040
1.0
1002
}
  0
LINE
  5
3FA
102
{ACAD_REACTORS
330
400
102
}
330
18
100
AcDbEntity
  8
0
  6
Continuous
 62
     3
100
AcDbLine
 10
20.0
 20
5.000000000000113
 30
0.0
 11
20.0
 21
292.0000000000001
 31
0.0
1001
PHOENIX7010
1002
{
1070
    62
1070
     3
1070
    41
1040
1.0
1002
}
  0
LINE
  5
3FB
102
{ACAD_REACTORS
330
400
102
}
330
18
100
AcDbEntity
  8
0
  6
Continuous
 62
     3
100
AcDbLine
 10
20.0
 20
292.0000000000001
 30
0.0
 11
415.0
 21
292.0000000000001
 31
0.0
1001
PHOENIX7010
1002
{
1070
    62
1070
     3
1070
    41
1040
1.0
1002
}
  0
LINE
  5
3FC
102
{ACAD_REACTORS
330
400
102
}
330
18
100
AcDbEntity
  8
0
  6
Continuous
 62
     3
100
AcDbLine
 10
415.0
 20
292.0000000000001
 30
0.0
 11
415.0
 21
5.000000000000113
 31
0.0
1001
PHOENIX7010
1002
{
1070
    62
1070
     3
1070
    41
1040
1.0
1002
}
  0
MTEXT
  5
3FD
102
{ACAD_REACTORS
330
400
102
}
330
18
100
AcDbEntity
  8
0
  6
Continuous
 62
     7
370
    50
100
AcDbMText
 10
19.70248718641096
 20
55.39351207913341
 30
0.0
 40
2.0
 41
0.0
 71
     7
 72
     5
  1
{\T1.1;\C1;"Schutzvermerk nach DIN ISO 16016 beachten" \Q20;"Please pay attention to copyright note DIN ISO 16016"}
 11
0.0000000000000002
 21
1.0
 31
0.0
 73
     1
 44
1.0
1001
PHOENIX7010
1002
{
1070
    41
1040
1.0
1002
}
1001
ACAD
1000
MTEXTBEGIN
1070
    73
1070
     1
1070
    44
1040
1.0
1070
    74
1070
     0
1000
MTEXTEND
  0
INSERT
  5
3FE
102
{ACAD_REACTORS
330
400
102
}
330
18
100
AcDbEntity
  8
0
  6
Continuous
 62
     1
100
AcDbBlockReference
  2
PH_GRPBLK
 10
230.0
 20
5.000000000000113
 30
0.0
1001
PHOENIX7010
1002
{
1070
    41
1040
1.0
1002
}
  0
HATCH
  5
442
102
{ACAD_REACTORS
330
48A
102
}
330
18
100
AcDbEntity
  8
0
  6
Continuous
 62
     1
370
    25
100
AcDbHatch
 10
0.0
 20
0.0
 30
0.0
210
0.0
220
0.0
230
1.0
  2
_U
 70
     0
 71
     1
 91
        1
 92
        0
 93
        5
 72
     1
 10
407.4334749940253
 20
35.16453811398049
 11
400.7334749940254
 21
27.36453811398042
 72
     1
 10
400.7334749940254
 20
27.36453811398042
 11
412.7334749940255
 21
27.36453811398042
 72
     1
 10
412.7334749940255
 20
27.36453811398042
 11
412.7334749940255
 21
35.16453811398049
 72
     1
 10
412.7334749940255
 20
35.16453811398037
 11
407.4334749940253
 21
28.26453811398051
 72
     1
 10
407.4334749940253
 20
28.26453811398051
 11
407.4334749940253
 21
35.16453811398049
 97
        1
330
485
 75
     0
 76
     0
 52
45.0
 41
0.1
 77
     0
 78
     1
 53
45.0
 43
0.0
 44
-32.08885297207042
 45
-0.0707106781186548
 46
0.0707106781186548
 79
     0
 98
        1
 10
0.0
 20
-32.08885297207042
1001
PHOENIX7010
1002
{
1070
    41
1040
1.0
1002
}
  0
HATCH
  5
443
102
{ACAD_REACTORS
330
48A
102
}
330
18
100
AcDbEntity
  8
0
  6
Continuous
 62
     1
370
    25
100
AcDbHatch
 10
0.0
 20
0.0
 30
0.0
210
0.0
220
0.0
230
1.0
  2
_U
 70
     0
 71
     1
 91
        1
 92
        0
 93
        3
 72
     1
 10
399.8834749940256
 20
27.36453811398042
 11
399.8834749940256
 21
31.51453811398039
 72
     1
 10
399.8834749940256
 20
31.51453811398039
 11
404.0334749940257
 21
31.51453811398039
 72
     2
 10
399.8834749940256
 20
31.51453811398039
 40
4.149999999999977
 50
0.0000000000001962
 51
270.0
 73
     1
 97
        1
330
486
 75
     0
 76
     0
 52
45.0
 41
0.65
 77
     0
 78
     1
 53
45.0
 43
0.0
 44
-32.08885297207042
 45
-0.4596194077712559
 46
0.459619407771256
 79
     0
 98
        1
 10
0.0
 20
-32.08885297207042
1001
PHOENIX7010
1002
{
1070
    41
1040
1.0
1002
}
  0
LINE
  5
444
102
{ACAD_REACTORS
330
48A
102
}
330
18
100
AcDbEntity
  8
0
  6
Continuous
 62
     7
370
    50
100
AcDbLine
 10
400.7334749940254
 20
27.36453811398042
 30
0.0
 11
412.7334749940255
 21
27.36453811398042
 31
0.0
1001
PHOENIX7010
1002
{
1070
    41
1040
1.0
1002
}
  0
LINE
  5
445
102
{ACAD_REACTORS
330
48A
102
}
330
18
100
AcDbEntity
  8
0
  6
Continuous
 62
     7
370
    50
100
AcDbLine
 10
412.7334749940255
 20
27.36453811398042
 30
0.0
 11
412.7334749940255
 21
35.16453811398037
 31
0.0
1001
PHOENIX7010
1002
{
1070
    41
1040
1.0
1002
}
  0
LINE
  5
446
102
{ACAD_REACTORS
330
48A
102
}
330
18
100
AcDbEntity
  8
0
  6
Continuous
 62
     7
370
    50
100
AcDbLine
 10
407.4334749940253
 20
28.26453811398039
 30
0.0
 11
407.4334749940253
 21
35.16453811398037
 31
0.0
1001
PHOENIX7010
1002
{
1070
    41
1040
1.0
1002
}
  0
LINE
  5
447
102
{ACAD_REACTORS
330
48A
102
}
330
18
100
AcDbEntity
  8
0
  6
Continuous
 62
     7
370
    50
100
AcDbLine
 10
407.4334749940253
 20
35.16453811398037
 30
0.0
 11
400.7334749940254
 21
27.36453811398042
 31
0.0
1001
PHOENIX7010
1002
{
1070
    41
1040
1.0
1002
}
  0
LINE
  5
448
102
{ACAD_REACTORS
330
48A
102
}
330
18
100
AcDbEntity
  8
0
  6
Continuous
 62
     7
370
    50
100
AcDbLine
 10
412.7334749940255
 20
35.16453811398037
 30
0.0
 11
407.4334749940253
 21
28.26453811398039
 31
0.0
1001
PHOENIX7010
1002
{
1070
    41
1040
1.0
1002
}
  0
INSERT
  5
449
102
{ACAD_REACTORS
330
48A
102
}
330
18
100
AcDbEntity
  8
0
  6
Continuous
 62
     1
370
    25
100
AcDbBlockReference
  2
PH_GRPBLK
 10
400.7334749940254
 20
27.36453811398042
 30
0.0
1001
PHOENIX7010
1002
{
1070
    41
1040
1.0
1002
}
  0
MTEXT
  5
44A
102
{ACAD_REACTORS
330
48B
102
}
330
18
100
AcDbEntity
  8
0
  6
Continuous
 62
     7
370
    50
100
AcDbMText
 10
381.0842366554657
 20
17.88346060003152
 30
0.0
 40
1.6
 41
0.0
 71
     7
 72
     5
  1
{\fArial|b0|i0|c0|p34;\W1.1;\C1;A Phoenix Mecano Company}
 73
     1
 44
1.0
1001
PHOENIX7010
1002
{
1070
    41
1040
1.0
1002
}
1001
ACAD
1000
MTEXTBEGIN
1070
    73
1070
     1
1070
    44
1040
1.0
1070
    74
1070
     0
1000
MTEXTEND
  0
MTEXT
  5
44B
102
{ACAD_XDICTIONARY
360
8F9
102
}
102
{ACAD_REACTORS
330
48B
102
}
330
18
100
AcDbEntity
  8
0
  6
Continuous
 62
     7
370
    50
100
AcDbMText
 10
393.565880717586
 20
21.46517927327739
 30
0.0
 40
3.7
 41
0.0
 71
     7
 72
     5
  1
{\fArial|b1|i0|c0|p34;\W1.1;BOPLA}
 73
     1
 44
1.135135135135135
1001
PHOENIX7010
1002
{
1070
    41
1040
1.0
1002
}
1001
ACAD
1000
MTEXTBEGIN
1070
    73
1070
     1
1070
    44
1040
1.135135135135135
1070
    74
1070
     0
1000
MTEXTEND
  0
INSERT
  5
44C
102
{ACAD_REACTORS
330
48B
102
}
330
18
100
AcDbEntity
  8
0
  6
Continuous
 62
     7
370
    50
100
AcDbBlockReference
  2
PH_GRPBLK
 10
400.7334749940254
 20
27.36453811398042
 30
0.0
1001
PHOENIX7010
1002
{
1070
    41
1040
1.0
1002
}
  0
MTEXT
  5
44D
102
{ACAD_REACTORS
330
48C
102
}
330
18
100
AcDbEntity
  8
0
  6
Continuous
 62
     5
370
    35
100
AcDbMText
 10
318.9304981780733
 20
52.18090043987126
 30
0.0
 40
3.5
 41
0.0
 71
     7
 72
     5
  1
{\C7;Katalogzeichnung/\Q20;Catalogue drawing}
 73
     1
 44
1.0
1001
PHOENIX7010
1002
{
1070
    41
1040
1.0
1002
}
1001
ACAD
1000
MTEXTBEGIN
1070
    73
1070
     1
1070
    44
1040
1.0
1070
    74
1070
     0
1000
MTEXTEND
  0
MTEXT
  5
44E
102
{ACAD_REACTORS
330
48C
102
}
330
18
100
AcDbEntity
  8
0
  6
Continuous
 62
     5
370
    35
100
AcDbMText
 10
318.9304981780733
 20
59.18090043987127
 30
0.0
 40
4.0
 41
0.0
 71
     7
 72
     5
  1
{\C7;PSD/M 006 . .  .12}
 73
     1
 44
1.0
1001
PHOENIX7010
1002
{
1070
    41
1040
1.0
1002
}
1001
ACAD
1000
MTEXTBEGIN
1070
    73
1070
     1
1070
    44
1040
1.0
1070
    74
1070
     0
1000
MTEXTEND
  0
MTEXT
  5
44F
102
{ACAD_REACTORS
330
48C
102
}
330
18
100
AcDbEntity
  8
0
  6
Continuous
 62
     5
370
    35
100
AcDbMText
 10
318.9304981780733
 20
66.18090043987127
 30
0.0
 40
4.0
 41
0.0
 71
     7
 72
     5
  1
{\C7;Interzoll Modul}
 73
     1
 44
1.0
1001
PHOENIX7010
1002
{
1070
    41
1040
1.0
1002
}
1001
ACAD
1000
MTEXTBEGIN
1070
    73
1070
     1
1070
    44
1040
1.0
1070
    74
1070
     0
1000
MTEXTEND
  0
MTEXT
  5
450
102
{ACAD_REACTORS
330
48C
102
}
330
18
100
AcDbEntity
  8
0
  6
Continuous
 62
     5
370
    35
100
AcDbMText
 10
340.3074630969177
 20
95.1987580068237
 30
0.0
 40
4.0
 41
0.0
 71
     7
 72
     5
  1
{\C7;2:1}
 73
     1
 44
1.0
1001
PHOENIX7010
1002
{
1070
    41
1040
1.0
1002
}
1001
ACAD
1000
MTEXTBEGIN
1070
    73
1070
     1
1070
    44
1040
1.0
1070
    74
1070
     0
1000
MTEXTEND
  0
MTEXT
  5
451
102
{ACAD_REACTORS
330
48C
102
}
330
18
100
AcDbEntity
  8
0
  6
Continuous
 62
     5
370
    35
100
AcDbMText
 10
319.2942762589885
 20
94.24669079255114
 30
0.0
 40
2.5
 41
0.0
 71
     7
 72
     5
  1
{\C1;Maßstab/\P\Q20;Scale:}
 73
     1
 44
1.0
1001
PHOENIX7010
1002
{
1070
    41
1040
1.0
1002
}
1001
ACAD
1000
MTEXTBEGIN
1070
    73
1070
     1
1070
    44
1040
1.0
1070
    74
1070
     0
1000
MTEXTEND
  0
MTEXT
  5
452
102
{ACAD_REACTORS
330
48C
102
}
330
18
100
AcDbEntity
  8
0
  6
Continuous
 62
     5
370
    35
100
AcDbMText
 10
319.5702130763932
 20
86.578461793006
 30
0.0
 40
3.0
 41
0.0
 71
     7
 72
     5
  1
Zeichnungs-Nr. / {\Q20;Drawing-No.:}
 73
     1
 44
1.0
1001
PHOENIX7010
1002
{
1070
    41
1040
1.0
1002
}
1001
ACAD
1000
MTEXTBEGIN
1070
    73
1070
     1
1070
    44
1040
1.0
1070
    74
1070
     0
1000
MTEXTEND
  0
MTEXT
  5
453
102
{ACAD_REACTORS
330
48C
102
}
330
18
100
AcDbEntity
  8
0
  6
Continuous
 62
     5
370
    35
100
AcDbMText
 10
340.681094216935
 20
80.43630467405568
 30
0.0
 40
4.0
 41
0.0
 71
     7
 72
     5
  1
{\C7;3K 5315.033.02}
 73
     1
 44
1.0
1001
PHOENIX7010
1002
{
1070
    41
1040
1.0
1002
}
1001
ACAD
1000
MTEXTBEGIN
1070
    73
1070
     1
1070
    44
1040
1.0
1070
    74
1070
     0
1000
MTEXTEND
  0
MTEXT
  5
454
102
{ACAD_REACTORS
330
48C
102
}
330
18
100
AcDbEntity
  8
0
  6
Continuous
 62
     5
370
    35
100
AcDbMText
 10
318.8800602381664
 20
72.42896167163713
 30
0.0
 40
4.0
 41
0.0
 71
     7
 72
     5
  1
{\C7;Artikel / \Q20;Article:}
 73
     1
 44
1.0
1001
PHOENIX7010
1002
{
1070
    41
1040
1.0
1002
}
1001
ACAD
1000
MTEXTBEGIN
1070
    73
1070
     1
1070
    44
1040
1.0
1070
    74
1070
     0
1000
MTEXTEND
  0
MTEXT
  5
455
102
{ACAD_REACTORS
330
48C
102
}
330
18
100
AcDbEntity
  8
0
  6
Continuous
 62
     5
370
    35
100
AcDbMText
 10
329.5918340418984
 20
15.32304279191089
 30
0.0
 40
2.0
 41
0.0
 71
     7
 72
     5
  1
{\C1;Datum/\P\Q20;Date:}
 73
     1
 44
1.0
1001
PHOENIX7010
1002
{
1070
    41
1040
1.0
1002
}
1001
ACAD
1000
MTEXTBEGIN
1070
    73
1070
     1
1070
    44
1040
1.0
1070
    74
1070
     0
1000
MTEXTEND
  0
MTEXT
  5
456
102
{ACAD_REACTORS
330
48C
102
}
330
18
100
AcDbEntity
  8
0
  6
Continuous
 62
     5
370
    35
100
AcDbMText
 10
316.167758256943
 20
15.32303913053624
 30
0.0
 40
2.0
 41
0.0
 71
     7
 72
     5
  1
{\C1;Ä.Nr/\P\Q20;Alt-No.:}
 73
     1
 44
1.0
1001
PHOENIX7010
1002
{
1070
    41
1040
1.0
1002
}
1001
ACAD
1000
MTEXTBEGIN
1070
    73
1070
     1
1070
    44
1040
1.0
1070
    74
1070
     0
1000
MTEXTEND
  0
MTEXT
  5
457
102
{ACAD_REACTORS
330
48C
102
}
330
18
100
AcDbEntity
  8
0
  6
Continuous
 62
     5
370
    35
100
AcDbMText
 10
342.2178658257171
 20
10.60592166613935
 30
0.0
 40
2.5
 41
0.0
 71
     7
 72
     5
  1
2 901 843
 73
     1
 44
1.0
1001
PHOENIX7010
1002
{
1070
    41
1040
1.0
1002
}
1001
ACAD
1000
MTEXTBEGIN
1070
    73
1070
     1
1070
    44
1040
1.0
1070
    74
1070
     0
1000
MTEXTEND
  0
MTEXT
  5
458
102
{ACAD_REACTORS
330
48C
102
}
330
18
100
AcDbEntity
  8
0
  6
Continuous
 62
     5
370
    35
100
AcDbMText
 10
316.5289912646938
 20
10.49475527098116
 30
0.0
 40
2.5
 41
0.0
 71
     7
 72
     5
  1
DISK:
 73
     1
 44
1.0
1001
PHOENIX7010
1002
{
1070
    41
1040
1.0
1002
}
1001
ACAD
1000
MTEXTBEGIN
1070
    73
1070
     1
1070
    44
1040
1.0
1070
    74
1070
     0
1000
MTEXTEND
  0
MTEXT
  5
459
102
{ACAD_REACTORS
330
48C
102
}
330
18
100
AcDbEntity
  8
0
  6
Continuous
 62
     5
370
    35
100
AcDbMText
 10
342.2178658257171
 20
6.248887523187704
 30
0.0
 40
2.5
 41
0.0
 71
     7
 72
     5
  1
18.06.99 HR
 73
     1
 44
1.0
1001
PHOENIX7010
1002
{
1070
    41
1040
1.0
1002
}
1001
ACAD
1000
MTEXTBEGIN
1070
    73
1070
     1
1070
    44
1040
1.0
1070
    74
1070
     0
1000
MTEXTEND
  0
MTEXT
  5
45A
102
{ACAD_REACTORS
330
48C
102
}
330
18
100
AcDbEntity
  8
0
  6
Continuous
 62
     5
370
    35
100
AcDbMText
 10
316.5289912646938
 20
6.248887523187704
 30
0.0
 40
2.5
 41
0.0
 71
     7
 72
     5
  1
Datum/{\Q20;Date:}
 73
     1
 44
1.0
1001
PHOENIX7010
1002
{
1070
    41
1040
1.0
1002
}
1001
ACAD
1000
MTEXTBEGIN
1070
    73
1070
     1
1070
    44
1040
1.0
1070
    74
1070
     0
1000
MTEXTEND
  0
LINE
  5
45B
102
{ACAD_REACTORS
330
48C
102
}
330
18
100
AcDbEntity
  8
0
  6
Continuous
 62
     5
370
    35
100
AcDbLine
 10
314.9999999999998
 20
14.50000000000023
 30
0.0
 11
415.0
 21
14.50000000000023
 31
0.0
1001
PHOENIX7010
1002
{
1070
    41
1040
1.0
1002
}
  0
LINE
  5
45C
102
{ACAD_REACTORS
330
48C
102
}
330
18
100
AcDbEntity
  8
0
  6
Continuous
 62
     5
100
AcDbLine
 10
405.4999999999999
 20
92.50000000000012
 30
0.0
 11
405.4999999999999
 21
99.50000000000011
 31
0.0
1001
PHOENIX7010
1002
{
1070
    62
1070
     5
1070
    41
1040
1.0
1002
}
  0
LINE
  5
45D
102
{ACAD_REACTORS
330
48C
102
}
330
18
100
AcDbEntity
  8
0
  6
ACAD_ISO04W100
 62
     1
 48
0.1451612903225806
100
AcDbLine
 10
410.5
 20
91.50000000000011
 30
0.0
 11
410.5
 21
100.5000000000001
 31
0.0
1001
PHOENIX7010
1002
{
1070
    62
1070
     1
1070
    41
1040
1.0
1002
}
  0
CIRCLE
  5
45E
102
{ACAD_REACTORS
330
48C
102
}
330
18
100
AcDbEntity
  8
0
  6
Continuous
 62
     5
100
AcDbCircle
 10
410.5
 20
96.00000000000012
 30
0.0
 40
1.75
1001
PHOENIX7010
1002
{
1070
    62
1070
     5
1070
    41
1040
1.0
1002
}
  0
CIRCLE
  5
45F
102
{ACAD_REACTORS
330
48C
102
}
330
18
100
AcDbEntity
  8
0
  6
Continuous
 62
     5
100
AcDbCircle
 10
410.5
 20
96.00000000000012
 30
0.0
 40
3.5
1001
PHOENIX7010
1002
{
1070
    62
1070
     5
1070
    41
1040
1.0
1002
}
  0
LINE
  5
460
102
{ACAD_REACTORS
330
48C
102
}
330
18
100
AcDbEntity
  8
0
  6
Continuous
 62
     5
100
AcDbLine
 10
398.5
 20
94.25000000000011
 30
0.0
 11
398.5
 21
97.75000000000012
 31
0.0
1001
PHOENIX7010
1002
{
1070
    62
1070
     5
1070
    41
1040
1.0
1002
}
  0
LINE
  5
461
102
{ACAD_REACTORS
330
48C
102
}
330
18
100
AcDbEntity
  8
0
  6
ACAD_ISO04W100
 62
     1
 48
0.282258064516129
100
AcDbLine
 10
415.0
 20
96.00000000000012
 30
0.0
 11
397.5
 21
96.00000000000012
 31
0.0
1001
PHOENIX7010
1002
{
1070
    62
1070
     1
1070
    41
1040
1.0
1002
}
  0
LINE
  5
462
102
{ACAD_REACTORS
330
48C
102
}
330
18
100
AcDbEntity
  8
0
  6
Continuous
 62
     5
100
AcDbLine
 10
405.4999999999999
 20
92.50000000000012
 30
0.0
 11
398.5
 21
94.25000000000011
 31
0.0
1001
PHOENIX7010
1002
{
1070
    62
1070
     5
1070
    41
1040
1.0
1002
}
  0
LINE
  5
463
102
{ACAD_REACTORS
330
48C
102
}
330
18
100
AcDbEntity
  8
0
  6
Continuous
 62
     5
100
AcDbLine
 10
405.4999999999999
 20
99.50000000000011
 30
0.0
 11
398.5
 21
97.75000000000012
 31
0.0
1001
PHOENIX7010
1002
{
1070
    62
1070
     5
1070
    41
1040
1.0
1002
}
  0
ARC
  5
464
102
{ACAD_REACTORS
330
48C
102
}
330
18
100
AcDbEntity
  8
0
  6
Continuous
 62
     5
100
AcDbCircle
 10
317.4999999999998
 20
89.00000000000011
 30
0.0
 40
2.5
100
AcDbArc
 50
90.0
 51
180.0
1001
PHOENIX7010
1002
{
1070
    62
1070
     5
1070
    41
1040
1.0
1002
}
  0
ARC
  5
465
102
{ACAD_REACTORS
330
48C
102
}
330
18
100
AcDbEntity
  8
0
  6
Continuous
 62
     5
100
AcDbCircle
 10
317.4999999999998
 20
100.0000000000001
 30
0.0
 40
2.5
100
AcDbArc
 50
90.0
 51
180.0
1001
PHOENIX7010
1002
{
1070
    62
1070
     5
1070
    41
1040
1.0
1002
}
  0
LINE
  5
466
102
{ACAD_REACTORS
330
48C
102
}
330
18
100
AcDbEntity
  8
0
  6
Continuous
 62
     5
100
AcDbLine
 10
415.0
 20
91.50000000000011
 30
0.0
 11
317.4999999999998
 21
91.50000000000011
 31
0.0
1001
PHOENIX7010
1002
{
1070
    62
1070
     5
1070
    41
1040
1.0
1002
}
  0
LINE
  5
467
102
{ACAD_REACTORS
330
48C
102
}
330
18
100
AcDbEntity
  8
0
  6
Continuous
 62
     5
100
AcDbLine
 10
415.0
 20
102.5000000000001
 30
0.0
 11
317.4999999999998
 21
102.5000000000001
 31
0.0
1001
PHOENIX7010
1002
{
1070
    62
1070
     5
1070
    41
1040
1.0
1002
}
  0
LINE
  5
468
102
{ACAD_REACTORS
330
48C
102
}
330
18
100
AcDbEntity
  8
0
  6
Continuous
 62
     5
100
AcDbLine
 10
350.0
 20
48.00000000000022
 30
0.0
 11
350.0
 21
14.50000000000023
 31
0.0
1001
PHOENIX7010
1002
{
1070
    62
1070
     5
1070
    41
1040
1.0
1002
}
  0
TEXT
  5
469
102
{ACAD_REACTORS
330
48C
102
}
330
18
100
AcDbEntity
  8
0
  6
Continuous
 62
     1
100
AcDbText
 10
328.9999996997321
 20
42.74999981501366
 30
0.0
 40
2.0
  1
-
 41
1.5
100
AcDbText
1001
PHOENIX7010
1002
{
1070
    62
1070
     1
1070
    41
1040
1.0
1002
}
  0
TEXT
  5
46A
102
{ACAD_REACTORS
330
48C
102
}
330
18
100
AcDbEntity
  8
0
  6
Continuous
 62
     1
100
AcDbText
 10
328.9999996997321
 20
40.24999981501366
 30
0.0
 40
2.0
  1
-
 41
1.5
100
AcDbText
1001
PHOENIX7010
1002
{
1070
    62
1070
     1
1070
    41
1040
1.0
1002
}
  0
TEXT
  5
46B
102
{ACAD_REACTORS
330
48C
102
}
330
18
100
AcDbEntity
  8
0
  6
Continuous
 62
     1
100
AcDbText
 10
328.9999996997321
 20
45.24999981501366
 30
0.0
 40
2.0
  1
-
 41
1.5
100
AcDbText
1001
PHOENIX7010
1002
{
1070
    62
1070
     1
1070
    41
1040
1.0
1002
}
  0
TEXT
  5
46C
102
{ACAD_REACTORS
330
48C
102
}
330
18
100
AcDbEntity
  8
0
  6
Continuous
 62
     1
100
AcDbText
 10
315.9999996997324
 20
42.74999981501366
 30
0.0
 40
2.0
  1
-
 41
1.5
100
AcDbText
1001
PHOENIX7010
1002
{
1070
    62
1070
     1
1070
    41
1040
1.0
1002
}
  0
TEXT
  5
46D
102
{ACAD_REACTORS
330
48C
102
}
330
18
100
AcDbEntity
  8
0
  6
Continuous
 62
     1
100
AcDbText
 10
315.9999996997324
 20
40.24999981501366
 30
0.0
 40
2.0
  1
-
 41
1.5
100
AcDbText
1001
PHOENIX7010
1002
{
1070
    62
1070
     1
1070
    41
1040
1.0
1002
}
  0
TEXT
  5
46E
102
{ACAD_REACTORS
330
48C
102
}
330
18
100
AcDbEntity
  8
0
  6
Continuous
 62
     1
100
AcDbText
 10
315.9999996997324
 20
45.24999981501366
 30
0.0
 40
2.0
  1
-
 41
1.5
100
AcDbText
1001
PHOENIX7010
1002
{
1070
    62
1070
     1
1070
    41
1040
1.0
1002
}
  0
ARC
  5
46F
102
{ACAD_REACTORS
330
48C
102
}
330
18
100
AcDbEntity
  8
0
  6
Continuous
 62
     5
100
AcDbCircle
 10
317.4999999999998
 20
45.50000000000022
 30
0.0
 40
2.5
100
AcDbArc
 50
90.0
 51
180.0
1001
PHOENIX7010
1002
{
1070
    62
1070
     5
1070
    41
1040
1.0
1002
}
  0
ARC
  5
470
102
{ACAD_REACTORS
330
48C
102
}
330
18
100
AcDbEntity
  8
0
  6
Continuous
 62
     5
100
AcDbCircle
 10
317.4999999999998
 20
76.00000000000022
 30
0.0
 40
2.5
100
AcDbArc
 50
90.0
 51
180.0
1001
PHOENIX7010
1002
{
1070
    62
1070
     5
1070
    41
1040
1.0
1002
}
  0
TEXT
  5
471
102
{ACAD_REACTORS
330
48C
102
}
330
18
100
AcDbEntity
  8
0
  6
Continuous
 62
     1
100
AcDbText
 10
328.9999996997321
 20
25.24999981501367
 30
0.0
 40
2.0
  1
-
 41
1.5
100
AcDbText
1001
PHOENIX7010
1002
{
1070
    62
1070
     1
1070
    41
1040
1.0
1002
}
  0
TEXT
  5
472
102
{ACAD_REACTORS
330
48C
102
}
330
18
100
AcDbEntity
  8
0
  6
Continuous
 62
     1
100
AcDbText
 10
328.9999996997321
 20
22.74999981501367
 30
0.0
 40
2.0
  1
07.03.2014
 41
1.5
100
AcDbText
1001
PHOENIX7010
1002
{
1070
    62
1070
     1
1070
    41
1040
1.0
1002
}
  0
TEXT
  5
473
102
{ACAD_REACTORS
330
48C
102
}
330
18
100
AcDbEntity
  8
0
  6
Continuous
 62
     1
100
AcDbText
 10
328.9999996997321
 20
30.24999981501367
 30
0.0
 40
2.0
  1
-
 41
1.5
100
AcDbText
1001
PHOENIX7010
1002
{
1070
    62
1070
     1
1070
    41
1040
1.0
1002
}
  0
TEXT
  5
474
102
{ACAD_REACTORS
330
48C
102
}
330
18
100
AcDbEntity
  8
0
  6
Continuous
 62
     1
100
AcDbText
 10
328.9999996997321
 20
27.74999981501367
 30
0.0
 40
2.0
  1
-
 41
1.5
100
AcDbText
1001
PHOENIX7010
1002
{
1070
    62
1070
     1
1070
    41
1040
1.0
1002
}
  0
TEXT
  5
475
102
{ACAD_REACTORS
330
48C
102
}
330
18
100
AcDbEntity
  8
0
  6
Continuous
 62
     1
100
AcDbText
 10
328.9999996997321
 20
32.74999981501367
 30
0.0
 40
2.0
  1
-
 41
1.5
100
AcDbText
1001
PHOENIX7010
1002
{
1070
    62
1070
     1
1070
    41
1040
1.0
1002
}
  0
TEXT
  5
476
102
{ACAD_REACTORS
330
48C
102
}
330
18
100
AcDbEntity
  8
0
  6
Continuous
 62
     1
100
AcDbText
 10
328.9999996997321
 20
35.24999981501367
 30
0.0
 40
2.0
  1
-
 41
1.5
100
AcDbText
1001
PHOENIX7010
1002
{
1070
    62
1070
     1
1070
    41
1040
1.0
1002
}
  0
TEXT
  5
477
102
{ACAD_REACTORS
330
48C
102
}
330
18
100
AcDbEntity
  8
0
  6
Continuous
 62
     1
100
AcDbText
 10
328.9999996997321
 20
37.74999981501367
 30
0.0
 40
2.0
  1
-
 41
1.5
100
AcDbText
1001
PHOENIX7010
1002
{
1070
    62
1070
     1
1070
    41
1040
1.0
1002
}
  0
TEXT
  5
478
102
{ACAD_REACTORS
330
48C
102
}
330
18
100
AcDbEntity
  8
0
  6
Continuous
 62
     1
100
AcDbText
 10
315.9999996997324
 20
25.24999981501367
 30
0.0
 40
2.0
  1
-
 41
1.5
100
AcDbText
1001
PHOENIX7010
1002
{
1070
    62
1070
     1
1070
    41
1040
1.0
1002
}
  0
TEXT
  5
479
102
{ACAD_REACTORS
330
48C
102
}
330
18
100
AcDbEntity
  8
0
  6
Continuous
 62
     1
100
AcDbText
 10
315.9999996997324
 20
22.74999981501367
 30
0.0
 40
2.0
  1
4086
 41
1.5
100
AcDbText
1001
PHOENIX7010
1002
{
1070
    62
1070
     1
1070
    41
1040
1.0
1002
}
  0
TEXT
  5
47A
102
{ACAD_REACTORS
330
48C
102
}
330
18
100
AcDbEntity
  8
0
  6
Continuous
 62
     1
100
AcDbText
 10
315.9999996997324
 20
30.24999981501367
 30
0.0
 40
2.0
  1
-
 41
1.5
100
AcDbText
1001
PHOENIX7010
1002
{
1070
    62
1070
     1
1070
    41
1040
1.0
1002
}
  0
TEXT
  5
47B
102
{ACAD_REACTORS
330
48C
102
}
330
18
100
AcDbEntity
  8
0
  6
Continuous
 62
     1
100
AcDbText
 10
315.9999996997324
 20
27.74999981501367
 30
0.0
 40
2.0
  1
-
 41
1.5
100
AcDbText
1001
PHOENIX7010
1002
{
1070
    62
1070
     1
1070
    41
1040
1.0
1002
}
  0
TEXT
  5
47C
102
{ACAD_REACTORS
330
48C
102
}
330
18
100
AcDbEntity
  8
0
  6
Continuous
 62
     1
100
AcDbText
 10
315.9999996997324
 20
32.74999981501367
 30
0.0
 40
2.0
  1
-
 41
1.5
100
AcDbText
1001
PHOENIX7010
1002
{
1070
    62
1070
     1
1070
    41
1040
1.0
1002
}
  0
TEXT
  5
47D
102
{ACAD_REACTORS
330
48C
102
}
330
18
100
AcDbEntity
  8
0
  6
Continuous
 62
     1
100
AcDbText
 10
315.9999996997324
 20
35.24999981501367
 30
0.0
 40
2.0
  1
-
 41
1.5
100
AcDbText
1001
PHOENIX7010
1002
{
1070
    62
1070
     1
1070
    41
1040
1.0
1002
}
  0
TEXT
  5
47E
102
{ACAD_REACTORS
330
48C
102
}
330
18
100
AcDbEntity
  8
0
  6
Continuous
 62
     1
100
AcDbText
 10
315.9999996997324
 20
37.74999981501367
 30
0.0
 40
2.0
  1
-
 41
1.5
100
AcDbText
1001
PHOENIX7010
1002
{
1070
    62
1070
     1
1070
    41
1040
1.0
1002
}
  0
LINE
  5
47F
102
{ACAD_REACTORS
330
48C
102
}
330
18
100
AcDbEntity
  8
0
  6
Continuous
 62
     1
100
AcDbLine
 10
328.0
 20
48.00000000000022
 30
0.0
 11
328.0
 21
14.50000000000023
 31
0.0
1001
PHOENIX7010
1002
{
1070
    62
1070
     1
1070
    41
1040
1.0
1002
}
  0
LINE
  5
480
102
{ACAD_REACTORS
330
48C
102
}
330
18
100
AcDbEntity
  8
0
  6
Continuous
 62
     1
100
AcDbLine
 10
314.9999999999998
 20
21.50000000000023
 30
0.0
 11
350.0
 21
21.50000000000023
 31
0.0
1001
PHOENIX7010
1002
{
1070
    62
1070
     1
1070
    41
1040
1.0
1002
}
  0
LINE
  5
481
102
{ACAD_REACTORS
330
48C
102
}
330
18
100
AcDbEntity
  8
0
  6
Continuous
 62
     5
100
AcDbLine
 10
415.0
 20
78.50000000000022
 30
0.0
 11
317.4999999999998
 21
78.50000000000022
 31
0.0
1001
PHOENIX7010
1002
{
1070
    62
1070
     5
1070
    41
1040
1.0
1002
}
  0
LINE
  5
482
102
{ACAD_REACTORS
330
48C
102
}
330
18
100
AcDbEntity
  8
0
  6
Continuous
 62
     5
100
AcDbLine
 10
415.0
 20
48.00000000000022
 30
0.0
 11
317.4999999999998
 21
48.00000000000022
 31
0.0
1001
PHOENIX7010
1002
{
1070
    62
1070
     5
1070
    41
1040
1.0
1002
}
  0
LINE
  5
483
102
{ACAD_REACTORS
330
48C
102
}
330
18
100
AcDbEntity
  8
0
  6
Continuous
 62
     5
100
AcDbLine
 10
314.9999999999998
 20
100.0000000000001
 30
0.0
 11
314.9999999999998
 21
5.000000000000227
 31
0.0
1001
PHOENIX7010
1002
{
1070
    62
1070
     5
1070
    41
1040
1.0
1002
}
  0
INSERT
  5
484
102
{ACAD_REACTORS
330
48C
102
}
330
18
100
AcDbEntity
  8
0
  6
Continuous
 62
     5
370
    35
100
AcDbBlockReference
  2
PH_GRPBLK
 10
314.9999999999998
 20
14.50000000000023
 30
0.0
1001
PHOENIX7010
1002
{
1070
    41
1040
1.0
1002
}
  0
LWPOLYLINE
  5
485
102
{ACAD_REACTORS
330
442
102
}
330
18
100
AcDbEntity
  8
0
  6
Continuous
 62
     7
 60
     1
370
    50
100
AcDbPolyline
 90
        5
 70
     1
 43
0.0
 10
407.4334749940253
 20
35.16453811398049
 10
400.7334749940254
 20
27.36453811398042
 10
412.7334749940255
 20
27.36453811398042
 10
412.7334749940255
 20
35.16453811398037
 10
407.4334749940253
 20
28.26453811398051
1001
PHOENIX7010
1002
{
1070
    41
1040
1.0
1002
}
  0
LWPOLYLINE
  5
486
102
{ACAD_REACTORS
330
443
102
}
330
18
100
AcDbEntity
  8
0
  6
Continuous
 62
     7
 60
     1
370
    50
100
AcDbPolyline
 90
        3
 70
     1
 43
0.0
 10
399.8834749940256
 20
27.36453811398042
 10
399.8834749940256
 20
31.51453811398039
 10
404.0334749940257
 20
31.51453811398039
 42
2.414213562373094
1001
PHOENIX7010
1002
{
1070
    41
1040
1.0
1002
}
  0
LINE
  5
663
102
{ACAD_REACTORS
330
66E
102
}
330
18
100
AcDbEntity
  8
0
  6
Continuous
 62
     1
100
AcDbLine
 10
28.01301054896749
 20
20.79626128430289
 30
0.0
 11
159.6973169119951
 21
20.79626128430289
 31
0.0
1001
PHOENIX7010
1002
{
1070
    41
1040
1.0
1070
    62
1070
     1
1002
}
  0
LINE
  5
664
102
{ACAD_REACTORS
330
66E
102
}
330
18
100
AcDbEntity
  8
0
  6
Continuous
 62
     1
100
AcDbLine
 10
28.01301054896749
 20
12.46626128430307
 30
0.0
 11
159.6973169119951
 21
12.46626128430307
 31
0.0
1001
PHOENIX7010
1002
{
1070
    41
1040
1.0
1070
    62
1070
     1
1002
}
  0
LINE
  5
665
102
{ACAD_REACTORS
330
66E
102
}
330
18
100
AcDbEntity
  8
0
  6
Continuous
 62
     1
100
AcDbLine
 10
28.01301054896749
 20
29.12626128430293
 30
0.0
 11
159.6973169119951
 21
29.12626128430293
 31
0.0
1001
PHOENIX7010
1002
{
1070
    41
1040
1.0
1070
    62
1070
     1
1002
}
  0
LINE
  5
666
102
{ACAD_REACTORS
330
66E
102
}
330
18
100
AcDbEntity
  8
0
  6
Continuous
 62
     1
100
AcDbLine
 10
28.01301054896749
 20
37.45626128430286
 30
0.0
 11
159.6973169119951
 21
37.45626128430286
 31
0.0
1001
PHOENIX7010
1002
{
1070
    41
1040
1.0
1070
    62
1070
     1
1002
}
  0
MTEXT
  5
667
102
{ACAD_REACTORS
330
66E
102
}
330
18
100
AcDbEntity
  8
0
  6
Continuous
 62
     5
100
AcDbMText
 10
30.63086176709453
 20
44.52929001004895
 30
0.0
 40
5.0
 41
86.59961566179914
 71
     1
 72
     5
  1
Modell/{\Q20;model}\PPSD/M 00642.12\PPSD/M 00663.12\PPSD/M 00684.12
 73
     1
 44
1.0
1001
PHOENIX7010
1002
{
1070
    41
1040
1.0
1070
    62
1070
     5
1002
}
1001
ACAD
1000
MTEXTBEGIN
1070
    73
1070
     1
1070
    44
1040
1.0
1070
    74
1070
     0
1000
MTEXTEND
  0
MTEXT
  5
668
102
{ACAD_REACTORS
330
66E
102
}
330
18
100
AcDbEntity
  8
0
  6
Continuous
 62
     5
100
AcDbMText
 10
94.45059293034409
 20
44.52929001004895
 30
0.0
 40
5.0
 41
55.0
 71
     1
 72
     5
  1
TE/{\Q20;HP}\P  42\P  63\P  84
 73
     1
 44
1.0
1001
PHOENIX7010
1002
{
1070
    41
1040
1.0
1070
    62
1070
     5
1002
}
1001
ACAD
1000
MTEXTBEGIN
1070
    73
1070
     1
1070
    44
1040
1.0
1070
    74
1070
     0
1000
MTEXTEND
  0
MTEXT
  5
669
102
{ACAD_REACTORS
330
66E
102
}
330
18
100
AcDbEntity
  8
0
  6
Continuous
 62
     5
100
AcDbMText
 10
118.9496765959079
 20
44.52929001004895
 30
0.0
 40
5.0
 41
55.0
 71
     1
 72
     5
  1
Länge/Length\P218,44\P325,12\P431,80
 73
     1
 44
1.0
1001
PHOENIX7010
1002
{
1070
    41
1040
1.0
1070
    62
1070
     5
1002
}
1001
ACAD
1000
MTEXTBEGIN
1070
    73
1070
     1
1070
    44
1040
1.0
1070
    74
1070
     0
1000
MTEXTEND
  0
LINE
  5
66A
102
{ACAD_REACTORS
330
66E
102
}
330
18
100
AcDbEntity
  8
0
  6
Continuous
 62
     1
100
AcDbLine
 10
116.3318253777809
 20
12.46626128430307
 30
0.0
 11
116.3318253777809
 21
45.49212470996837
 31
0.0
1001
PHOENIX7010
1002
{
1070
    41
1040
1.0
1070
    62
1070
     1
1002
}
  0
LINE
  5
66B
102
{ACAD_REACTORS
330
66E
102
}
330
18
100
AcDbEntity
  8
0
  6
Continuous
 62
     1
100
AcDbLine
 10
92.09058247296548
 20
12.46626128430307
 30
0.0
 11
92.09058247296548
 21
45.49212470996837
 31
0.0
1001
PHOENIX7010
1002
{
1070
    41
1040
1.0
1070
    62
1070
     1
1002
}
  0
INSERT
  5
66C
102
{ACAD_REACTORS
330
66E
102
}
330
18
100
AcDbEntity
  8
0
  6
Continuous
 62
     1
100
AcDbBlockReference
  2
PH_GRPBLK
 10
28.01301054896749
 20
20.79626128430289
 30
0.0
1001
PHOENIX7010
1002
{
1070
    41
1040
1.0
1002
}
  0
PDFUNDERLAY
  5
7D7
330
18
100
AcDbEntity
  8
0
  6
ACAD_ISO05W100
 62
     3
 92
        8
310
0800000000000000
370
    70
100
AcDbUnderlayReference
340
7D6
 10
261.1087894694413
 20
110.0060742029561
 30
0.0
 41
9.0
 42
9.0
 43
9.0
281
   100
282
     0
  0
ENDSEC
  0
SECTION
  2
OBJECTS
  0
DICTIONARY
  5
C
330
0
100
AcDbDictionary
281
     1
  3
ACAD_COLOR
350
38A
  3
ACAD_GROUP
350
D
  3
ACAD_LAYOUT
350
3A1
  3
ACAD_MATERIAL
350
35D
  3
ACAD_MLEADERSTYLE
350
39F
  3
ACAD_MLINESTYLE
350
1B
  3
ACAD_PDFDEFINITIONS
350
50A
  3
ACAD_PLOTSETTINGS
350
3A2
  3
ACAD_PLOTSTYLENAME
350
35B
  3
ACAD_SCALELIST
350
38D
  3
ACAD_TABLESTYLE
350
38B
  3
ACAD_VISUALSTYLE
350
376
  3
ACDB_RECOMPOSE_DATA
350
8FB
  3
AcDbVariableDictionary
350
4C6
  3
AEC_PROPERTY_SET_DEFS
350
401
  3
DWGPROPS
350
8FC
  3
PH_OBJREACTOR_DICT
350
208
  3
PH_ROOTGROUP_DICT
350
1FE
  3
PH_VARS
350
6EC
  0
DICTIONARY
  5
495
330
8
100
AcDbDictionary
280
     1
281
     1
  0
DICTIONARY
  5
440
330
2
100
AcDbDictionary
280
     1
281
     1
  3
ACAD_LAYERSTATES
360
441
  0
DICTIONARY
  5
3A7
330
E
100
AcDbDictionary
280
     1
281
     1
  3
ADSK_XREC_LAYER_RECONCILED
360
3A8
  0
DICTIONARY
  5
3A9
330
21
100
AcDbDictionary
280
     1
281
     1
  3
ADSK_XREC_LAYER_RECONCILED
360
3AA
  0
DICTIONARY
  5
3AB
330
C5
100
AcDbDictionary
280
     1
281
     1
  3
ADSK_XREC_LAYER_RECONCILED
360
3AC
  0
DICTIONARY
  5
3AD
330
14E
100
AcDbDictionary
280
     1
281
     1
  3
ADSK_XREC_LAYER_RECONCILED
360
3AE
  0
DICTIONARY
  5
3AF
330
1CA
100
AcDbDictionary
280
     1
281
     1
  3
ADSK_XREC_LAYER_RECONCILED
360
3B0
  0
DICTIONARY
  5
3B1
330
216
100
AcDbDictionary
280
     1
281
     1
  3
ADSK_XREC_LAYER_RECONCILED
360
3B2
  0
DICTIONARY
  5
8F9
330
44B
100
AcDbDictionary
280
     1
281
     1
  3
ACAD_MTEXT_2008_RT
360
8FA
  0
DICTIONARY
  5
38A
102
{ACAD_REACTORS
330
C
102
}
330
C
100
AcDbDictionary
281
     1
  0
DICTIONARY
  5
D
102
{ACAD_REACTORS
330
C
102
}
330
C
100
AcDbDictionary
281
     1
  3
$$$$$$$$_BZA45776
350
C4
  3
$$$$$$$$_RAHMEN
350
15C
  3
_GF_XXXX_2KOPF
350
1F5
  3
_GF_XXXX_BZA45776
350
138
  3
_GF_XXXX_RAHMEN
350
19D
  3
_MD_XXXX_BZA45776
350
14C
  3
_VV_XXXX_RAHMEN
350
158
  3
_ZU_XXXX_RAHMEN
350
1C9
  3
DINA4H_BZA45776
350
20
  0
DICTIONARY
  5
3A1
102
{ACAD_REACTORS
330
C
102
}
330
C
100
AcDbDictionary
281
     1
  3
Layout1
350
3A4
  3
Model
350
3A3
  0
DICTIONARY
  5
35D
102
{ACAD_REACTORS
330
C
102
}
330
C
100
AcDbDictionary
281
     1
  3
ByBlock
350
366
  3
ByLayer
350
35E
  3
Global
350
36E
  0
DICTIONARY
  5
39F
102
{ACAD_REACTORS
330
C
102
}
330
C
100
AcDbDictionary
281
     1
  3
Standard
350
3A0
  0
DICTIONARY
  5
1B
102
{ACAD_REACTORS
330
C
102
}
330
C
100
AcDbDictionary
281
     1
  3
STANDARD
350
1C
  0
DICTIONARY
  5
50A
102
{ACAD_REACTORS
330
C
102
}
330
C
100
AcDbDictionary
281
     1
  3
2901843 - 1
350
7D6
  3
86542610_PSD-M_12-RED BOOK - 1
350
50C
  0
DICTIONARY
  5
3A2
102
{ACAD_REACTORS
330
C
102
}
330
C
100
AcDbDictionary
281
     1
  0
ACDBDICTIONARYWDFLT
  5
35B
102
{ACAD_REACTORS
330
C
102
}
330
C
100
AcDbDictionary
281
     1
  3
Normal
350
35C
100
AcDbDictionaryWithDefault
340
35C
  0
DICTIONARY
  5
38D
102
{ACAD_REACTORS
330
C
102
}
330
C
100
AcDbDictionary
281
     1
  3
A0
350
38E
  3
A1
350
38F
  3
A2
350
390
  3
A3
350
391
  3
A4
350
392
  3
A5
350
393
  3
A6
350
394
  3
A7
350
395
  3
A8
350
396
  3
A9
350
397
  3
B0
350
398
  3
B1
350
399
  3
B2
350
39A
  3
B3
350
39B
  3
B4
350
39C
  3
B5
350
39D
  3
B6
350
39E
  0
DICTIONARY
  5
38B
102
{ACAD_REACTORS
330
C
102
}
330
C
100
AcDbDictionary
281
     1
  3
Standard
350
38C
  0
DICTIONARY
  5
376
102
{ACAD_REACTORS
330
C
102
}
330
C
100
AcDbDictionary
281
     1
  3
2dWireframe
350
37C
  3
3D Hidden
350
37E
  3
3dWireframe
350
37D
  3
Basic
350
37B
  3
Brighten
350
382
  3
ColorChange
350
386
  3
Conceptual
350
37F
  3
Dim
350
381
  3
EdgeColorOff
350
389
  3
Facepattern
350
385
  3
Flat
350
377
  3
FlatWithEdges
350
378
  3
Gouraud
350
379
  3
GouraudWithEdges
350
37A
  3
JitterOff
350
387
  3
Linepattern
350
384
  3
OverhangOff
350
388
  3
Realistic
350
380
  3
Thicken
350
383
  0
XRECORD
  5
8FB
102
{ACAD_REACTORS
330
C
102
}
330
C
100
AcDbXrecord
280
     1
 90
        1
330
38C
330
44B
  0
DICTIONARY
  5
4C6
102
{ACAD_REACTORS
330
C
102
}
330
C
100
AcDbDictionary
281
     1
  3
CANNOSCALE
350
4C9
  3
CMLEADERSTYLE
350
4C8
  3
CTABLESTYLE
350
4C7
  3
DIMASSOC
350
4CC
  3
INDEXCTL
350
4CB
  3
LAYEREVAL
350
8CE
  3
LAYERNOTIFY
350
8CF
  3
LIGHTINGUNITS
350
8CD
  3
MSLTSCALE
350
8CC
  3
SORTENTS
350
4CA
  3
XCLIPFRAME
350
8F7
  0
DICTIONARY
  5
401
102
{ACAD_REACTORS
330
C
102
}
330
C
100
AcDbDictionary
281
     1
  0
XRECORD
  5
8FC
102
{ACAD_REACTORS
330
C
102
}
330
C
100
AcDbXrecord
280
     1
  1
DWGPROPS COOKIE
  2

  3

  4

  6

  7

  8
kleemann
  9

300
=
301
=
302
=
303
=
304
=
305
=
306
=
307
=
308
=
309
=
 40
0.038942962962963
 41
2451306.582590023
 42
2457045.557685579
  1

 90
        0
  0
DICTIONARY
  5
208
102
{ACAD_REACTORS
330
C
102
}
330
C
100
AcDbDictionary
281
     1
  0
DICTIONARY
  5
1FE
102
{ACAD_REACTORS
330
C
102
}
330
C
100
AcDbDictionary
281
     1
  3
$PH$AAAD3H
350
3FF
  3
$PH$AAAECandP
350
487
  3
$PH$AAAFwer
350
66D
  0
PH_VARS
  5
6EC
102
{ACAD_REACTORS
330
C
102
}
330
C
  0
DICTIONARY
  5
441
102
{ACAD_REACTORS
330
440
102
}
330
440
100
AcDbDictionary
281
     1
  0
XRECORD
  5
3A8
102
{ACAD_REACTORS
330
3A7
102
}
330
3A7
100
AcDbXrecord
280
     1
290
     1
  0
XRECORD
  5
3AA
102
{ACAD_REACTORS
330
3A9
102
}
330
3A9
100
AcDbXrecord
280
     1
290
     1
  0
XRECORD
  5
3AC
102
{ACAD_REACTORS
330
3AB
102
}
330
3AB
100
AcDbXrecord
280
     1
290
     1
  0
XRECORD
  5
3AE
102
{ACAD_REACTORS
330
3AD
102
}
330
3AD
100
AcDbXrecord
280
     1
290
     1
  0
XRECORD
  5
3B0
102
{ACAD_REACTORS
330
3AF
102
}
330
3AF
100
AcDbXrecord
280
     1
290
     1
  0
XRECORD
  5
3B2
102
{ACAD_REACTORS
330
3B1
102
}
330
3B1
100
AcDbXrecord
280
     1
290
     1
  0
XRECORD
  5
8FA
102
{ACAD_REACTORS
330
8F9
102
}
330
8F9
100
AcDbXrecord
280
     1
 40
46997.0
  1
\pxql;{\fArial|b1|i0|c0|p34;\W1.1;BOPLA}
  0
GROUP
  5
C4
102
{ACAD_REACTORS
330
D
102
}
330
D
100
AcDbGroup
300
V11:17004:********
 70
     0
 71
     1
  0
GROUP
  5
15C
102
{ACAD_REACTORS
330
D
102
}
330
D
100
AcDbGroup
300
V11:17019:********
 70
     0
 71
     1
  0
GROUP
  5
1F5
102
{ACAD_REACTORS
330
D
102
}
330
D
100
AcDbGroup
300
V11:17032:_GF_XXXX
 70
     0
 71
     1
  0
GROUP
  5
138
102
{ACAD_REACTORS
330
D
102
}
330
D
100
AcDbGroup
300
V11:17005:_GF_XXXX
 70
     0
 71
     1
  0
GROUP
  5
19D
102
{ACAD_REACTORS
330
D
102
}
330
D
100
AcDbGroup
300
V11:17025:_GF_XXXX
 70
     0
 71
     1
  0
GROUP
  5
14C
102
{ACAD_REACTORS
330
D
102
}
330
D
100
AcDbGroup
300
V11:17007:_MD_XXXX
 70
     0
 71
     1
  0
GROUP
  5
158
102
{ACAD_REACTORS
330
D
102
}
330
D
100
AcDbGroup
300
V11:17013:_VV_XXXX
 70
     0
 71
     1
  0
GROUP
  5
1C9
102
{ACAD_REACTORS
330
D
102
}
330
D
100
AcDbGroup
300
V11:17029:_ZU_XXXX
 70
     0
 71
     1
  0
GROUP
  5
20
102
{ACAD_REACTORS
330
D
102
}
330
D
100
AcDbGroup
300
V11:16956:DINA4H
 70
     0
 71
     1
  0
LAYOUT
  5
3A4
102
{ACAD_XDICTIONARY
360
928
102
}
102
{ACAD_REACTORS
330
3A1
102
}
330
3A1
100
AcDbPlotSettings
  1

  2
RICOH Aficio MP W2400 RPCS
  4

  6

 40
0.0
 41
0.0
 42
0.0
 43
0.0
 44
0.0
 45
0.0
 46
0.0
 47
0.0
 48
0.0
 49
0.0
140
0.0
141
0.0
142
1.0
143
1.0
 70
   688
 72
     0
 73
     0
 74
     5
  7
HP_Farbe_Dünn.ctb
 75
    16
147
1.0
148
0.0
149
0.0
100
AcDbLayout
  1
Layout1
 70
     1
 71
     1
 10
0.0
 20
0.0
 11
420.0
 21
297.0
 12
0.0
 22
0.0
 32
0.0
 14
1.000000000000000E+20
 24
1.000000000000000E+20
 34
1.000000000000000E+20
 15
-1.000000000000000E+20
 25
-1.000000000000000E+20
 35
-1.000000000000000E+20
146
0.0
 13
0.0
 23
0.0
 33
0.0
 16
1.0
 26
0.0
 36
0.0
 17
0.0
 27
1.0
 37
0.0
 76
     0
330
15
  0
LAYOUT
  5
3A3
102
{ACAD_XDICTIONARY
360
8B9
102
}
102
{ACAD_REACTORS
330
3A1
102
}
330
3A1
100
AcDbPlotSettings
  1

  2
RICOH Aficio MP W2400 RPCS
  4
A4
  6

 40
5.027082920074462
 41
5.027099609375
 42
5.027069091796875
 43
5.027069091796875
 44
209.9733276367187
 45
296.9259948730469
 46
0.0
 47
0.0
 48
0.0
 49
0.0
140
0.0
141
0.0
142
1.0
143
3.494741406264619
 70
 11952
 72
     1
 73
     1
 74
     0
  7
HP_Farbe_Dünn.ctb
 75
     0
147
0.2861442046062165
148
264.0452685008999
149
108.5976142937995
100
AcDbLayout
  1
Model
 70
     1
 71
     0
 10
0.0
 20
0.0
 11
12.0
 21
9.0
 12
0.0
 22
0.0
 32
0.0
 14
0.0
 24
0.0
 34
0.0
 15
0.0
 25
0.0
 35
0.0
146
0.0
 13
0.0
 23
0.0
 33
0.0
 16
1.0
 26
0.0
 36
0.0
 17
0.0
 27
1.0
 37
0.0
 76
     0
330
18
331
359
1001
ACAD_PSEXT
1000
RICOH Aficio MP W2400 RPCS
1000
RICOH Aficio MP W2400 RPCS
1000
192.168.49.64
1000

1070
     0
  0
MATERIAL
  5
366
102
{ACAD_XDICTIONARY
360
367
102
}
102
{ACAD_REACTORS
330
35D
102
}
330
35D
100
AcDbMaterial
  1
ByBlock
 72
     0
 43
0.0208333333333333
 43
0.0
 43
0.0
 43
0.0
 43
0.0
 43
0.0208333333333333
 43
0.0
 43
0.0
 43
0.0
 43
0.0
 43
1.0
 43
0.0
 43
0.0
 43
0.0
 43
0.0
 43
1.0
 77
     0
 47
0.0208333333333333
 47
0.0
 47
0.0
 47
0.0
 47
0.0
 47
0.0208333333333333
 47
0.0
 47
0.0
 47
0.0
 47
0.0
 47
1.0
 47
0.0
 47
0.0
 47
0.0
 47
0.0
 47
1.0
171
     0
 49
0.0208333333333333
 49
0.0
 49
0.0
 49
0.0
 49
0.0
 49
0.0208333333333333
 49
0.0
 49
0.0
 49
0.0
 49
0.0
 49
1.0
 49
0.0
 49
0.0
 49
0.0
 49
0.0
 49
1.0
175
     0
142
0.0208333333333333
142
0.0
142
0.0
142
0.0
142
0.0
142
0.0208333333333333
142
0.0
142
0.0
142
0.0
142
0.0
142
1.0
142
0.0
142
0.0
142
0.0
142
0.0
142
1.0
179
     0
144
0.0208333333333333
144
0.0
144
0.0
144
0.0
144
0.0
144
0.0208333333333333
144
0.0
144
0.0
144
0.0
144
0.0
144
1.0
144
0.0
144
0.0
144
0.0
144
0.0
144
1.0
147
0.0208333333333333
147
0.0
147
0.0
147
0.0
147
0.0
147
0.0208333333333333
147
0.0
147
0.0
147
0.0
147
0.0
147
1.0
147
0.0
147
0.0
147
0.0
147
0.0
147
1.0
  0
MATERIAL
  5
35E
102
{ACAD_XDICTIONARY
360
35F
102
}
102
{ACAD_REACTORS
330
35D
102
}
330
35D
100
AcDbMaterial
  1
ByLayer
 72
     0
 43
0.0208333333333333
 43
0.0
 43
0.0
 43
0.0
 43
0.0
 43
0.0208333333333333
 43
0.0
 43
0.0
 43
0.0
 43
0.0
 43
1.0
 43
0.0
 43
0.0
 43
0.0
 43
0.0
 43
1.0
 77
     0
 47
0.0208333333333333
 47
0.0
 47
0.0
 47
0.0
 47
0.0
 47
0.0208333333333333
 47
0.0
 47
0.0
 47
0.0
 47
0.0
 47
1.0
 47
0.0
 47
0.0
 47
0.0
 47
0.0
 47
1.0
171
     0
 49
0.0208333333333333
 49
0.0
 49
0.0
 49
0.0
 49
0.0
 49
0.0208333333333333
 49
0.0
 49
0.0
 49
0.0
 49
0.0
 49
1.0
 49
0.0
 49
0.0
 49
0.0
 49
0.0
 49
1.0
175
     0
142
0.0208333333333333
142
0.0
142
0.0
142
0.0
142
0.0
142
0.0208333333333333
142
0.0
142
0.0
142
0.0
142
0.0
142
1.0
142
0.0
142
0.0
142
0.0
142
0.0
142
1.0
179
     0
144
0.0208333333333333
144
0.0
144
0.0
144
0.0
144
0.0
144
0.0208333333333333
144
0.0
144
0.0
144
0.0
144
0.0
144
1.0
144
0.0
144
0.0
144
0.0
144
0.0
144
1.0
147
0.0208333333333333
147
0.0
147
0.0
147
0.0
147
0.0
147
0.0208333333333333
147
0.0
147
0.0
147
0.0
147
0.0
147
1.0
147
0.0
147
0.0
147
0.0
147
0.0
147
1.0
  0
MATERIAL
  5
36E
102
{ACAD_XDICTIONARY
360
36F
102
}
102
{ACAD_REACTORS
330
35D
102
}
330
35D
100
AcDbMaterial
  1
Global
 72
     0
 43
0.0208333333333333
 43
0.0
 43
0.0
 43
0.0
 43
0.0
 43
0.0208333333333333
 43
0.0
 43
0.0
 43
0.0
 43
0.0
 43
1.0
 43
0.0
 43
0.0
 43
0.0
 43
0.0
 43
1.0
 77
     0
 47
0.0208333333333333
 47
0.0
 47
0.0
 47
0.0
 47
0.0
 47
0.0208333333333333
 47
0.0
 47
0.0
 47
0.0
 47
0.0
 47
1.0
 47
0.0
 47
0.0
 47
0.0
 47
0.0
 47
1.0
171
     0
 49
0.0208333333333333
 49
0.0
 49
0.0
 49
0.0
 49
0.0
 49
0.0208333333333333
 49
0.0
 49
0.0
 49
0.0
 49
0.0
 49
1.0
 49
0.0
 49
0.0
 49
0.0
 49
0.0
 49
1.0
175
     0
142
0.0208333333333333
142
0.0
142
0.0
142
0.0
142
0.0
142
0.0208333333333333
142
0.0
142
0.0
142
0.0
142
0.0
142
1.0
142
0.0
142
0.0
142
0.0
142
0.0
142
1.0
179
     0
144
0.0208333333333333
144
0.0
144
0.0
144
0.0
144
0.0
144
0.0208333333333333
144
0.0
144
0.0
144
0.0
144
0.0
144
1.0
144
0.0
144
0.0
144
0.0
144
0.0
144
1.0
147
0.0208333333333333
147
0.0
147
0.0
147
0.0
147
0.0
147
0.0208333333333333
147
0.0
147
0.0
147
0.0
147
0.0
147
1.0
147
0.0
147
0.0
147
0.0
147
0.0
147
1.0
  0
MLEADERSTYLE
  5
3A0
102
{ACAD_REACTORS
330
39F
102
}
330
39F
100
AcDbMLeaderStyle
170
     2
171
     1
172
     0
 90
        2
 40
0.0
 41
0.0
173
     1
 91
-1056964608
340
12
 92
       -2
290
     1
 42
2.0
291
     1
 43
0.36
  3
Standard
 44
4.0
300

342
F
174
     1
178
     6
175
     1
176
     0
 93
-1056964608
 45
4.0
292
     0
297
     0
 46
4.0
 94
-1056964608
 47
1.0
 49
1.0
140
1.0
293
     1
141
0.0
294
     1
177
     0
142
1.0
295
     0
296
     0
143
0.125
1001
ACAD_MLEADERVER
1070
     2
  0
MLINESTYLE
  5
1C
102
{ACAD_REACTORS
330
1B
102
}
330
1B
100
AcDbMlineStyle
  2
STANDARD
 70
     0
  3

 62
   256
 51
90.0
 52
90.0
 71
     2
 49
0.5
 62
   256
  6
BYLAYER
 49
-0.5
 62
   256
  6
BYLAYER
  0
PDFDEFINITION
  5
7D6
102
{ACAD_REACTORS
330
50A
330
7D7
102
}
330
50A
100
AcDbUnderlayDefinition
  1
F:\User\Daten\DWG\nc2\nc29\2901843.pdf
  2
1
  0
PDFDEFINITION
  5
50C
102
{ACAD_REACTORS
330
50A
102
}
330
50A
100
AcDbUnderlayDefinition
  1
F:\User\Daten\DWG\Anw\RN\NEUE KATALOGZG\Interzoll Modul\NEUE NC2-KatalogZG\86542610_PSD-M_12-RED BOOK.pdf
  2
1
  0
ACDBPLACEHOLDER
  5
35C
102
{ACAD_REACTORS
330
35B
102
}
330
35B
  0
SCALE
  5
38E
102
{ACAD_REACTORS
330
38D
102
}
330
38D
100
AcDbScale
 70
     0
300
1:1
140
1.0
141
1.0
290
     1
  0
SCALE
  5
38F
102
{ACAD_REACTORS
330
38D
102
}
330
38D
100
AcDbScale
 70
     0
300
1:2
140
1.0
141
2.0
290
     0
  0
SCALE
  5
390
102
{ACAD_REACTORS
330
38D
102
}
330
38D
100
AcDbScale
 70
     0
300
1:4
140
1.0
141
4.0
290
     0
  0
SCALE
  5
391
102
{ACAD_REACTORS
330
38D
102
}
330
38D
100
AcDbScale
 70
     0
300
1:5
140
1.0
141
5.0
290
     0
  0
SCALE
  5
392
102
{ACAD_REACTORS
330
38D
102
}
330
38D
100
AcDbScale
 70
     0
300
1:8
140
1.0
141
8.0
290
     0
  0
SCALE
  5
393
102
{ACAD_REACTORS
330
38D
102
}
330
38D
100
AcDbScale
 70
     0
300
1:10
140
1.0
141
10.0
290
     0
  0
SCALE
  5
394
102
{ACAD_REACTORS
330
38D
102
}
330
38D
100
AcDbScale
 70
     0
300
1:16
140
1.0
141
16.0
290
     0
  0
SCALE
  5
395
102
{ACAD_REACTORS
330
38D
102
}
330
38D
100
AcDbScale
 70
     0
300
1:20
140
1.0
141
20.0
290
     0
  0
SCALE
  5
396
102
{ACAD_REACTORS
330
38D
102
}
330
38D
100
AcDbScale
 70
     0
300
1:30
140
1.0
141
30.0
290
     0
  0
SCALE
  5
397
102
{ACAD_REACTORS
330
38D
102
}
330
38D
100
AcDbScale
 70
     0
300
1:40
140
1.0
141
40.0
290
     0
  0
SCALE
  5
398
102
{ACAD_REACTORS
330
38D
102
}
330
38D
100
AcDbScale
 70
     0
300
1:50
140
1.0
141
50.0
290
     0
  0
SCALE
  5
399
102
{ACAD_REACTORS
330
38D
102
}
330
38D
100
AcDbScale
 70
     0
300
1:100
140
1.0
141
100.0
290
     0
  0
SCALE
  5
39A
102
{ACAD_REACTORS
330
38D
102
}
330
38D
100
AcDbScale
 70
     0
300
2:1
140
2.0
141
1.0
290
     0
  0
SCALE
  5
39B
102
{ACAD_REACTORS
330
38D
102
}
330
38D
100
AcDbScale
 70
     0
300
4:1
140
4.0
141
1.0
290
     0
  0
SCALE
  5
39C
102
{ACAD_REACTORS
330
38D
102
}
330
38D
100
AcDbScale
 70
     0
300
8:1
140
8.0
141
1.0
290
     0
  0
SCALE
  5
39D
102
{ACAD_REACTORS
330
38D
102
}
330
38D
100
AcDbScale
 70
     0
300
10:1
140
10.0
141
1.0
290
     0
  0
SCALE
  5
39E
102
{ACAD_REACTORS
330
38D
102
}
330
38D
100
AcDbScale
 70
     0
300
100:1
140
100.0
141
1.0
290
     0
  0
TABLESTYLE
  5
38C
102
{ACAD_XDICTIONARY
360
48F
102
}
102
{ACAD_REACTORS
330
38B
102
}
330
38B
100
AcDbTableStyle
  3
Standard
 70
     0
 71
     0
 40
1.5
 41
1.5
280
     0
281
     0
  7
STANDARD
140
4.5
170
     2
 62
     0
 63
     7
283
     0
274
    -2
284
     1
 64
     0
275
    -2
285
     1
 65
     0
276
    -2
286
     1
 66
     0
277
    -2
287
     1
 67
     0
278
    -2
288
     1
 68
     0
279
    -2
289
     1
 69
     0
  7
STANDARD
140
6.0
170
     5
 62
     0
 63
     7
283
     0
274
    -2
284
     1
 64
     0
275
    -2
285
     1
 65
     0
276
    -2
286
     1
 66
     0
277
    -2
287
     1
 67
     0
278
    -2
288
     1
 68
     0
279
    -2
289
     1
 69
     0
  7
STANDARD
140
4.5
170
     5
 62
     0
 63
     7
283
     0
274
    -2
284
     1
 64
     0
275
    -2
285
     1
 65
     0
276
    -2
286
     1
 66
     0
277
    -2
287
     1
 67
     0
278
    -2
288
     1
 68
     0
279
    -2
289
     1
 69
     0
  0
VISUALSTYLE
  5
37C
102
{ACAD_XDICTIONARY
360
90A
102
}
102
{ACAD_REACTORS
330
376
102
}
330
376
100
AcDbVisualStyle
  2
2dWireframe
 70
     4
 71
     0
 72
     2
 73
     0
 90
        0
 40
-0.6
 41
-30.0
 62
     5
 63
     7
 74
     1
 91
        4
 64
     7
 65
   257
 75
     1
175
     1
 42
1.0
 92
        0
 66
   257
 43
1.0
 76
     1
 77
     6
 78
     2
 67
     7
 79
     5
170
     0
171
     0
290
     0
174
     0
 93
        1
 44
0.0
173
     0
291
     0
 45
0.0
1001
ACAD
1000
AcDbSavedByObjectVersion
1070
     0
  0
VISUALSTYLE
  5
37E
102
{ACAD_XDICTIONARY
360
90E
102
}
102
{ACAD_REACTORS
330
376
102
}
330
376
100
AcDbVisualStyle
  2
3D Hidden
 70
     6
 71
     1
 72
     2
 73
     2
 90
        0
 40
-0.6
 41
-30.0
 62
     5
 63
     7
 74
     2
 91
        2
 64
     7
 65
   257
 75
     2
175
     1
 42
179.0
 92
        0
 66
   257
 43
1.0
 76
     1
 77
     6
 78
     2
 67
     7
 79
     3
170
     0
171
     0
290
     0
174
     0
 93
        1
 44
0.0
173
     0
291
     0
 45
0.0
1001
ACAD
1000
AcDbSavedByObjectVersion
1070
     0
  0
VISUALSTYLE
  5
37D
102
{ACAD_XDICTIONARY
360
90C
102
}
102
{ACAD_REACTORS
330
376
102
}
330
376
100
AcDbVisualStyle
  2
3dWireframe
 70
     5
 71
     0
 72
     2
 73
     0
 90
        0
 40
-0.6
 41
-30.0
 62
     5
 63
     7
 74
     1
 91
        4
 64
     7
 65
   257
 75
     1
175
     1
 42
1.0
 92
        0
 66
   257
 43
1.0
 76
     1
 77
     6
 78
     2
 67
     7
 79
     5
170
     0
171
     0
290
     0
174
     0
 93
        1
 44
0.0
173
     0
291
     0
 45
0.0
1001
ACAD
1000
AcDbSavedByObjectVersion
1070
     0
  0
VISUALSTYLE
  5
37B
102
{ACAD_XDICTIONARY
360
908
102
}
102
{ACAD_REACTORS
330
376
102
}
330
376
100
AcDbVisualStyle
  2
Basic
 70
     7
 71
     1
 72
     0
 73
     1
 90
        0
 40
-0.6
 41
-30.0
 62
     5
 63
     7
 74
     0
 91
        4
 64
     7
 65
   257
 75
     1
175
     1
 42
1.0
 92
        8
 66
     7
 43
1.0
 76
     1
 77
     6
 78
     2
 67
     7
 79
     5
170
     0
171
     0
290
     0
174
     0
 93
        1
 44
0.0
173
     0
291
     1
 45
0.0
1001
ACAD
1000
AcDbSavedByObjectVersion
1070
     0
  0
VISUALSTYLE
  5
382
102
{ACAD_XDICTIONARY
360
916
102
}
102
{ACAD_REACTORS
330
376
102
}
330
376
100
AcDbVisualStyle
  2
Brighten
 70
    12
 71
     2
 72
     2
 73
     0
 90
        0
 40
-0.6
 41
-30.0
 62
     5
 63
     7
 74
     1
 91
        4
 64
     7
 65
   257
 75
     1
175
     1
 42
1.0
 92
        8
 66
     7
 43
1.0
 76
     1
 77
     6
 78
     2
 67
     7
 79
     5
170
     0
171
     0
290
     0
174
     0
 93
        1
 44
50.0
173
     0
291
     1
 45
0.0
1001
ACAD
1000
AcDbSavedByObjectVersion
1070
     0
  0
VISUALSTYLE
  5
386
102
{ACAD_XDICTIONARY
360
91E
102
}
102
{ACAD_REACTORS
330
376
102
}
330
376
100
AcDbVisualStyle
  2
ColorChange
 70
    16
 71
     2
 72
     2
 73
     3
 90
        0
 40
-0.6
 41
-30.0
 62
     5
 63
     8
 74
     1
 91
        4
 64
     7
 65
   257
 75
     1
175
     1
 42
1.0
 92
        8
 66
     8
 43
1.0
 76
     1
 77
     6
 78
     2
 67
     7
 79
     5
170
     0
171
     0
290
     0
174
     0
 93
        1
 44
0.0
173
     0
291
     1
 45
0.0
1001
ACAD
1000
AcDbSavedByObjectVersion
1070
     0
  0
VISUALSTYLE
  5
37F
102
{ACAD_XDICTIONARY
360
910
102
}
102
{ACAD_REACTORS
330
376
102
}
330
376
100
AcDbVisualStyle
  2
Conceptual
 70
     9
 71
     3
 72
     2
 73
     0
 90
        0
 40
-0.6
 41
-30.0
 62
     5
 63
     7
 74
     2
 91
        2
 64
     7
 65
   257
 75
     1
175
     1
 42
179.0
 92
        8
 66
     7
 43
1.0
 76
     1
 77
     6
 78
     2
 67
     7
 79
     3
170
     0
171
     0
290
     0
174
     0
 93
        1
 44
0.0
173
     0
291
     0
 45
0.0
1001
ACAD
1000
AcDbSavedByObjectVersion
1070
     0
  0
VISUALSTYLE
  5
381
102
{ACAD_XDICTIONARY
360
914
102
}
102
{ACAD_REACTORS
330
376
102
}
330
376
100
AcDbVisualStyle
  2
Dim
 70
    11
 71
     2
 72
     2
 73
     0
 90
        0
 40
-0.6
 41
-30.0
 62
     5
 63
     7
 74
     1
 91
        4
 64
     7
 65
   257
 75
     1
175
     1
 42
1.0
 92
        8
 66
     7
 43
1.0
 76
     1
 77
     6
 78
     2
 67
     7
 79
     5
170
     0
171
     0
290
     0
174
     0
 93
        1
 44
-50.0
173
     0
291
     1
 45
0.0
1001
ACAD
1000
AcDbSavedByObjectVersion
1070
     0
  0
VISUALSTYLE
  5
389
102
{ACAD_XDICTIONARY
360
924
102
}
102
{ACAD_REACTORS
330
376
102
}
330
376
100
AcDbVisualStyle
  2
EdgeColorOff
 70
    22
 71
     2
 72
     2
 73
     0
 90
        0
 40
-0.6
 41
-30.0
 62
     5
 63
     7
 74
     1
 91
        4
 64
     7
 65
   257
 75
     1
175
     1
 42
1.0
 92
        8
 66
     7
 43
1.0
 76
     1
 77
     6
 78
     2
 67
     7
 79
     5
170
     0
171
     0
290
     0
174
     0
 93
        1
 44
0.0
173
     0
291
     1
 45
0.0
1001
ACAD
1000
AcDbSavedByObjectVersion
1070
     0
  0
VISUALSTYLE
  5
385
102
{ACAD_XDICTIONARY
360
91C
102
}
102
{ACAD_REACTORS
330
376
102
}
330
376
100
AcDbVisualStyle
  2
Facepattern
 70
    15
 71
     2
 72
     2
 73
     0
 90
        0
 40
-0.6
 41
-30.0
 62
     5
 63
     7
 74
     1
 91
        4
 64
     7
 65
   257
 75
     1
175
     1
 42
1.0
 92
        8
 66
     7
 43
1.0
 76
     1
 77
     6
 78
     2
 67
     7
 79
     5
170
     0
171
     0
290
     0
174
     0
 93
        1
 44
0.0
173
     0
291
     1
 45
0.0
1001
ACAD
1000
AcDbSavedByObjectVersion
1070
     0
  0
VISUALSTYLE
  5
377
102
{ACAD_XDICTIONARY
360
900
102
}
102
{ACAD_REACTORS
330
376
102
}
330
376
100
AcDbVisualStyle
  2
Flat
 70
     0
 71
     2
 72
     1
 73
     1
 90
        2
 40
-0.6
 41
30.0
 62
     5
 63
     7
 74
     0
 91
        4
 64
     7
 65
   257
 75
     1
175
     1
 42
1.0
 92
        8
 66
     7
 43
1.0
 76
     1
 77
     6
 78
     2
 67
     7
 79
     5
170
     0
171
     0
290
     0
174
     0
 93
       13
 44
0.0
173
     0
291
     1
 45
0.0
1001
ACAD
1000
AcDbSavedByObjectVersion
1070
     0
  0
VISUALSTYLE
  5
378
102
{ACAD_XDICTIONARY
360
902
102
}
102
{ACAD_REACTORS
330
376
102
}
330
376
100
AcDbVisualStyle
  2
FlatWithEdges
 70
     1
 71
     2
 72
     1
 73
     1
 90
        2
 40
-0.6
 41
30.0
 62
     5
 63
     7
 74
     1
 91
        4
 64
     7
 65
   257
 75
     1
175
     1
 42
1.0
 92
        0
 66
   257
 43
1.0
 76
     1
 77
     6
 78
     2
 67
     7
 79
     5
170
     0
171
     0
290
     0
174
     0
 93
       13
 44
0.0
173
     0
291
     1
 45
0.0
1001
ACAD
1000
AcDbSavedByObjectVersion
1070
     0
  0
VISUALSTYLE
  5
379
102
{ACAD_XDICTIONARY
360
904
102
}
102
{ACAD_REACTORS
330
376
102
}
330
376
100
AcDbVisualStyle
  2
Gouraud
 70
     2
 71
     2
 72
     2
 73
     1
 90
        2
 40
-0.6
 41
30.0
 62
     5
 63
     7
 74
     0
 91
        4
 64
     7
 65
   257
 75
     1
175
     1
 42
1.0
 92
        0
 66
     7
 43
1.0
 76
     1
 77
     6
 78
     2
 67
     7
 79
     5
170
     0
171
     0
290
     0
174
     0
 93
       13
 44
0.0
173
     0
291
     1
 45
0.0
1001
ACAD
1000
AcDbSavedByObjectVersion
1070
     0
  0
VISUALSTYLE
  5
37A
102
{ACAD_XDICTIONARY
360
906
102
}
102
{ACAD_REACTORS
330
376
102
}
330
376
100
AcDbVisualStyle
  2
GouraudWithEdges
 70
     3
 71
     2
 72
     2
 73
     1
 90
        2
 40
-0.6
 41
30.0
 62
     5
 63
     7
 74
     1
 91
        4
 64
     7
 65
   257
 75
     1
175
     1
 42
1.0
 92
        0
 66
   257
 43
1.0
 76
     1
 77
     6
 78
     2
 67
     7
 79
     5
170
     0
171
     0
290
     0
174
     0
 93
       13
 44
0.0
173
     0
291
     1
 45
0.0
1001
ACAD
1000
AcDbSavedByObjectVersion
1070
     0
  0
VISUALSTYLE
  5
387
102
{ACAD_XDICTIONARY
360
920
102
}
102
{ACAD_REACTORS
330
376
102
}
330
376
100
AcDbVisualStyle
  2
JitterOff
 70
    20
 71
     2
 72
     2
 73
     0
 90
        0
 40
-0.6
 41
-30.0
 62
     5
 63
     7
 74
     1
 91
        4
 64
     7
 65
   257
 75
     1
175
     1
 42
1.0
 92
       10
 66
     7
 43
1.0
 76
     1
 77
     6
 78
     2
 67
     7
 79
     5
170
     0
171
     0
290
     0
174
     0
 93
        1
 44
0.0
173
     0
291
     1
 45
0.0
1001
ACAD
1000
AcDbSavedByObjectVersion
1070
     0
  0
VISUALSTYLE
  5
384
102
{ACAD_XDICTIONARY
360
91A
102
}
102
{ACAD_REACTORS
330
376
102
}
330
376
100
AcDbVisualStyle
  2
Linepattern
 70
    14
 71
     2
 72
     2
 73
     0
 90
        0
 40
-0.6
 41
-30.0
 62
     5
 63
     7
 74
     1
 91
        4
 64
     7
 65
   257
 75
     7
175
     7
 42
1.0
 92
        8
 66
     7
 43
1.0
 76
     1
 77
     6
 78
     2
 67
     7
 79
     5
170
     0
171
     0
290
     0
174
     0
 93
        1
 44
0.0
173
     0
291
     1
 45
0.0
1001
ACAD
1000
AcDbSavedByObjectVersion
1070
     0
  0
VISUALSTYLE
  5
388
102
{ACAD_XDICTIONARY
360
922
102
}
102
{ACAD_REACTORS
330
376
102
}
330
376
100
AcDbVisualStyle
  2
OverhangOff
 70
    21
 71
     2
 72
     2
 73
     0
 90
        0
 40
-0.6
 41
-30.0
 62
     5
 63
     7
 74
     1
 91
        4
 64
     7
 65
   257
 75
     1
175
     1
 42
1.0
 92
        9
 66
     7
 43
1.0
 76
     1
 77
     6
 78
     2
 67
     7
 79
     5
170
     0
171
     0
290
     0
174
     0
 93
        1
 44
0.0
173
     0
291
     1
 45
0.0
1001
ACAD
1000
AcDbSavedByObjectVersion
1070
     0
  0
VISUALSTYLE
  5
380
102
{ACAD_XDICTIONARY
360
912
102
}
102
{ACAD_REACTORS
330
376
102
}
330
376
100
AcDbVisualStyle
  2
Realistic
 70
     8
 71
     2
 72
     2
 73
     0
 90
        0
 40
-0.6
 41
-30.0
 62
     5
 63
     7
 74
     1
 91
        0
 64
     7
 65
   257
 75
     1
175
     1
 42
1.0
 92
        8
 66
     8
 43
1.0
 76
     1
 77
     6
 78
     2
 67
     7
 79
     5
170
     0
171
     0
290
     0
174
     0
 93
       13
 44
0.0
173
     0
291
     0
 45
0.0
1001
ACAD
1000
AcDbSavedByObjectVersion
1070
     0
  0
VISUALSTYLE
  5
383
102
{ACAD_XDICTIONARY
360
918
102
}
102
{ACAD_REACTORS
330
376
102
}
330
376
100
AcDbVisualStyle
  2
Thicken
 70
    13
 71
     2
 72
     2
 73
     0
 90
        0
 40
-0.6
 41
-30.0
 62
     5
 63
     7
 74
     1
 91
        4
 64
     7
 65
   257
 75
     1
175
     1
 42
1.0
 92
       12
 66
     7
 43
1.0
 76
     1
 77
     6
 78
     2
 67
     7
 79
     5
170
     0
171
     0
290
     0
174
     0
 93
        1
 44
0.0
173
     0
291
     1
 45
0.0
1001
ACAD
1000
AcDbSavedByObjectVersion
1070
     0
  0
DICTIONARYVAR
  5
4C9
102
{ACAD_REACTORS
330
4C6
102
}
330
4C6
100
DictionaryVariables
280
     0
  1
1:1
  0
DICTIONARYVAR
  5
4C8
102
{ACAD_REACTORS
330
4C6
102
}
330
4C6
100
DictionaryVariables
280
     0
  1
STANDARD
  0
DICTIONARYVAR
  5
4C7
102
{ACAD_REACTORS
330
4C6
102
}
330
4C6
100
DictionaryVariables
280
     0
  1
STANDARD
  0
DICTIONARYVAR
  5
4CC
102
{ACAD_REACTORS
330
4C6
102
}
330
4C6
100
DictionaryVariables
280
     0
  1
1
  0
DICTIONARYVAR
  5
4CB
102
{ACAD_REACTORS
330
4C6
102
}
330
4C6
100
DictionaryVariables
280
     0
  1
0
  0
DICTIONARYVAR
  5
8CE
102
{ACAD_REACTORS
330
4C6
102
}
330
4C6
100
DictionaryVariables
280
     0
  1
1
  0
DICTIONARYVAR
  5
8CF
102
{ACAD_REACTORS
330
4C6
102
}
330
4C6
100
DictionaryVariables
280
     0
  1
15
  0
DICTIONARYVAR
  5
8CD
102
{ACAD_REACTORS
330
4C6
102
}
330
4C6
100
DictionaryVariables
280
     0
  1
0
  0
DICTIONARYVAR
  5
8CC
102
{ACAD_REACTORS
330
4C6
102
}
330
4C6
100
DictionaryVariables
280
     0
  1
0
  0
DICTIONARYVAR
  5
4CA
102
{ACAD_REACTORS
330
4C6
102
}
330
4C6
100
DictionaryVariables
280
     0
  1
127
  0
DICTIONARYVAR
  5
8F7
102
{ACAD_REACTORS
330
4C6
102
}
330
4C6
100
DictionaryVariables
280
     0
  1
2
  0
DICTIONARY
  5
3FF
102
{ACAD_REACTORS
330
1FE
102
}
330
1FE
100
AcDbDictionary
281
     1
  3
PH_GRPMEMBERS
350
400
  0
DICTIONARY
  5
487
102
{ACAD_REACTORS
330
1FE
102
}
330
1FE
100
AcDbDictionary
281
     1
  3
$PH$AAAA
350
488
  3
PH_GRPMEMBERS
350
48C
  0
DICTIONARY
  5
66D
102
{ACAD_REACTORS
330
1FE
102
}
330
1FE
100
AcDbDictionary
280
     1
281
     1
  3
PH_GRPMEMBERS
360
66E
  0
DICTIONARY
  5
928
330
3A4
100
AcDbDictionary
280
     1
281
     1
  3
ACAD_XREC_ROUNDTRIP
360
929
  0
DICTIONARY
  5
8B9
330
3A3
100
AcDbDictionary
280
     1
281
     1
  3
ACAD_XREC_ROUNDTRIP
360
927
  3
ADSK_XREC_LAYOUTTHUMBNAIL
360
8BA
  0
DICTIONARY
  5
367
330
366
100
AcDbDictionary
280
     1
281
     1
  3
ACAD_XREC_ROUNDTRIP
360
8FE
  3
BUMPTILE
360
369
  3
DIFFUSETILE
360
368
  3
OPACITYTILE
360
36C
  3
REFLECTIONTILE
360
36B
  3
REFRACTIONTILE
360
36D
  3
SPECULARTILE
360
36A
  0
DICTIONARY
  5
35F
330
35E
100
AcDbDictionary
280
     1
281
     1
  3
ACAD_XREC_ROUNDTRIP
360
8FD
  3
BUMPTILE
360
361
  3
DIFFUSETILE
360
360
  3
OPACITYTILE
360
364
  3
REFLECTIONTILE
360
363
  3
REFRACTIONTILE
360
365
  3
SPECULARTILE
360
362
  0
DICTIONARY
  5
36F
330
36E
100
AcDbDictionary
280
     1
281
     1
  3
ACAD_XREC_ROUNDTRIP
360
8FF
  3
BUMPTILE
360
371
  3
DIFFUSETILE
360
370
  3
OPACITYTILE
360
374
  3
REFLECTIONTILE
360
373
  3
REFRACTIONTILE
360
375
  3
SPECULARTILE
360
372
  0
DICTIONARY
  5
48F
330
38C
100
AcDbDictionary
280
     1
281
     1
  3
ACAD_ROUNDTRIP_2008_TABLESTYLE_CELLSTYLEMAP
360
8F8
  3
ACAD_XREC_ROUNDTRIP
360
926
  0
DICTIONARY
  5
90A
330
37C
100
AcDbDictionary
280
     1
281
     1
  3
ACAD_XREC_ROUNDTRIP
360
90B
  0
DICTIONARY
  5
90E
330
37E
100
AcDbDictionary
280
     1
281
     1
  3
ACAD_XREC_ROUNDTRIP
360
90F
  0
DICTIONARY
  5
90C
330
37D
100
AcDbDictionary
280
     1
281
     1
  3
ACAD_XREC_ROUNDTRIP
360
90D
  0
DICTIONARY
  5
908
330
37B
100
AcDbDictionary
280
     1
281
     1
  3
ACAD_XREC_ROUNDTRIP
360
909
  0
DICTIONARY
  5
916
330
382
100
AcDbDictionary
280
     1
281
     1
  3
ACAD_XREC_ROUNDTRIP
360
917
  0
DICTIONARY
  5
91E
330
386
100
AcDbDictionary
280
     1
281
     1
  3
ACAD_XREC_ROUNDTRIP
360
91F
  0
DICTIONARY
  5
910
330
37F
100
AcDbDictionary
280
     1
281
     1
  3
ACAD_XREC_ROUNDTRIP
360
911
  0
DICTIONARY
  5
914
330
381
100
AcDbDictionary
280
     1
281
     1
  3
ACAD_XREC_ROUNDTRIP
360
915
  0
DICTIONARY
  5
924
330
389
100
AcDbDictionary
280
     1
281
     1
  3
ACAD_XREC_ROUNDTRIP
360
925
  0
DICTIONARY
  5
91C
330
385
100
AcDbDictionary
280
     1
281
     1
  3
ACAD_XREC_ROUNDTRIP
360
91D
  0
DICTIONARY
  5
900
330
377
100
AcDbDictionary
280
     1
281
     1
  3
ACAD_XREC_ROUNDTRIP
360
901
  0
DICTIONARY
  5
902
330
378
100
AcDbDictionary
280
     1
281
     1
  3
ACAD_XREC_ROUNDTRIP
360
903
  0
DICTIONARY
  5
904
330
379
100
AcDbDictionary
280
     1
281
     1
  3
ACAD_XREC_ROUNDTRIP
360
905
  0
DICTIONARY
  5
906
330
37A
100
AcDbDictionary
280
     1
281
     1
  3
ACAD_XREC_ROUNDTRIP
360
907
  0
DICTIONARY
  5
920
330
387
100
AcDbDictionary
280
     1
281
     1
  3
ACAD_XREC_ROUNDTRIP
360
921
  0
DICTIONARY
  5
91A
330
384
100
AcDbDictionary
280
     1
281
     1
  3
ACAD_XREC_ROUNDTRIP
360
91B
  0
DICTIONARY
  5
922
330
388
100
AcDbDictionary
280
     1
281
     1
  3
ACAD_XREC_ROUNDTRIP
360
923
  0
DICTIONARY
  5
912
330
380
100
AcDbDictionary
280
     1
281
     1
  3
ACAD_XREC_ROUNDTRIP
360
913
  0
DICTIONARY
  5
918
330
383
100
AcDbDictionary
280
     1
281
     1
  3
ACAD_XREC_ROUNDTRIP
360
919
  0
PH_GROUP
  5
400
102
{ACAD_REACTORS
330
3FF
102
}
330
3FF
  0
DICTIONARY
  5
488
102
{ACAD_REACTORS
330
487
102
}
330
487
100
AcDbDictionary
281
     1
  3
$PH$AAAA
350
489
  3
PH_GRPMEMBERS
350
48B
  0
PH_GROUP
  5
48C
102
{ACAD_REACTORS
330
487
102
}
330
487
  0
PH_GROUP
  5
66E
102
{ACAD_REACTORS
330
66D
102
}
330
66D
  0
XRECORD
  5
929
102
{ACAD_REACTORS
330
928
102
}
330
928
100
AcDbXrecord
280
     1
102
SHADEPLOT
 70
     0
102
SHADEPLOTRESLEVEL
 70
     2
102
SHADEPLOTCUSTOMDPI
 70
   300
  0
XRECORD
  5
927
102
{ACAD_REACTORS
330
8B9
102
}
330
8B9
100
AcDbXrecord
280
     1
102
SHADEPLOT
 70
     0
102
SHADEPLOTRESLEVEL
 70
     2
102
SHADEPLOTCUSTOMDPI
 70
   300
  0
XRECORD
  5
8BA
102
{ACAD_REACTORS
330
8B9
102
}
330
8B9
100
AcDbXrecord
280
     1
310
28000000000100008700000001000800000000000087000000000000000000000001000000000000F0FCFE0000000000FFFFFF000000000000000000000000000000000000000000000000000000000000000000330000006600000099000000CC000000FF00000000330000333300006633000099330000CC330000FF3300
310
0000660000336600006666000099660000CC660000FF66000000990000339900006699000099990000CC990000FF99000000CC000033CC000066CC000099CC0000CCCC0000FFCC000000FF000033FF000066FF000099FF0000CCFF0000FFFF000000003300330033006600330099003300CC003300FF003300003333003333
310
33006633330099333300CC333300FF33330000663300336633006666330099663300CC663300FF66330000993300339933006699330099993300CC993300FF99330000CC330033CC330066CC330099CC3300CCCC3300FFCC330000FF330033FF330066FF330099FF3300CCFF3300FFFF330000006600330066006600660099
310
006600CC006600FF00660000336600333366006633660099336600CC336600FF33660000666600336666006666660099666600CC666600FF66660000996600339966006699660099996600CC996600FF99660000CC660033CC660066CC660099CC6600CCCC6600FFCC660000FF660033FF660066FF660099FF6600CCFF6600
310
FFFF660000009900330099006600990099009900CC009900FF00990000339900333399006633990099339900CC339900FF33990000669900336699006666990099669900CC669900FF66990000999900339999006699990099999900CC999900FF99990000CC990033CC990066CC990099CC9900CCCC9900FFCC990000FF99
310
0033FF990066FF990099FF9900CCFF9900FFFF99000000CC003300CC006600CC009900CC00CC00CC00FF00CC000033CC003333CC006633CC009933CC00CC33CC00FF33CC000066CC003366CC006666CC009966CC00CC66CC00FF66CC000099CC003399CC006699CC009999CC00CC99CC00FF99CC0000CCCC0033CCCC0066CC
310
CC0099CCCC00CCCCCC00FFCCCC0000FFCC0033FFCC0066FFCC0099FFCC00CCFFCC00FFFFCC000000FF003300FF006600FF009900FF00CC00FF00FF00FF000033FF003333FF006633FF009933FF00CC33FF00FF33FF000066FF003366FF006666FF009966FF00CC66FF00FF66FF000099FF003399FF006699FF009999FF00CC
310
99FF00FF99FF0000CCFF0033CCFF0066CCFF0099CCFF00CCCCFF00FFCCFF0000FFFF0033FFFF0066FFFF0099FFFF00CCFFFF00FFFFFF00000000000D0D0D001A1A1A00282828003535350043434300505050005D5D5D006B6B6B00787878008686860093939300A1A1A100AEAEAE00BBBBBB00C9C9C900D6D6D600E4E4E400
310
F1F1F100FFFFFF0000000000000000000000000000000000000000000000000000000000000000000000000000000000E1E1E1E1E1E1E1E1E1E1E1E1E1E1E1E1E1E1E1E1E1E1E1E1E1E1E1E1E1E1E1E1E1BEBEBEBEBEBEBEBEBEBEBEBEBEBEBEBEBEBEBEBEBEBEBEBEBEBEBEBEBEBEBEBEBEBEBEBEBEBEBEBEBEBEBEBEBEBE
310
BEBEBEBEBEBEBEBEBEBEBEBEBEBEBEBEBEBEBEBEBEBEBEBEBEBEBEBEBEBEBEBEBEBEBEBEBEBEBEBEBEBEBEBEBEBEBEBEBEBEBEBEBEBEBEBEBEBEBEBEBEBEBEBEBEBEBEBEBEBEBEBEBEBEBEBEBEBEBEBEBEBEBEBEBEBEBEBEBEBEBEBEBEBEBEBEBEBEBEBEBEBEBEBEBEBEBEBEBEBEBEBEBEBEBEBEBEBEBEBEBEBEBEBEBEBEBE
310
BEBEBEBEBEBEBEBEBEBEBEBEBEBEBEBEBEE1E1E1E1E1E1E1E1E1E1E1E1E1E1E1E1E1E1E1E1E1E1E1E1E1E1E1E1E1E1E1E1E1E1E1E1E1E1E1E1E1E1E1E1E1E1E1E1E1E1E1E1E1E1E1E1E1E1E1E1E1E1E1E1E1E1BEE1E1E1E1E1E1E1E1E1E1E1E1E1E1E1E1E1E1E1E1E1E1E1E1E1E1E1E1E1E1E1E1E1E1E1E1E1E1E1E1E1E1E1
310
E1E1E1E1E1E1E1E1E1E1E1E1BEE1E1E1E1E1E1E1E1E1E1E1E1E1E1E1E1E1E1E1E1E1E1E1E1E1E1E1E1E1E1E1E1E1E1E1E1E1E1E1E1E1E1E1E1E1E1E1BEE1E1E1E1E1E1E1E1E1E1E1E1E1E1E1E1E1E1E1E1E1E1E1E1E1E1E1E1E1E1E1E1E1E1E1E1E1E1E1E1E1E1E1E1E1E1E1E1E1E1E1E1E1E1E1E1E1E1E1E1E1E1E1E1E1E1
310
E1E1E1E1E1E1E1E1E1E1E1E1E1E1E1E1E1E1BEE1E1E1E1E1E1E1E1E1E1E1E1E1E1E1E1E1E1E1E1E1E1E1E1E1E1E1E1E1E1E1E1E1E1E1E1E1E1E1E1E1E1E1E1E1E1E1E1E1E1E1E1E1E1E1E1E1E1E1E1E1E1E1E1E1E1BEE1E1E1E1E1E1E128282828282828282828282828282828282828282828282828282828282828282828
310
2828282828282828282828282828BE2828282828282828282828282828282828282828282828282828282828282828282828282828282828282828282828BE282828282828282828282828282828282828282828282828282828282828282828282828280F2828282828282828282828282828282828282828282828282828
310
2828282828282828282828282828282828282828BEE1E1E1E1E1E1E1E1E1E1E1E1E1E1E1E1E1E1E1E1E1E1E1E1E1E1E1E1E1E1E1E1E1E1E1E1E1E1E1E1E1E1E1E1E1E1E1E1E1E1E1E1E1E1E1E1E1E1E1E1E1E1E1E1E1E1BEE1E1E1E1E1E1E128E1E1E1E1E1E1E1E1E1E1E1E1E1E1E1E1E1E1E1E1E1E1E1E1E1E1E1E1E1E1E1
310
E1E1E1E1E1E1E1E1E1E1E1E1E1E1E1E1E1E1E1E1E1E1E1E1E1E1E1E1E1E1E1E1E1E1E1E1E1E1E1E1E1E1E1E1E1E1E1E1E1E1E1E1E1E1E1E1E1E1E1E1E1E1E1E1E1E1E1E1E1E1E1E1E1E1E1E1E1E1E1E1E1E1E1E1E1E1E1E1E1E1E1E1E1E1E1E1E1E1E1E1E1E10F0F0F0F0F0F0F0F0F0FE1E1E10F0F0F0F0F0F0F0FE1E1E1E1
310
E1E1E1E1E1E1E1E1E1E1E1E1E1E1E1E1E1E1E1E1E128BEE1E1E1E1E1E1E1E1E1E1E1E1E1E1E1E1E1E1E1E1E1E1E1E1E1E1E1E1E1E1E1E1E1E1E1E1E1E1E1E1E1E1E1E1E1E1E1E1E1E1E1E1E1E1E1E1E1E1E1E1E1E1E1E1E1E1BEE1E1E1E1E1E1E128E1E1E1E1E1E1E1E1E1E1E1E1E1E1E1E1E1E1E1E1E1E1E1E1E1E1E1E1E1
310
E1E1E1E1E1E1E1E1E1E1E1E1E1E1E1E1E1E1E1E1E1E1E1E1E1E1E1E1E1E1E1E1E1E1E1E1E1E1E1E1E1E1E1E1E1E1E1E1E1E1E1E1E1E1E1E1E1E1E1E1E1E1E1E1E1E1E1E1E1E1E1E1E1E1E1E1E1E1E1E1E1E1E1E1E1E1E1E1E1E1E1E1E1E1E1E1E1E1E1E1E1E1E1E10F0F0F0F0F0F0F0F0F0FE1E10F0F0F0F0F0F0F0F0FE1E1
310
E1E1E1E1E1E1E1E1E1E1E1E1E1E1E1E1E1E1E1E1E1E1E128BEE1E1E1E1E1E1E1E1E1E1E1E1E1E1E1E1E1E1E1E1E1E1E1E1E1E1E1E1E1E1E1E1E1E1E1E1E1E1E1E1E1E1E1E1E1E1E1E1E1E1E1E1E1E1E1E1E1E1E1E1E1E1E1E1E1E1BEE1E1E1E1E1E1E128E1E1E1E1E1E1E1E1E1E1E1E1E1E1E1E1E1E1E1E1E1E1E1E1E1E1E1
310
E1E1E1E1E1E1E1E1E1E1E1E1E1E1E1E1E1E1E1E1E1E1E1E1E1E1E1E1E1E1E1E1E1E1E1E1E1E1E1E1E1E1E1E1E1E1E1E1E1E1E1E1E1E1E1E1E1E1E1E1E1E1E1E1E1E1E1E1E1E1E1E1E1E1E1E1E1E1E1E1E1E1E1E1E1E1E1E1E1E1E1E1E1E1E1E1E1E1E1E1E1E1E1E1E1E10F0F0F0F0FE1E1E1E1E1E1E1E10F0F0F0F0F0F0FE1
310
E1E1E1E1E1E1E1E1E1E1E1E1E1E1E1E1E1E1E1E1E1E1E1E1E128BEE1E1E1E1E1E1E1E1E1E1E1E1E1E1E1E1E1E1E1E1E1E1E1E1E1E1E1E1E1E1E1E1E1E1E1E1E1E1E1E1E1E1E1E1E1E1E1E1E1E1E1E1E1E1E1E1E1E1E1E1E1E1E1E1E1E1BEE1E1E1E1E1E1E128E1E1E1BEBEBEBEBEBEBEBEBEBEBEBEBEBEBEBEBEBEBEBEBEBE
310
BEBEBEBEBEBEBEBEBEBEBEBEBEBEBEBEBEBEBEBEBEBEBEBE0FBEBEBEBEBEBEBEBEBEBEBEBEBEBEE1E1E1E1E1E1E1E1E1E1E1E1E1E1E1E1E1E1E1E1E1E1E1E1E1E1E1E1E1E1E1E1E1E1E1E1E1E1E1E1E1E1E1E1E1E1E1E1E1E1E1E1E1E1E1E1E1E1E1E1E1E1E1E1E1E1E1E1E10F0F0F0F0FE1E1E1E1E1E1E1E10F0F0F0F0F0F
310
0FE1E1E1E1E1E1E1E1E1E1E1E1E1E1E1E1E1E1E1E1E1E1E1E1E1E128BEE1E1E1E1E1E1E1E1E1E1E1E1E1E1E1E1E1E1E1E1E1E1E1E1E1E1E1E1E1E1E1E1E1E1E1E1E1E1E1E1E1E1E1E1E1E1E1E1E1E1E1E1E1E1E1E1E1E1E1E1E1E1E1E1E1E1BEE1E1E1E1E1E1E128E1E1E1E10FE10F0F0F0F0F0FE10F0F0F0F0F0F0F0F0F0F
310
0F0F0FE1E1E1E1E1E1BEE1E10F0F0F0FE1E1E1E1BE0F0F0F0F0F0F0F0F0FE1E1E1E1E1E1E1E1E1E1E1E1E1E1E1E1E1E1E1E1E1E1E1E1E1E1E1E1E1E1E1E1E1E1E1E1E1E1E1E1E1E1E1E1E1E1E1E1E1E1E1E1E1E1E1E1E1E1E1E1E1E1E1E1E1E1E1E1E1E1E1E1E1E1E1E1E1E1E1E10F0F0F0F0F0FBE0F0F0F0F0F0F0F0F0F0F
310
0F0F0F0F0F0F0F0F0F0F0F0F0F0F0F0F0F0F0F0F0F0F0F0F0F0F0F0F0F0FBEE1E1E1E1E1E1E1E1E1E1E1E1E1E1E1E1E1E1E1E1E1E1E1E1E1E1E1E1E1E1E1E1E1E1E1E1E1E1E1E1E1E1E1E1E1E1E1E1E1E1E1E1E1E1E1E1E1E1E1E1E1E1E1E1E1E1BEE1E1E1E1E1E1E128E1E1E1E10F0F0F0F0F0F0F0F0F0F0F0F0F0F0F0F0F
310
0FE10F0F0FE1E1E1E1E1E1BEE1E10F0F0F0FE1E1E1E1BEE10F0F0F0FE10F0F0FE1E1E1E1E1E1E1E1E1E1E1E1E1E1E1E1E1E1E1E1E1E1E1E1E1E1E1E1E1E1E1E1E1E1E1E1E1E1E1E1E1E1E1E1E1E1E1E1E1E1E1E1E1E1E1E1E1E1E1E1E1E1E1E1E1E1E1E1E1E1E1E1E1E1E1E1E1E1E1E10FBEBEBEBEE1BEBEBEBEBEE1E1E1E1
310
E10FE1E1E1E1E1E1E1E1E1E1E1E1E1BEBEBEBEBEBEBEBEBEBEBEBEBEBEBEE128BEE1E1E1E1E1E1E1E1E1E1E1E1E1E1E1E1E1E1E1E1E1E1E1E1E1E1E1E1E1E1E1E1E1E1E1E1E1E1E1E1E1E1E1E1E1E1E1E1E1E1E1E1E1E1E1E1E1E1E1E1E1E1E1E1E1E1BEE1E1E1E1E1E1E128E1E1E1BE0F0F0F0F0FBE0F0FBE0F0F0F0FBE0F
310
0F0F0FBE0F0F0FBEBEBEBEBEBEBEBEBE0F0F0FBEBEBEBEBEBEBE0F0F0F0FBE0F0F0FBEBEBEBEBEBEBEBEBEBEBEE1E1E1E1E1E1E1E1E1E1E1E1E1E1E1E1E1E1E1E1E1E1E1E1E1E1E1E1E1E1E1E1E1E1E1E1E1E1E1E1E1E1E1E1E1E1E1E1E1E1E1E1E1E1E1E1E1E1E1E1E1E1E1E1E1E1E1E1E10FBEBEBEE1E1BEBEBEBEBEE1E1
310
E1E1E10FE1E1E1E1E1E1E1E1E1E1E1E1E1E1E1E1E1E1E1E2E2E2E2E2E2E2E2E2E128BEE1E1E1E1E1E1E1E1E1E1E1E1E1E1E1E1E1E1E1E1E1E1E1E1E1E1E1E1E1E1E1E1E1E1E1E1E1E1E1E1E1E1E1E1E1E1E1E1E1E1E1E1E1E1E1E1E1E1E1E1E1E1E1E1E1E1BEE1E1E1E1E1E1E128E1E1E1E10FE1E10F0FE10F0FE10FE10F0F
310
E10F0F0F0F0F0F0F0FE1E1E1E1E1E1BEE1E1E10F0FE1E1E1E1E1BE0F0F0F0F0F0F0F0F0FE1E1E1E1E1E1E1E1E1E1E1E1E1E1E1E1E1E1E1E1E1E1E1E1E1E1E1E1E1E1E1E1E1E1E1E1E1E1E1E1E1E1E1E1E1E1E1E1E1E1E1E1E1E1E1E1E1E1E1E1E1E1E1E1E1E1E1E1E1E1E1E1E1E1E1E1E1E1E1E10FBEBEBEBEBEBEBEBEBEBE
310
BEBEBEBEBEBEE1E1E1E1E1E1E1E1E1E1E1E1E1E1E1E1E1E1E1E2E2E2E2E2E2E2E2E2E128BEE1E1E1E1E1E1E1E1E1E1E1E1E1E1E1E1E1E1E1E1E1E1E1E1E1E1E1E1E1E1E1E1E1E1E1E1E1E1E1E1E1E1E1E1E1E1E1E1E1E1E1E1E1E1E1E1E1E1E1E1E1E1E1E1E1E1BEE1E1E1E1E1E1E128E1E1E1E10F0F0F0F0F0F0F0F0F0F0F
310
0F0F0F0F0F0F0F0F0FE10FE1E1E1E1E1E1BEE1E10F0FE10FE1E1E1E1BEE10FE10F0FE10FE10FE1E1E1E1E1E1E1E1E1E1E1E1E1E1E1E1E1E1E1E1E1E1E1E1E1E1E1E1E1E1E1E1E1E1E1E1E1E1E1E1E1E1E1E1E1E1E1E1E1E1E1E1E1E1E1E1E1E1E1E1E1E1E1E1E1E1E1E1E1E1E1E1E1E1E1E1E1E1E1E10FBEBEBEBEE1BEBEBE
310
BEBEBEBEBEBEBE0FE1E1E1E1E1E1E1E1E1E1E1E1E1E1E1E1E1E1E1E2E2E2E2E2E2E2E2E2E128BEE1E1E1E1E1E1E1E1E1E1E1E1E1E1E1E1E1E1E1E1E1E1E1E1E1E1E1E1E1E1E1E1E1E1E1E1E1E1E1E1E1E1E1E1E1E1E1E1E1E1E1E1E1E1E1E1E1E1E1E1E1E1E1E1E1E1BEE1E1E1E1E1E1E128E1E1E1E10F0F0F0F0F0F0F0FE1
310
0F0F0F0F0F0F0F0F0FE10F0F0FE1E1E1E1E1E1BEE1E10F0F0F0FE1E1E1E1BE0F0F0F0F0FE10F0F0FE1E1E1E1E1E1E1E1E1E1E1E1E1E1E1E1E1E1E1E1E1E1E1E1E1E1E1E1E1E1E1E1E1E1E1E1E1E1E1E1E1E1E1E1E1E1E1E1E1E1E1E1E1E1E1E1E1E1E1E1E1E1E1E1E1E1E1E1E1E1E1E1E1E1E1E1E1E1E1E10FBEE1E1E1E1BE
310
BEE1E1E1E1E1E1E1E10FE1E1E1E1E1E1E1E1E1E1E1E1E1E1E1E1E1E1E1E1E1BEE2E2E2E2E2E2E128BEE1E1E1E1E1E1E1E1E1E1E1E1E1E1E1E1E1E1E1E1E1E1E1E1E1E1E1E1E1E1E1E1E1E1E1E1E1E1E1E1E1E1E1E1E1E1E1E1E1E1E1E1E1E1E1E1E1E1E1E1E1E1E1E1E1E1BEE1E1E1E1E1E1E128E1E1E1BEBEBEBEBEBEBEBE
310
BEBEBEBEBEBEBEBEBEBEBEBEBEBEBEBEBEBEBEBEBEBEBEBEBEBEBEBEBEBEBEBEBEBEBEBEBEBEBEBEBEBEBEBEBEBEBEBEBEBEBEBEBEE1E1E1E1E1E1E1E1E1E1E1E1E1E1E1E1E1E1E1E1E1E1E1E1E1E1E1E1E1E1E1E1E1E1E1E1E1E1E1E1E1E1E1E1E1E1E1E1E1E1E1E1E1E1E1E1E1E1E1E1E1E1E1E1E1E1E1E1E10FBEE1E1E1
310
E1BEBEE1E1E1E1E1E1E1E10FE1E1E1E1E1E1E1E1E1E1E1E1E1E1E1E1E1E1E1E1BEBEBEE2BEE2BEE2E128BEE1E1E1E1E1E1E1E1E1E1E1E1E1E1E1E1E1E1E1E1E1E1E1E1E1E1E1E1E1E1E1E1E1E1E1E1E1E1E1E1E1E1E1E1E1E1E1E1E1E1E1E1E1E1E1E1E1E1E1E1E1E1E1E1E1E1BEE1E1E1E1E1E1E128E1E1E1E10FE10F0F0F
310
0F0F0FE10F0F0F0F0F0FE10F0F0F0F0F0FE1E1E1E1E1E1BEE1E1E10F0F0FE1E1E1E1BE0F0F0F0F0F0F0FE10FE1E1E1E1E1E1E1E1E1E1E1E1E1E1E1E1E1E1E1E1E1E1E1E1E1E1E1E1E1E1E1E1E1E1E1E1E1E1E1E1E1E1E1E1E1E1E1E1E1E1E1E1E1E1E1E1E1E1E1E1E1E1E1E1E1E1E1E1E1E1E1E1E1E1E1E1E1E1E1E10FBEE1
310
E1E1E1BEBEE1E1E1E1E1E1E1E10FE1E1E1E1E1E1E1E1E1E1E1E1E1E1E1E1E1E1E1E1BEBEBEBEE2E2E2E2E128BEE1E1E1E1E1E1E1E1E1E1E1E1E1E1E1E1E1E1E1E1E1E1E1E1E1E1E1E1E1E1E1E1E1E1E1E1E1E1E1E1E1E1E1E1E1E1E1E1E1E1E1E1E1E1E1E1E1E1E1E1E1E1E1E1E1E1BEE1E1E1E1E1E1E128E1E1E1E10F0F0F
310
0F0F0F0F0F0F0F0F0F0F0F0F0F0FE10F0FE10FE1E1E1E1E1E1BEE1E10F0FE10FE1E1E1E1BEE10F0F0F0F0F0F0F0FE1E1E1E1E1E1E1E1E1E1E1E1E1E1E1E1E1E1E1E1E1E1E1E1E1E1E1E1E1E1E1E1E1E1E1E1E1E1E1E1E1E1E1E1E1E1E1E1E1E1E1E1E1E1E1E1E1E1E1E1E1E1E1E1E1E1E1E1E1E1E1E1E1E1E1E1E1E1E1E10F
310
BEE1E1E1E1BEBEE1E1E1E1E1E1E1E10FE1E1E1E1E1E1E1E1E1E1E1E1E1E1E1E1E1E1E1E1BEBEBEBEE2E2E2E2E128BEE1E1E1E1E1E1E1E1E1E1E1E1E1E1E1E1E1E1E1E1E1E1E1E1E1E1E1E1E1E1E1E1E1E1E1E1E1E1E1E1E1E1E1E1E1E1E1E1E1E1E1E1E1E1E1E1E1E1E1E1E1E1E1E1E1E1BEE1E1E1E1E1E1E128E1E1E1E10F
310
0F0F0F0F0F0F0FE10F0F0F0FE10F0FE10F0F0F0F0FE1E1E1E1E1E1BEE1E1E10F0F0FE1E1E1E1BE0F0F0F0F0FE10FE10FE1E1E1E1E1E1E1E1E1E1E1E1E1E1E1E1E1E1E1E1E1E1E1E1E1E1E1E1E1E1E1E1E1E1E1E1E1E1E1E1E1E1E1E1E1E1E1E1E1E1E1E1E1E1E1E1E1E1E1E1E1E1E1E1E1E1E1E1E1E1E1E1E1E1E1E1E1E1E1
310
E10FBEE1E1E1E1BEBEE1E1E1E1E1E1E1E10FE1E1E1E1E1E1E1E1E1E1E1E1E1E1E1E1E1E1E1E1E1BEBEBEE1E2E1E2E128BEE1E1E1E1E1E1E1E1E1E1E1E1E1E1E1E1E1E1E1E1E1E1E1E1E1E1E1E1E1E1E1E1E1E1E1E1E1E1E1E1E1E1E1E1E1E1E1E1E1E1E1E1E1E1E1E1E1E1E1E1E1E1E1E1E1E1BEE1E1E1E1E1E1E128E1E1E1
310
BEBEBEBEBEBEBEBEBEBEBEBEBEBEBEBEBEBEBEBEBEBEBEBEBEBEBEBEBEBEBEBEBEBEBEBEBEBEBEBEBEBEBEBEBEBE0F0FBEBEBEBEBEBEBEBE0FBEBEBEBEE1E1E1E1E1E1E1E1E1E1E1E1E1E1E1E1E1E1E1E1E1E1E1E1E1E1E1E1E1E1E1E1E1E1E1E1E1E1E1E1E1E1E1E1E1E1E1E1E1E1E1E1E1E1E1E1E1E1E1E1E1E1E1E1E1E1
310
E1E1E10FBEE1E1E1E1BEBEE1E1E1E1E1E1E1E10FE1E1E1E1E1E1E1E1E1E1E1E1E1E1E1E1E1E1E1E1E1E1E1E1E1E1E1E1E128BEE1E1E1E1E1E1E1E1E1E1E1E1E1E1E1E1E1E1E1E1E1E1E1E1E1E1E1E1E1E1E1E1E1E1E1E1E1E1E1E1E1E1E1E1E1E1E1E1E1E1E1E1E1E1E1E1E1E1E1E1E1E1E1E1E1E1BEE1E1E1E1E1E1E128E1
310
E1E1E10F0F0F0F0F0F0F0F0F0F0F0F0F0F0F0F0F0FE1E1E1E1E1E1E1E1E1E1BEE10F0F0FE10F0F0FE1E1BE0F0F0F0F0F0F0F0F0FE10F0F0F0F0F0F0F0F0FE1E1E1E1E1E1E1E1E1E1E1E1E1E1E1E1E1E1E1E1E1E1E1E1E1E1E1E1E1E1E1E1E1E1E1E1E1E1E1E1E1E1E1E1E1E1E1E1E1E1E1E1E1E1E1E1E1E1E1E1E1E1E1E1E1
310
E1E1E1E1E10FBEE1E1E1E1BEBEE1E1E1E1E1E1E1E10FE1E1E1E1E1E1E1E1E1E1E1E1E1E1E1E1E1E1E1E1E1E1E1E1E1E1E1E1E128BEE1E1E1E1E1E1E1E1E1E1E1E1E1E1E1E1E1E1E1E1E1E1E1E1E1E1E1E1E1E1E1E1E1E1E1E1E1E1E1E1E1E1E1E1E1E1E1E1E1E1E1E1E1E1E1E1E1E1E1E1E1E1E1E1E1E1BEE1E1E1E1E1E1E1
310
28E1E1E1E10F0F0F0F0F0F0F0F0FE10F0F0F0F0F0F0F0F0FE1E1E1E1E1E1E1E1E1BEE10F0F0F0FE10F0F0F0FBE0FE10F0F0F0F0F0FE10F0F0F0F0F0F0F0F0F0FE1E1E1E1E1E1E1E1E1E1E1E1E1E1E1E1E1E1E1E1E1E1E1E1E1E1E1E1E1E1E1E1E1E1E1E1E1E1E1E1E1E1E1E1E1E1E1E1E1E1E1E1E1E1E1E1E1E1E1E1E1E1E1
310
E1E1E1E1E1E1E10FE1E1E1E1E1BEE1E1E1E1E1E1E1E1E10FE1E1E1E1E1E1E1E1E1E1E1E1E1E1E1E1E1E1E1E1E1E1E1E1E1E1E1E1E128BEE1E1E1E1E1E1E1E1E1E1E1E1E1E1E1E1E1E1E1E1E1E1E1E1E1E1E1E1E1E1E1E1E1E1E1E1E1E1E1E1E1E1E1E1E1E1E1E1E1E1E1E1E1E1E1E1E1E1E1E1E1E1E1E1E1E1BEE1E1E1E1E1
310
E1E128E1E1E1E10F0FE1E1E10FE10F0FE10FE1E1E1E1E10FE10FE1E1E1E1E1E1E1E1E1BE0F0F0F0F0FE10F0F0F0FBE0FE10F0FE1E1E1E1E10F0FE1E1E1E1E10F0FE1E1E1E1E1E1E1E1E1E1E1E1E1E1E1E1E1E1E1E1E1E1E1E1E1E1E1E1E1E1E1E1E1E1E1E1E1E1E1E1E1E1E1E1E1E1E1E1E1E1E1E1E1E1E1E1E1E1E1E1E1E1
310
E1E1E1E1E1E1E1E1E10FBEE1E1E1E1BEBEE1E1E1E1E1E1E1E10FE1E1E1E1E1E1E1E1E1E1E1E1E1E1E1E1E1E1E1E1E1E1E1E1E1E1E1E1E128BEE1E1E1E1E1E1E1E1E1E1E1E1E1E1E1E1E1E1E1E1E1E1E1E1E1E1E1E1E1E1E1E1E1E1E1E1E1E1E1E1E1E1E1E1E1E1E1E1E1E1E1E1E1E1E1E1E1E1E1E1E1E1E1E1E1E1BEE1E1E1
310
E1E1E1E128E1E1E1E1E1E1E1E1E1E1E1E1E1E1E1E1E1E1E1E1E1E1E1E1E1E1E1E1E1E1E1E1BEE1E1E1E1E1E1E1E1E1E1BEE1E1E1E1E1E1E1E1E1E1E1E1E1E1E1E1E1E1E1E1E1E1E1E1E1E1E1E1E1E1E1E1E1E1E1E1E1E1E1E1E1E1E1E1E1E1E1E1E1E1E1E1E1E1E1E1E1E1E1E1E1E1E1E1E1E1E1E1E1E1E1E1E1E1E1E1E1E1
310
E1E1E1E1E1E1E1E1E1E1E10FBEE1E1E1E1BEBEE1E1E1E1E1E1E1E10FE1E1E1E1E1E1E1E1E1E1E1E1E1E1E1E1E1E1E1E1E1E1E1E1E1E1E1E1E128BEE1E1E1E1E1E1E1E1E1E1E1E1E1E1E1E1E1E1E1E1E1E1E1E1E1E1E1E1E1E1E1E1E1E1E1E1E1E1E1E1E1E1E1E1E1E1E1E1E1E1E1E1E1E1E1E1E1E1E1E1E1E1E1E1E1E1BEE1
310
E1E1E1E1E1E128E1E1E1E1E1E1E1E1E1E1E1E1E1E1E1E1E1E1E1E1E1E1E1E1E1E1E1E1E1E1E1E1E1E1E1E1E1E1E1E1E1E1E1E1E1E1E1E1E1E1E1E1E1E1E1E1E1E1E1E1E1E1E1E1E1E1E1E1E1E1E1E1E1E1E1E1E1E1E1E1E1E1E1E1E1E1E1E1E1E1E1E1E1E1E1E1E1E1E1E1E1E1E1E1E1E1E1E1E1E1E1E1E1E1E1E1E1E1E1E1
310
E1E1E1E1E1E1E1E1E1E1E1E1E10F0F0F0F0F0F0F0F0F0F0F0F0F0F0F0F0F0F0F0F0F0F0F0F0F0F0F0F0F0F0F0F0F0F0F0F0F0F0F0F0F0F0F0F0F0F0FBEE1E1E1E1E1E1E1E1E1E1E1E1E1E1E1E1E1E1E1E1E1E1E1E1E1E1E1E1E1E1E1E1E1E1E1E1E1E1E1E1E1E1E1E1E1E1E1E1E1E1E1E1E1E1E1E1E1E1E1E1E1E1E1E1E1E1
310
BEE1E1E1E1E1E1E128E1E1E1E1E1E1E1E1E1E1E1E1E1E1E1E1E1E1E1E1E1E1E1E1E1E1E1E1E1E1E1E1E1E1E1E1E1E1E1E1E1E1E1E1E1E1E1E1E1E1E1E1E1E1E1E1E1E1E1E1E1E1E1E1E1E1E1E1E1E1E1E1E1E1E1E1E1E1E1E1E1E1E1E1E1E1E1E1E1E1E1E1E1E1E1E1E1E1E1E1E1E1E1E1E1E1E1E1E1E1E1E1E1E1E1E1E1E1
310
E1E1E1E1E1E1E1E1E1E1E1E1E1E1E10FE1E1E1E1E1E1E1E1E1E1E1E1E1E1E1E1E1E1E1E1E1E1E1E1E1E1E1E1E1E1E1E1E1E1E1E1E1E1E1E1E1E1E1E1E128BEE1E1E1E1E1E1E1E1E1E1E1E1E1E1E1E1E1E1E1E1E1E1E1E1E1E1E1E1E1E1E1E1E1E1E1E1E1E1E1E1E1E1E1E1E1E1E1E1E1E1E1E1E1E1E1E1E1E1E1E1E1E1E1E1
310
E1E1BEE1E1E1E1E1E1E128E1E1E1E1E1E1E1E1E1E1E1E1E1E1E1E1E1E1E1E1E1E1E1E1E1E1E1E1E1E1E1E1E1E1E1E1E1E1E1E1E1E1E1E1E1E1E1E1E1E1E1E1E1E1E1E1E1E1E1E1E1E1E1E1E1E1E1E1E1E1E1E1E1E1E1E1E1E1E1E1E1E1E1E1E1E1E1E1E1E1E1E1E1E1E1E1E1E1E1E1E1E1E1E1E1E1E1E1E1E1E1E1E1E1E1E1
310
E1E1E1E1E1E1E1E1E1E1E1E1E1E1E1E1E10FE1E2E2E2E2E2E2E2E2E2E2E2E2E2E2E2E2E2E1E2E2E2E2E2E2E2E2E2E1E2E2E2E2E2E2E2E1E1E1E1E1E1E1E1E128BEE1E1E1E1E1E1E1E1E1E1E1E1E1E1E1E1E1E1E1E1E1E1E1E1E1E1E1E1E1E1E1E1E1E1E1E1E1E1E1E1E1E1E1E1E1E1E1E1E1E1E1E1E1E1E1E1E1E1E1E1E1E1
310
E1E1E1E1BEE1E1E1E1E1E1BE28E1E1E1E1E1E1E1E1E1E1E1E1E1E1E1E1E1E1E1E1E1E1E1E1E1E1E1E1E1E1E1E1E1E1E1E1E1E1E1E1E1E1E1E1E1E1E1E1E1E1E1E1E1E1E1E1E1E1E1E1E1E1E1E1E1E1E1E1E1E1E1E1E1E1E1E1E1E1E1E1E1E1E1E1E1E1E1E1E1E1E1E1E1E1E1E1E1E1E1E1E1E1E1E1E1E1E1E1E1E1E1E1E1E1
310
E1E1E1E1E1E1E1E1E1E1E1E1E1E1E1E1E1E1E10FE1E2E2E2E2E2E2E2E2E2E2E2E2E2E2E2E2E2E2E2E2E2E2E2E2E2E2E2E2E2E2E2E2E2E2E2E2E1E1E1E1E1E1E1E128BEE1E1E1E1E1E1E1E1E1E1E1E1E1E1E1E1E1E1E1E1E1E1E1E1E1E1E1E1E1E1E1E1E1E1E1E1E1E1E1E1E1E1E1E1E1E1E1E1E1E1E1E1E1E1E1E1E1E1E1E1
310
E1E1E1E1E1E1BEE1E1E1E1E1E1BEBEE1E1E1E1E1E1E1E1E1E1E1E1E1E1E1E1E1E1E1E1E1E1E1E1E1E1E1E1E1E1E1E1E1E1E1E1E1E1E1E1E1E1E1E1E1E1E1E1E1E1E1E1E1E1E1E1E1E1E1E1E1E1E1E1E1E1E1E1E1E1E1E1E1E1E1E1E1E1E1E1E1E1E1E1E1E1E1E1E1E1E1E1E1E1E1E1E1E1E1E1E1E1E1E1E1E1E1E1E1E1E1E1
310
E1E1E1E1E1E1E1E1E1E1E1E1E1E1E1E1E1E1E1E1E10FE1E2E2E2E1E2E1E1E1E1E2E1E2E1E1E1E1E1E2E2E2E2E1E2E1E1E1E1E1E1E2E1E1E1E2E1E1E1E1E1E1E1E1E1E128BEE1E1E1E1E1E1E1E1E1E1E1E1E1E1E1E1E1E1E1E1E1E1E1E1E1E1E1E1E1E1E1E1E1E1E1E1E1E1E1E1E1E1E1E1E1E1E1E1E1E1E1E1E1E1E1E1E1E1
310
E1E1E1E1E1E1E1E1BEE1E1E1E1E1E1BEBEE1E1E1E1E1E1E1E1E1E1E1E1E1E1E1E1E1E1E1E1E1E1E1E1E1E1E1E1E1E1E1E1E1E1E1E1E1E1E1E1E1E1E1E1E1E1E1E1E1E1E1E1E1E1E1E1E1E1E1E1E1E1E1E1E1E1E1E1E1E1E1E1E1E1E1E1E1E1E1E1E1E1E1E1E1E1E1E1E1E1E1E1E1E1E1E1E1E1E1E1E1E1E1E1E1E1E1E1E1E1
310
E1E1E1E1E1E1E1E1E1E1E1E1E1E1E1E1E1E1E1E1E1E1E10FE1E2E2E2E2E2E1E2E2E2E2E2E2E2E1E2E1E2E2E2E1E1E1E1E1E1E1E1E1E1E1E1E1E1E1E1E1E1E1E1E1E1E1E1E128BEE1E1E1E1E1E1E1E1E1E1E1E1E1E1E1E1E1E1E1E1E1E1E1E1E1E1E1E1E1E1E1E1E1E1E1E1E1E1E1E1E1E1E1E1E1E1E1E1E1E1E1E1E1E1E1E1
310
E1E1E1E1E1E1E1E1E1E1BEE1E1E1E1E1E1BEBEE1E1E1E1E1E1E1E1E1E1E1E1E1E1E1E1E1E1E1E1E1E1E1E1E1E1E1E1E1E1E1E1E1E1E1E1E1E1E1E1E1E1E1E1E1E1E1E1E1E1E1E1E1E1E1E1E1E1E1E1E1E1E1E1E1E1E1E1E1E1E1E1E1E1E1E1E1E1E1E1E1E1E1E1E1E1E1E1E1E1E1E1E1E1E1E1E1E1E1E1E1E1E1E1E1E1E1E1
310
E1E1E1E1E1E1E1E1E1E1E1E1E1E1E1E1E1E1E1E1E1E1E1E1E10FE1E2E2E2E2E2E2E2E2E2E2E2E2E1E1E1E1E2E2E2E1E1E1E1E1E1E1E1E1E1E1E1E1E1E1E1E1E1E1E1E1E1E1E1E128BEE1E1E1E1E1E1E1E1E1E1E1E1E1E1E1E1E1E1E1E1E1E1E1E1E1E1E1E1E1E1E1E1E1E1E1E1E1E1E1E1E1E1E1E1E1E1E1E1E1E1E1E1E1E1
310
E1E1E1E1E1E1E1E1E1E1E1E1BEE1E1E1E1E1E1BEBEE1E1E1E1E1E1E1E1E1E1E1E1E1E1E1E1E1E1E1E1E1E1E1E1E1E1E1E1E1E1E1E1E1E1E1E1E1E1E1E1E1E1E1E1E1E1E1E1E1E1E1E1E1E1E1E1E1E1E1E1E1E1E1E1E1E1E1E1E1E1E1E1E1E1E1E1E1E1E1E1E1E1E1E1E1E1E1E1E1E1E1E1E1E1E1E1E1E1E1E1E1E1E1E1E1E1
310
E1E1E1E1E1E1E1E1E1E1E1E1E1E1E1E1E1E1E1E1E1E1E1E1E1E1E10FE1E1E1E1E1E1E1E1E1E1E1E1E1E1E1E1E1E1E1E1E1E1E1E1E1E1E1E1E1E1E1E1E1E1E1E1E1E1E1E1E1E1E1E1E128BEE1E1E1E1E1E1E1E1E1E1E1E1E1E1E1E1E1E1E1E1E1E1E1E1E1E1E1E1E1E1E1E1E1E1E1E1E1E1E1E1E1E1E1E1E1E1E1E1E1E1E1E1
310
E1E1E1E1E1E1E1E1E1E1E1E1E1E1BEE1E1E1E1E1E1BEBEE1E1E1E1E1E1E1E1E1E1E1E1E1E1E1E1E1E1E1E1E1E1E1E1E1E1E1E1E1E1E1E1E1E1E1E1E1E1E1E1E1E1E1E1E1E1E1E1E1E1E1E1E1E1E1E1E1E1E1E1E1E1E1E1E1E1E1E1E1E1E1E1E1E1E1E1E1E1E1E1E1E1E1E1E1E1E1E1E1E1E1E1E1E1E1E1E1E1E1E1E1E1E1E1
310
E1E1E1E1E1E1E1E1E1E1E1E1E1E1E1E1E1E1E1E1E1E1E1E1E1E1E1E1E10FE1E2E2E2E2E2E2E2E2E2E2E2E2E2E2E2E2E2E1E1E1E1E1E1E1E1E1E1E1E1E1E1E1E1E1E1E1E1E1E1E1E1E1E1E128BEE1E1E1E1E1E1E1E1E1E1E1E1E1E1E1E1E1E1E1E1E1E1E1E1E1E1E1E1E1E1E1E1E1E1E1E1E1E1E1E1E1E1E1E1E1E1E1E1E1E1
310
E1E1E1E1E1E1E1E1E1E1E1E1E1E1E1E1BEE1E1E1E1E1E1BEBEE1E1E1E1E1E1E1E1E1E1E1E1E1E1E1E1E1E1E1E1E1E1E1E1E1E1E1E1E1E1E1E1E1E1E1E1E1E1E1E1E1E1E1E1E1E1E1E1E1E1E1E1E1E1E1E1E1E1E1E1E1E1E1E1E1E1E1E1E1E1E1E1E1E1E1E1E1E1E1E1E1E1E1E1E1E1E1E1E1E1E1E1E1E1E1E1E1E1E1E1E1E1
310
E1E1E1E1E1E1E1E1E1E1E1E1E1E1E1E1E1E1E1E1E1E1E1E1E1E1E1E1E1E1E10FE1E2E2E2E2E2E2E2E2E2E1E2E2E2E2E2E2E1E1E1E1E1E1E1E1E1E1E1E1E1E1E1E1E1E1E1E1E1E1E1E1E1E1E1E128BEE1E1E1E1E1E1E1E1E1E1E1E1E1E1E1E1E1E1E1E1E1E1E1E1E1E1E1E1E1E1E1E1E1E1E1E1E1E1E1E1E1E1E1E1E1E1E1E1
310
E1E1E1E1E1E1E1E1E1E1E1E1E1E1E1E1E1E1BEE1E1E1E1E1E1BEBEE1E1E1E1E1E1E1E1E1E1E1E1E1E1E1E1E1E1E1E1E1E1E1E1E1E1E1E1E1E1E1E1E1E1E1E1E1E1E1E1E1E1E1E1E1E1E1E1E1E1E1E1E1E1E1E1E1E1E1E1E1E1E1E1E1E1E1E1E1E1E1E1E1E1E1E1E1E1E1E1E1E1E1E1E1E1E1E1E1E1E1E1E1E1E1E1E1E1E1E1
310
E1E1E1E1E1E1E1E1E1E1E1E1E1E1E1E1E1E1E1E1E1E1E1E1E1E1E1E1E1E1E1E1E10FE1E2E1E2E1E1E1E1E1E2E1E2E2E1E1E2E2E1E1E1E1E1E1E1E1E1E1E1E1E1E1E1E1E1E1E1E1E1E1E1E1E1E1E1E128BEE1E1E1E1E1E1E1E1E1E1E1E1E1E1E1E1E1E1E1E1E1E1E1E1E1E1E1E1E1E1E1E1E1E1E1E1E1E1E1E1E1E1E1E1E1E1
310
E1E1E1E1E1E1E1E1E1E1E1E1E1E1E1E1E1E1E1E1BEE1E1E1E1E1E1BEBEE1E1E1E1E1E1E1E1E1E1E1E1E1E1E1E1E1E1E1E1E1E1E1E1E1E1E1E1E1E1E1E1E1E1E1E1E1E1E1E1E1E1E1E1E1E1E1E1E1E1E1E1E1E1E1E1E1E1E1E1E1E1E1E1E1E1E1E1E1E1E1E1E1E1E1E1E1E1E1E1E1E1E1E1E1E1E1E1E1E1E1E1E1E1E1E1E1E1
310
E1E1E1E1E1E1E1E1E1E1E1E1E1E1E1E1E1E1E1E1E1E1E1E1E1E1E1E1E1E1E1E1E1E1E10FE1E2E2E2E2E2E2E2E2E2E1E2E2E2E2E2E2E2E2E2E1E1E1E1E1E1E1E1E1E1E1E1E1E1E1E1E1E1E1E1E1E1E1E1E128BEE1E1E1E1E1E1E1E1E1E1E1E1E1E1E1E1E1E1E1E1E1E1E1E1E1E1E1E1E1E1E1E1E1E1E1E1E1E1E1E1E1E1E1E1
310
E1E1E1E1E1E1E1E1E1E1E1E1E1E1E1E1E1E1E1E1E1E1BEE1E1E1E1E1E1BEBEE1E1E1E1E1E1E1E1E1E1E1E1E1E1E1E1E1E1E1E1E1E1E1E1E1E1E1E1E1E1E1E1E1E1E1E1E1E1E1E1E1E1E1E1E1E1E1E1E1E1E1E1E1E1E1E1E1E1E1E1E1E1E1E1E1E1E1E1E1E1E1E1E1E1E1E1E1E1E1E1E1E1E1E1E1E1E1E1E1E1E1E1E1E1E1E1
310
E1E1E1E1E1E1E1E1E1E1E1E1E1E1E1E1E1E1E1E1E1E1E1E1E1E1E1E1E1E1E1E1E1E1E1E1E10FE1E2E1E2E2E2E2E2E2E1E2E1E2E2E2E2E2E2E2E2E1E1E1E1E1E1E1E1E1E1E1E1E1E1E1E1E1E1E1E1E1E1E1E1E128BEE1E1E1E1E1E1E1E1E1E1E1E1E1E1E1E1E1E1E1E1E1E1E1E1E1E1E1E1E1E1E1E1E1E1E1E1E1E1E1E1E1E1
310
E1E1E1E1E1E1E1E1E1E1E1E1E1E1E1E1E1E1E1E1E1E1E1E1BEE1E1E1E1E1E1BEBEE1E1E1E1E1E1E1E1E1E1E1E1E1E1E1E1E1E1E1E1E1E1E1E1E1E1E1E1E1E1E1E1E1E1E1E1E1E1E1E1E1E1E1E1E1E1E1E1E1E1E1E1E1E1E1E1E1E1E1E1E1E1E1E1E1E1E1E1E1E1E1E1E1E1E1E1E1E1E1E1E1E1E1E1E1E1E1E1E1E1E1E1E1E1
310
E1E1E1E1E1E1E1E1E1E1E1E1E1E1E1E1E1E1E1E1E1E1E1E1E1E1E1E1E1E1E1E1E1E1E1E1E1E1E10F0F0F0F0F0F0F0F0F0F0F0F0F0F0F0F0F0F0F0F0F0F0F0F0F0F0F0F0F0F0F0F0F0F0F0F0F0F0F0F0F0F0F0F0F0F0FBEE1E1E1E1E1E1E1E1E1E1E1E1E1E1E1E1E1E1E1E1E1E1E1E1E1E1E1E1E1E1E1E1E1E1E1E1E1E1E1E1
310
E1E1E1E1E1E1E1E1E1E1E1E1E1E1E1E1E1E1E1E1E1E1E1E1E1E1BEE1E1E1E1E1E1BEBEE1E1E1E1E1E1E1E1E1E1E1E1E1E1E1E1E1E1E1E1E1E1E1E1E1E1E1E1E1E1E1E1E1E1E1E1E1E1E1E1E1E1E1E1E1E1E1E1E1E1E1E1E1E1E1E1E1E1E1E1E1E1E1E1E1E1E1E1E1E1E1E1E1E1E1E1E1E1E1E1E1E1E1E1E1E1E1E1E1E1E1E1
310
E1E1E1E1E1E1E1E1E1E1E1E1E1E1E1E1E1E1E1E1E1E1E1E1E1E1E1E1E1E1E1E1E1E1E1E1E1E1E1E1E10FE1E1E1E1E1E1E1E1E1E1E1E2E2E2E2E2E2E2E2E2E2E2E2E2E2E2E2E1E1E1E1E1E1E1E1E1E1E1E1E1E1E1E1E1E128BEE1E1E1E1E1E1E1E1E1E1E1E1E1E1E1E1E1E1E1E1E1E1E1E1E1E1E1E1E1E1E1E1E1E1E1E1E1E1
310
E1E1E1E1E1E1E1E1E1E1E1E1E1E1E1E1E1E1E1E1E1E1E1E1E1E1E1E1BEE1E1E1E1E1E1BEBEE1E1E1E1E1E1E1E1E1E1E1E1E1E1E1E1E1E1E1E1E1E1E1E1E1E1E1E1E1E1E1E1E1E1E1E1E1E1E1E1E1E1E1E1E1E1E1E1E1E1E1E1E1E1E1E1E1E1E1E1E1E1E1E1E1E1E1E1E1E1E1E1E1E1E1E1E1E1E1E1E1E1E1E1E1E1E1E1E1E1
310
E1E1E1E1E1E1E1E1E1E1E1E1E1E1E1E1E1E1E1E1E1E1E1E1E1E1E1E1E1E1E1E1E1E1E1E1E1E1E1E1E1E1E10FE1E1E1E1E1E1E1E1E1E1E1E2E2E1E2E2E2E2E2E1E2E2E2E2E2E2E2E1E1E1E1E1E1E1E1E1E1E1E1E1E1E1E1E1E128BEE1E1E1E1E1E1E1E1E1E1E1E1E1E1E1E1E1E1E1E1E1E1E1E1E1E1E1E1E1E1E1E1E1E1E1E1
310
E1E1E1E1E1E1E1E1E1E1E1E1E1E1E1E1E1E1E1E1E1E1E1E1E1E1E1E1E1E1BEE1E1E1E1E1E1BEBEE1E1E1E1E1E1E1E1E1E1E1E1E1E1E1E1E1E1E1E1E1E1E1E1E1E1E1E1E1E1E1E1E1E1E1E1E1E1E1E1E1E1E1E1E1E1E1E1E1E1E1E1E1E1E1E1E1E1E1E1E1E1E1E1E1E1E1E1E1E1E1E1E1E1E1E1E1E1E1E1E1E1E1E1E1E1E1E1
310
E1E1E1E1E1E1E1E1E1E1E1E1E1E1E1E1E1E1E1E1E1E1E1E1E1E1E1E1E1E1E1E1E1E1E1E1E1E1E1E1E1E1E1E1E10FE1E1E1E1E1E1E1E1E1E1E1E2E2E2E2E2E2E2E2E1E2E2E2E2E2E2E2E1E1E1E1E1E1E1E1E1E1E1E1E1E1E1E1E1E128BEE1E1E1E1E1E1E1E1E1E1E1E1E1E1E1E1E1E1E1E1E1E1E1E1E1E1E1E1E1E1E1E1E1E1
310
E1E1E1E1E1E1E1E1E1E1E1E1E1E1E1E1E1E1E1E1E1E1E1E1E1E1E1E1E1E1E1E1BEE1E1E1E1E1E1BEBEE1E1E1E1E1E1E1E1E1E1E1E1E1E1E1E1E1E1E1E1E1E1E1E1E1E1E1E1E1E1E1E1E1E1E1E1E1E1E1E1E1E1E1E1E1E1E1E1E1E1E1E1E1E1E1E1E1E1E1E1E1E1E1E1E1E1E1E1E1E1E1E1E1E1E1E1E1E1E1E1E1E1E1E1E1E1
310
E1E1E1E1E1E1E1E1E1E1E1E1E1E1E1E1E1E1E1E1E1E1E1E1E1E1E1E1E1E1E1E1E1E1E1E1E1E1E1E1E1E1E1E1E1E1E10FE1E1E1E1E1E1E1E10F0FE1E1E1E1E1E1E1E1E1E1E10FE1E1E1E1E1E1E1E1E1E1E1E1E1E1E1E1E1E1E1E1E1E1E128BEE1E1E1E1E1E1E1E1E1E1E1E1E1E1E1E1E1E1E1E1E1E1E1E1E1E1E1E1E1E1E1E1
310
E1E1E1E1E1E1E1E1E1E1E1E1E1E1E1E1E1E1E1E1E1E1E1E1E1E1E1E1E1E1E1E1E1E1BEE1E1E1E1E1E1BEBEE1E1E1E1E1E1E1E1E1E1E1E1E1E1E1E1E1E1E1E1E1E1E1E1E1E1E1E1E1E1E1E1E1E1E1E1E1E1E1E1E1E1E1BEBEE1E1E1E1E1E1E1E1E1E1E1E1E1E1E1BEBEE1E1E1E1E1E1E1E1E1E1E1E1E1E1E1E1E1E1E1E1E1E1
310
E1E1E1E1E1E1E1E1E1E1E1E1E1E1E1E1E1E1E1E1E1E1E1E1E1E1E1E1E1E1E1E1E1E1E1E1E1E1E1E1E1E1E1E1E1E1E1E1E10FE10F0F0F0F0F0F0F0F0F0F0F0F0F0FE10F0F0F0F0F0F0F0F0F0F0FE1E1E1E1E1E1E1E1E1E1E1E1E1E1E1E1E1E128BEE1E1E1E1E1E1E1E1E1E1E1E1E1E1E1E1E1E1E1E1E1E1E1E1E1E1E1E1E1E1
310
E1E1E1E1E1E1E1E1E1E1E1E1E1E1E1E1E1E1E1E1E1E1E1E1E1E1E1E1E1E1E1E1E1E1E1E1BEE1E1E1E1E1E1BEBEE1E1E1E1E1E1E1E1E1E1E1E1E1E1E1E1E1E1E1E1E1E1E1E1E1E1E1E1E1E1E1E1E1E1E1E1E1E1E1E1E1E1E1BEBEBEBEBEBEBEBE0F0F0FBEBEBEBEBEBEBEBEE1E1E1E1E1E1E1E1E1E1E1E1E1E1E1E1E1E1E1E1
310
E1E1E1E1E1E1E1E1E1E1E1E1E1E1E1E1E1E1E1E1E1E1E1E1E1E1E1E1E1E1E1E1E1E1E1E1E1E1E1E1E1E1E1E1E1E1E1E1E1E1E10F0F0F0F0F0F0F0F0F0F0F0F0F0F0F0F0F0F0F0F0F0F0F0F0F0F0F0F0F0F0F0F0F0F0F0F0F0F0F0F0F0F0F0F0F0F0FBEE1E1E1E1E1E1E1E1E1E1E1E1E1E1E1E1E1E1E1E1E1E1E1E1E1E1E1E1
310
E1E1E1E1E1E1E1E1E1E1E1E1E1E1E1E1E1E1E1E1E1E1E1E1E1E1E1E1E1E1E1E1E1E1E1E1E1E1BEE1E1E1E1E1E1BEBEE1E1E1E1E1E1E1E1E1E1E1E1E1E1E1E1E1E1E1E1E1E1E1E1E1E1E1E1E1E1E1E1E1E1E1E1E1E1E1E1E1E1E1BEE1E1E1E1E1E1E10F0F0FE1E1E1E1E1E1E1BEE1E1E1E1E1E1E1E1E1E1E1E1E1E1E1E1E1E1
310
E1E1E1E1E1E1E1E1E1E1E1E1E1E1E1E1E1E1E1E1E1E1E1E1E1E1E1E1E1E1E1E1E1E1E1E1E1E1E1E1E1E1E1E1E1E1E1E1E1E1E1E1E10FE1E1E1E1E1E1E1E1E1E1E1E1E1E1E1E1E1E1E1E1E1E1E1E1E1E1E1E1E1E1E1E1E1E1E1E1E1E1E10F0FE10F0FE128BEE1E1E1E1E1E1E1E1E1E1E1E1E1E1E1E1E1E1E1E1E1E1E1E1E1E1
310
E1E1E1E1E1E1E1E1E1E1E1E1E1E1E1E1E1E1E1E1E1E1E1E1E1E1E1E1E1E1E1E1E1E1E1E1E1E1E1E1BEE1E1E1E1E1E1BEBEE1E1E1E1E1E1E1E1E1E1E1E1E1E1E1E1E1E1E1E1E1E1E1E1E1E1E1E1E1E1E1E1E1E1E1E1E1E1E1E1E1E1E1BEE1E1E1E1BEE1E1BEE1E1E1E1E1E1BEE1E1BEE1E1E1E1E1E1E1E1E1E1E1E1E1E1E1E1
310
E1E1E1E1E1E1E1E1E1E1E1E1E1E1E1E1E1E1E1E1E1E1E1E1E1E1E1E1E1E1E1E1E1E1E1E1E1E1E1E1E1E1E1E1E1E1E1E1E1E1E1E1E1E1E10FE1BEBEBEBEBEE1E1E1E1E1E2E2E2E1E1E1E1E1E1E1E1E1E1E1E1E1E1E1E1E1E1E1E1E1E1E10F0FBEBEBEBEBEBEBEBEE1E1E1E1E1E1E1E1E1E1E1E1E1E1E1E1E1E1E1E1E1E1E1E1
310
E1E1E1E1E1E1E1E1E1E1E1E1E1E1E1E1E1E1E1E1E1E1E1E1E1E1E1E1E1E1E1E1E1E1E1E1E1E1E1E1E1E1BEE1E1E1E1E1E1BEBEE1E1E1E1E1E1E1E1E1E1E1E1E1E1E1E1E1E1E1E1E1E1E1E1E1E1E1E1E1E1E1E1E1E1E1E1E1E1E1E1E1E1E1BEE1E1E1E1BE0FBEBEBEBE0F0F0FBEBEBEBEBEE1E1E1E1E1E1E1E1E1E1E1E1E1E1
310
E1E1E1E1E1E1E1E1E1E1E1E1E1E1E1E1E1E1E1E1E1E1E1E1E1E1E1E1E1E1E1E1E1E1E1E1E1E1E1E1E1E1E1E1E1E1E1E1E1E1E1E1E1E1E1E1E10FE1BEBEBEBEBEBEBEE1E1E1E2E2E2E1E1E1E1E1E1E1E1E1E1E1E1E1E1E1E1E1E1E1E1E1E1E10F0FE10F0F0F0F0F28BEE1E1E1E1E1E1E1E1E1E1E1E1E1E1E1E1E1E1E1E1E1E1
310
E1E1E1E1E1E1E1E1E1E1E1E1E1E1E1E1E1E1E1E1E1E1E1E1E1E1E1E1E1E1E1E1E1E1E1E1E1E1E1E1E1E1E1E1BEE1E1E1E1E1E1BEBEE1E1E1E1E1E1E1E1E1E1E1E1E1E1E1E1E1E1E1E1E1E1E1E1E1E1E1E1E1E1E1E1E1E1E1E1E1E1E1E1E1E1E1BEE1E1E1E1BE0F0FBEE1E10F0F0FE1BEE10FBEE1E1E1E1E1E1E1E1E1E1E1E1
310
E1E1E1E1E1E1E1E1E1E1E1E1E1E1E1E1E1E1E1E1E1E1E1E1E1E1E1E1E1E1E1E1E1E1E1E1E1E1E1E1E1E1E1E1E1E1E1E1E1E1E1E1E1E1E1E1E1E1E10FE1BEBEBEBEBEBEBEE1E1E1E2E1E2E1E1E1E1E1E1E1E1E1E1E1E1E1E1E1E1E1E1E1E1E1E1E1E1E10F0FE10F0FE128BEE1E1E1E1E1E1E1E1E1E1E1E1E1E1E1E1E1E1E1E1
310
E1E1E1E1E1E1E1E1E1E1E1E1E1E1E1E1E1E1E1E1E1E1E1E1E1E1E1E1E1E1E1E1E1E1E1E1E1E1E1E1E1E1E1E1E1E1BEE1E1E1E1E1E1BEBEE1E1E1E1E1E1E1E1E1E1E1E1E1E1E1E1E1E1E1E1E1E1E1E1E1E1E1E1E1E1E1E1E1E1E1E1E1E1E1E1E1E1E1BEE1E1E1E1BEE1E1BEE1E1E1E1E1E1BEE1E1BEE1E1E1E1E1E1E1E1E1E1
310
E1E1E1E1E1E1E1E1E1E1E1E1E1E1E1E1E1E1E1E1E1E1E1E1E1E1E1E1E1E1E1E1E1E1E1E1E1E1E1E1E1E1E1E1E1E1E1E1E1E1E1E1E1E1E1E1E1E1E1E1E10F0F0F0F0F0F0F0F0F0F0F0F0F0F0F0F0F0F0F0F0F0F0F0F0F0F0F0F0F0F0F0F0F0F0F0F0F0F0F0F0F0F0F0F0F0F0FBEE1E1E1E1E1E1E1E1E1E1E1E1E1E1E1E1E1E1
310
E1E1E1E1E1E1E1E1E1E1E1E1E1E1E1E1E1E1E1E1E1E1E1E1E1E1E1E1E1E1E1E1E1E1E1E1E1E1E1E1E1E1E1E1E1E1E1E1BEE1E1E1E1E1E1BEBEE1E1E1E1E1E1E1E1E1E1E1E1E1E1E1E1E1E1E1E1E1E1E1E1E1E1E1E1E1E1E1E1E1E1E1E1E1E1E1E1E1E1E1BEE1E1E1E1BEE1E1BEBEBEBEBEBEBEBEE1E1BEE1E1E1E1E1E1E1E1
310
E1E1E1E1E1E1E1E1E1E1E1E1E1E1E1E1E1E1E1E1E1E1E1E1E1E1E1E1E1E1E1E1E1E1E1E1E1E1E1E1E1E1E1E1E1E1E1E1E1E1E1E1E1E1E1E1E1E1E1E1E1E1E1E1E1E1E1E1E1E1E1E1E1E1E1E1E1E1E1E1E1E1E1E1E1E1E1E1E1E1E1E1E1E1E1E1E1E1E1E1E1E1E1E1E1E1E1E1E128BEE1E1E1E1E1E1E1E1E1E1E1E1E1E1E1E1
310
E1E1E1E1E1E1E1E1E1E1E1E1E1E1E1E1E1E1E1E1E1E1E1E1E1E1E1E1E1E1E1E1E1E1E1E1E1E1E1E1E1E1E1E1E1E1E1E1E1E1BEE1E1E1E1E1E1BEBEE1E1E1E1E1E1E1E1E1E1E1E1E1E1E1E1E1E1E1E1E1E1E1E1E1E1E1E1E1E1E1E1E1E1E1E1E1E1E1E1E1E1E1BEE1E1E1E1BEE1E1BE0F0FBEE1BE0FBEE1E1BEE1E1E1BEE1E1
310
E1E1E1E1E1E1E1E1E1E1E1E1E1E1E1E1E1E1E1E1E1E1E1E1E1E1E1E1E1E1E1E1E1E1E1E1E1E1E1E1E1E1E1E1E1E1E1E1E1E1E1E1E1E1E1E1E1E1E1E1E1E1E1E1E1E1E1E1E1E1E1E1E1E1E1E1E1E1E1E1E1E1E1E1E1E1E1E1E1E1E1E1E1E1E1E1E1E1E1E1E1E1E1E1E1E1E1E1E1E1E128BEE1E1E1E1E1E1E1E1E1E1E1E1E1E1
310
E1E1E1E1E1E1E1E1E1E1E1E1E1E1E1E1E1E1E1E1E1E1E1E1E1E1E1E1E1E1E1E1E1E1E1E1E1E1E1E1E1E1E1E1E1E1E1E1E1E1E1E1BEE1E1E1E1E1E1BEBEE1E1E1E1E1E1E1E1E1E1E1E1E1E1E1E1E1E1E1E1E1E1E1E1E1E1E1E1E1E1E1E1E1E1E1E1E1E1E1E1E1E1E1BEE1E1E1E1BEE1E1BE0F0FBEE1BE0FBEE1E1BEE1E1E1BE
310
E1E1E1BEE1E1E1E1E1E1E1E1E1E1E1E1E1E1E1E1E1E1E1E1E1E1E1E1E1E1E1E1E1E1E1E1E1E1E1E1E1E1E1E1E1E1E1E1E1E1E1E1E1E1E1E1E1E1E1E1E1E1E1E1E1E1E1E1E1E1E1E1E1E1E1E1E1E1E1E1E1E1E1E1E1E1E1E1E1E1E1E1E1E1E1E1E1E1E1E1E1E1E1E1E1E1E1E1E1E1E1E1E128BEE1E1E1E1E1E1E1E1E1E1E1E1
310
E1E1E1E1E1E1E1E1E1E1E1E1E1E1E1E1E1E1E1E1E1E1E1E1E1E1E1E1E1E1E1E1E1E1E1E1E1E1E1E1E1E1E1E1E1E1E1E1E1E1E1E1E1E1BEE1E1E1E1E1E1BEBEE1E1E1E1E1E1E1E1E1E1E1E1E1E1E1E1E1E1E1E1E1E1E1E1E1E1E1E1E1E1E1E1E1E1E1E1E1E1E1E1E1E1E1BEE1E1E1E1BEE1E1BEE1E1BEE1BEE1BEE1E1BEE1E1
310
E1BEE1E1E1BEE1E1E1E1E1E1E1E1E1E1E1E1E1E1E1E1E1E1E1E1E1E1E1E1E1E1E1E1E1E1E1E1E1E1E1E1E1E1E12828282828282828282828E12828282828282828282828282828E12828282828282828282828282828E12828282828282828282828282828E12828282828282828282828E1E128BEE1E1E1E1E1E1E1E1E1E1
310
E1E1E1E1E1E1E1E1E1E1E1E1E1E1E1E1E1E1E1E1E1E1E1E1E1E1E1E1E1E1E1E1E1E1E1E1E1E1E1E1E1E1E1E1E1E1E1E1E1E1E1E1E1E1E1E1BEE1E1E1E1E1E1BEBEE1E1E1E1E1E1E1E1E1E1E1E1E1E1E1E1E1E1E1E1E1E1E1E1E1E1E1E1E1E1E1E1BEBEBEBEBEBEBEBEBEBEBEBEBEBEBEBEBEBEBEBEBEBEBEBEBEBEE2E2E2BE
310
BEBEBEBEBEBEBEBEE1E1E1E1E1E1E1E1E1E1E1E1E1E1E1E1E1E1E1E1E1E1E1E1E1E1E1E1E1E1E1E1E1E1E1E1E1E1E128E1E1E1E1E1E1E1E1E1E1E1E1E1E1E1E1E1E1E1E1E1E1E1E1E1E1E1E1E1E1E1E1E1E1E1E1E1E1E1B6606060E1E1E1E1E1E1E1E1E1E1E1E1E1E1E1E1E1E1E1E1E1E1E128E1E128BEE1E1E1E1E1E1E1E1
310
E1E1E1E1E1E1E1E1E1E1E1E1E1E1E1E1E1E1E1E1E1E1E1E1E1E1E1E1E1E1E1E1E1E1E1E1E1E1E1E1E1E1E1E1E1E1E1E1E1E1E1E1E1E1E1E1E1E1BEE1E1E1E1E1E1BE28E1E1E1E1E1E1E1E1E1E1E1E1E1E1E1E1E1E1E1E1E1E1E1E1E1E1E1E1E1E1E1E1BEBEE1E1E1E1E1E1E1E1E1BEE1E1E1E1BEE1E1BEE1E1BEE1BEBEE2BE
310
BEE2BEBEBEBEBEE1E1BEE1E1E1E1E1E1E1E1E1E1E1E1E1E1E1E1E1E1E1E1E1E1E1E1E1E1E1E1E1E1E1E1E1E1E1E1E1E1E128E1E1E1E1E1E1E1E1E1E1E1E1E1E1E1E1E1E1E1E1E1E1E1E1E1E1E1E1E1E1E1E1E1E1E1E1E1E1E135603560E1E1E1E1E1E1E1E1E1E1E1E1E1E1E1E1E1E1E1E1E1E1E128E1E128BEE1E1E1E1E1E1
310
E1E1E1E1E1E1E1E1E1E1E1E1E1E1E1E1E1E1E1E1E1E1E1E1E1E1E1E1E1E1E1E1E1E1E1E1E1E1E1E1E1E1E1E1E1E1E1E1E1E1E1E1E1E1E1E1E1E1E1E1BEE1E1E1E1E1E1BEBEE1E1E1E1E1E1E1E1E1E1E1E1E1E1E1E1E1E1E1E1E1E1E1E1E1E1E1E1E1E1E1E1E1BEE1E1E1E1E1E1E1E1E1BEE1E1E1E1BEE1E1BEE1E1BEE1BEE1
310
E2BEBEBEBEBEE1BEBEBEBEBEE1E1E1E1E1E1E1E1E1E1E1E1E1E1E1E1E1E1E1E1E1E1E1E1E1E1E1E1E1E1E1E1E1E1E1E1E1E1E128E1E1E1E1E1E1E1E1E1E1E1E1E1E1E1E1E1E1E1E1E1E1E1E1E1E1E1E1E1E1E1E1E1E1E1E1E1E1E1356060358BE1E1E1E1E1E1E1E1E1E1E1E1E1E1E1E1E1E1E1E1E1E128E1E128BEE1E1E1E1
310
E1E1E1E1E1E1E1E1E1E1E1E1E1E1E1E1E1E1E1E1E1E1E1E1E1E1E1E1E1E1E1E1E1E1E1E1E1E1E1E1E1E1E1E1E1E1E1E1E1E1E1E1E1E1E1E1E1E1E1E1E1E1BEE1E1E1E1E1E1BEBEE1E1E1E1E1E1E1E1E1E1E1E1E1E1E1E1E1E1E1E1E1E1E1E1E1E1E1E1E1E1E1E1E1BEE1E1E1E1E1E1E1E1E1BEE1E1E1E1BEE1E1BEE1E1BEE1
310
BEE1E2E1E1E2E1E10FBEE1E1E1BEE1E1E1E1E1E1E1E1E1E1E1E1E1E1E1E1E1E1E1E1E1E1E1E1E1E1E1E1E1E1E1E1E1E1E1E1E1E1E128E1E1E1E1E1E1E1E1E1E1E1E1E1E1E1E1E1E1E1E1E1E1E1E1E1E1E1E1E1E1E1E1E1E1E1E1E1E1E135603535358BB6E1E1E1E1E1E1E1E1E1E1E1E1E1E1E1E1E1E1E1E128E1E128BEE1E1
310
E1E1E1E1E1E1E1E1E1E1E1E1E1E1E1E1E1E1E1E1E1E1E1E1E1E1E1E1E1E1E1E1E1E1E1E1E1E1E1E1E1E1E1E1E1E1E1E1E1E1E1E1E1E1E1E1E1E1E1E1E1E1E1E1BEE1E1E1E1E1E1BEBEE1E1E1E1E1E1E1E1E1E1E1E1E1E1E1E1E1E1E1E1E1E1E1E1E1E1E1E1E1E1E1E1E1BEE1E1E1E1E1E1E1E1E1BEE1E1E1E1BEE1E1BEE1E1
310
BEE1BEE1E2E1E1E2E1E10FBEE10F0FBEE1E1E1E1E1E1E1E1E1E1E1E1E1E1E1E1E1E1E1E1E1E1E1E1E1E1E1E1E1E1E1E1E1E1E1E1E1E1E128E1E1E1E1E1E1E1E1E1E1E1E1E1E1E1E1E1E1E1E1E1E1E1E1E1E1E1E1E1E1E1E1E1E1E1E1E1E1E1353535608B358B8BE1E1E1E1E1E1E1E1E1E1E1E1E1E1E1E1E1E1E128E1E128BE
310
E1E1E1E1E1E1E1E1E1E1E1E1E1E1E1E1E1E1E1E1E1E1E1E1E1E1E1E1E1E1E1E1E1E1E1E1E1E1E1E1E1E1E1E1E1E1E1E1E1E1E1E1E1E1E1E1E1E1E1E1E1E1E1E1E1E1BEE1E1E1E1E1E1BEBEE1E1E1E1E1E1E1E1E1E1E1E1E1E1E1E1E1E1E1E1E1E1E1E1E1E1E1E1E1E1E1E1E1BEE1E1E1E1E1E1E1E1E1BEE1E1E1E1BEE1E1BE
310
E1E1BEE1BEE1E2E1E1E2E1E10FBEE10F0FBEE1E1E1E1E1E1E1E1E1E1E1E1E1E1E1E1E1E1E1E1E1E1E1E1E1E1E1E1E1E1E1E1E1E1E1E1E1E1E128E1E1E1E1E1E1E1E1E1E1E1E1E1E1E1E1E1E1E1E1E1E1E1E1E1E1E1E1E1E1E1E1E1E1E1E1E1E1E135603560608B35608BB6E1E1E1E1E1E1E1E1E1E1E1E1E1E1E1E1E128E1E1
310
28BEE1E1E1E1E1E1E1E1E1E1E1E1E1E1E1E1E1E1E1E1E1E1E1E1E1E1E1E1E1E1E1E1E1E1E1E1E1E1E1E1E1E1E1E1E1E1E1E1E1E1E1E1E1E1E1E1E1E1E1E1E1E1E1E1E1E1BEE1E1E1E1E1E1BEBEE1E1E1E1E1E1E1E1E1E1E1E1E1E1E1E1E1E1E1E1E1E1E1E1E1E1E1E1E1E1E1E1E1BEE1E1E1E1E1E1E1E1E1BEE1E1E1E1BEE1
310
E1BEE1E1BEE1BEE1E2E1E1E2E1E1E1E1E10F0FBEE1E1E1E1E1E1E1E1E1E1E1E1E1E1E1E1E1E1E1E1E1E1E1E1E1E1E1E1E1E1E1E1E1E1E1E1E1E1E128E1E1E1E1E1E1E1E1E1E1E1E1E1E1E1E1E1E1E1E1E1E1E1E1E1E1E1E1E1E1E1E1E1E1E1E1E1E1E1356060608B35608B35358BB6E1E1E1E1E1E1E1E1E1E1E1E1E1E1E128
310
E1E128BEE1E1E1E1E1E1E1E1E1E1E1E1E1E1E1E1E1E1E1E1E1E1E1E1E1E1E1E1E1E1E1E1E1E1E1E1E1E1E1E1E1E1E1E1E1E1E1E1E1E1E1E1E1E1E1E1E1E1E1E1E1E1E1E1E1E1BEE1E1E1E1E1E1BEBEE1E1E1E1E1E1E1E1E1E1E1E1E1E1E1E1E1E1E1E1E1E1E1E1E1E1E1E1E1E1E1E1E1BEE1E1E1E1E1E1E1E1E1BEE1E1E1E1
310
BEE1E1BEE1E1BEE2E2E2E2E1E1E2E1E1E1E1E10F0FBEE1E1E1E1E1E1E1E1E1E1E1E1E1E1E1E1E1E1E1E1E1E1E1E1E1E1E1E1E1E1E1E1E1E1E1E1E1E1E128E1E1E1E1E1E1E1E1E1E1E1E1E1E1E1E1E1E1E1E1E1E1E1E1E1E1E1E1E1E1E1E1E1E1E1E1E1E1E135603560608B60B6608B358B8BE1E1E1E1E1E1E1E1E1E1E1E1E1
310
E128E1E128BEE1E1E1E1E1E1E1E1E1E1E1E1E1E1E1E1E1E1E1E1E1E1E1E1E1E1E1E1E1E1E1E1E1E1E1E1E1E1E1E1E1E1E1E1E1E1E1E1E1E1E1E1E1E1E1E1E1E1E1E1E1E1E1E1E1E1BEE1E1E1E1E1E1BEBEE1E1E1E1E1E1E1E1E1E1E1E1E1E1E1E1E1E1E1E1E1E1E1E1E1E1E1E1E1E1E1E1E1BEE1E1E1E1E1E1E1E1E1BEE1E1
310
E1E1BEE1E1BEE1E1BEE2BEE1BEE1E1E2E1E1E1E1E1E1E1E1E1E1E1E1E1E1E1E1E1E1E1E1E1E1E1E1E1E1E1E1E1E1E1E1E1E1E1E1E1E1E1E1E1E1E1E1E1E1E128E1E1E1E1E1E1E1E1E1E1E1E1E1E1E1E1E1E1E1E1E1E1E1E1E1E1E1E1E1E1E1E1E1E1E1E1E1E1E1356060608B8B8B8B8B358B60358BB6E1E1E1E1E1E1E1E1E1
310
E1E1E128E1E128BEE1E1E1E1E1E1E1E1E1E1E1E1E1E1E1E1E1E1E1E1E1E1E1E1E1E1E1E1E1E1E1E1E1E1E1E1E1E1E1E1E1E1E1E1E1E1E1E1E1E1E1E1E1E1E1E1E1E1E1E1E1E1E1E1E1E1BEE1E1E1E1E1E1BEBEE1E1E1E1E1E1E1E1E1E1E1E1E1E1E1E1E1E1E1E1E1E1E1E1E1E1E1E1E1E1E1E1E1BEE1E1E1E1E1E1E1E1E1BE
310
E1E1E1E1BEE1E1BEE1E1BEE2BEE1BEE1E1E2E1E1E1E1E1E1E1E1E1E1E1E1E1E1E1E1E1E1E1E1E1E1E1E1E1E1E1E1E1E1E1E1E1E1E1E1E1E1E1E1E1E1E1E1E1E1E128E1E1E1E1E1E1E1E1E1E1E1E1E1E1E1E1E1E1E1E1E1E1E1E1E1E1E1E1E1E1E1E1E1E1E1E1E1E1E135603560608B8BB68B8B8B8B6060358B8BE1E1E1E1E1
310
E1E1E1E1E128E1E128BEE1E1E1E1E1E1E1E1E1E1E1E1E1E1E1E1E1E1E1E1E1E1E1E1E1E1E1E1E1E1E1E1E1E1E1E1E1E1E1E1E1E1E1E1E1E1E1E1E1E1E1E1E1E1E1E1E1E1E1E1E1E1E1E1E1E1BEE1E1E1E1E1E1BEBEE1E1E1E1E1E1E1E1E1E1E1E1E1E1E1E1E1E1E1E1E1E1E1E1E1E1E1E1E1E1E1E1E1BEE1E1E1E1E1E1E1E1
310
E1BEE1E1E1E1BEE1E1BEE1E1BEE2BEE1E2E2E2E2BEBEBEBEBEBEBEBEE1E1E1E1E1E1E1E1E1E1E1E1E1E1E1E1E1E1E1E1E1E1E1E1E1E1E1E1E1E1E1E1E1E1E1E1E1E1E1E1E1E1E1E1E1E1E1E1E1E1E1E1E1E1E1E1E1E1E1E1E1E1E1E1E1E1E1E1E1E1E1E1E1E1E1E1E1E1E1356060608B8B8B8B8B8B8B8B60608B35608BE1E1
310
E1E1E1E1E1E1E1E1E1E128BEE1E1E1E1E1E1E1E1E1E1E1E1E1E1E1E1E1E1E1E1E1E1E1E1E1E1E1E1E1E1E1E1E1E1E1E1E1E1E1E1E1E1E1E1E1E1E1E1E1E1E1E1E1E1E1E1E1E1E1E1E1E1E1E1E1E1BEE1E1E1E1E1E1BEBEE1E1E1E1E1E1E1E1E1E1E1E1E1E1E1E1E1E1E1E1E1E1E1E1E1E1E1E1E1E1E1E1E1BEE1E1E1E1E1E1
310
E1E1E1BEE1E1E1E1BEE1E1BEE1E1BEE2BEE1E2E1E1E1E1E1E1E1E1E1E1BEE1E1E1E1E1E1E1E1E1E1E1E1E1E1E1E1E1E1E1E1E1E1E1E1E1E1E1E1E1E1E1E1E1E1E1E1E1E1E128E1E1E1E1E1E1E1E1E1E1E1E1E1E1E1E1E1E1E1E1E1E1E1E1E1E1E1E1E1E1E1E1E1E1E1E1E1E1E135603560608B8BB68BB68BB68B8B8B8B6035
310
6060B6E1E1E1E1E1E128E1E128BEE1E1E1E1E1E1E1E1E1E1E1E1E1E1E1E1E1E1E1E1E1E1E1E1E1E1E1E1E1E1E1E1E1E1E1E1E1E1E1E1E1E1E1E1E1E1E1E1E1E1E1E1E1E1E1E1E1E1E1E1E1E1E1E1E1E1BEE1E1E1E1E1E1BEBEE1E1E1E1E1E1E1E1E1E1E1E1E1E1E1E1E1E1E1E1E1E1E1E1E1E1E1E1E1E1E1E1E1BEE1E1E1E1
310
E1E1E1E1E1BEE1E1E1E1BEE1E1BEE1E1BEE2BEE1E2E1E1E1E1E1E1E1E1E1E1BEE1E1E1E1E1E1E1E1E1E1E1E1E1E1E1E1E1E1E1E1E1E1E1E1E1E1E1E1E1E1E1E1E1E1E1E1E1E1E128E1E1E1E1E1E1E1E1E1E1E1E1E1E1E1E1E1E1E1E1E1E1E1E1E1E1E1E1E1E1E1E1E1E1E1E1E1E1E1356060608B35608B8B8B8B8B8B8B8B60
310
608B3535358BE1E1E1E1E128E1E128BEE1E1E1E1E1E1E1E1E1E1E1E1E1E1E1E1E1E1E1E1E1E1E1E1E1E1E1E1E1E1E1E1E1E1E1E1E1E1E1E1E1E1E1E1E1E1E1E1E1E1E1E1E1E1E1E1E1E1E1E1E1E1E1E1E1E1BEE1E1E1E1E1E1BEBEE1E1E1E1E1E1E1E1E1E1E1E1E1E1E1E1E1E1E1E1E1E1E1E1E1E1E1E1E1E1E1E1E1BEE1E1
310
E1E1E1E1E1E1E1BEE1E1E1E1BEE1E1BEE1E1BEE2BEE1E2E1E1E1E1E1E1E1E1E1E1BEE1E1E1E1E1E1E1E1E1E1E1E1E1E1E1E1E1E1E1E1E1E1E1E1E1E1E1E1E1E1E1E1E1E1E1E1E1E1E128E1E1E1E1E1E1E1E1E1E1E1E1E1E1E1E1E18B358BE1E1E1E1E1E1E1E1E1E1E1E1E1E1E1E1E1E1E135603560608B8B8B8BB68BB68BB6
310
8B8B60B68B8B35608BB6E1E1E128E1E128BEE1E1E1E1E1E1E1E1E1E1E1E1E1E1E1E1E1E1E1E1E1E1E1E1E1E1E1E1E1E1E1E1E1E1E1E1E1E1E1E1E1E1E1E1E1E1E1E1E1E1E1E1E1E1E1E1E1E1E1E1E1E1E1E1E1E1BEE1E1E1E1E1E1BEBEE1E1E1E1E1E1E1E1E1E1E1E1E1E1E1E1E1E1E1E1E1E1E1E1E1E1E1E1E1E1E1E1E1BE
310
E1E1E1E1E1E1E1E1E1BEE1E1E1E1BEE1E1BEE1E1BEE2BEE1E2E1E1E1E1E1E1E1E1E1E1BEE1E1E1E1E1E1E1E1E1E1E1E1E1E1E1E1E1E1E1E1E1E1E1E1E1E1E1E1E1E1E1E1E1E1E1E1E1E1E128E1E1E1E1E1E1E1E1E1E1E1E1E1E1E1B660350A3560E1E1E1E1E1E1E1E1E1E1E1E1E1E1E1E1E1E1356060608B8B8B8B8B358B8B
310
8B8B8B8B8B8B8B358B6035608BB6E128E1E128BEE1E1E1E1E1E1E1E1E1E1E1E1E1E1E1E1E1E1E1E1E1E1E1E1E1E1E1E1E1E1E1E1E1E1E1E1E1E1E1E1E1E1E1E1E1E1E1E1E1E1E1E1E1E1E1E1E1E1E1E1E1E1E1E1E1E1BEE1E1E1E1E1E1BEBEE1E1E1E1E1E1E1E1E1E1E1E1E1E1E1E1E1E1E1E1E1E1E1E1E1E1E1E1E1E1E1E1
310
E1BEE1E1E1E1E1E1E1E1E1BEE1E1E1E1BEE1E1BEE1E1BEE2BEE1E2E1E1E1E1E1E1E1E1E1E1BEE1E1E1E1E1E1E1E1E1E1E1E1E1E1E1E1E1E1E1E1E1E1E1E1E1E1E1E1E1E1E1E1E1E1E1E1E1E1E128E1E1E1E1E1E1E1E1E1E1E1E1E1B68B0A353560356060E1E1E1E1E1E1E1E1E1E1E1E1E1E1E1E1E135603560608B8BB68B8B
310
8BB68BB68BB68BB68B8B8BB66060358B8B28E1E128BEE1E1E1E1E1E1E1E1E1E1E1E1E1E1E1E1E1E1E1E1E1E1E1E1E1E1E1E1E1E1E1E1E1E1E1E1E1E1E1E1E1E1E1E1E1E1E1E1E1E1E1E1E1E1E1E1E1E1E1E1E1E1E1E1E1E1BEE1E1E1E1E1E1BEBEE1E1E1E1E1E1E1E1E1E1E1E1E1E1E1E1E1E1E1E1E1E1E1E1E1E1E1E1E1E1
310
E1E1E1BEE1E1E1E1E1E1E1E1E1BEE1E1E1E1BEE1E1BEE1E1BEE2BEE1E2E1E1E1E1E1E1E1E1E1E1BEE1E1E1E1E1E1E1E1E1E1E1E1E1E1E1E1E1E1E1E1E1E1E1E1E1E1E1E1E1E1E1E1E1E1E1E1E1E1E128E1E1E1E1E1E1E1E1E1E1E1E18B350A3535356035358BE1E1E1E1E1E1E1E1E1E1E1E1E1E1E1E1E1356060608B8B8B8B
310
8B8B8B8B60608B8B8B8B8B8B8B8B60608B356028E1E128BEE1E1E1E1E1E1E1E1E1E1E1E1E1E1E1E1E1E1E1E1E1E1E1E1E1E1E1E1E1E1E1E1E1E1E1E1E1E1E1E1E1E1E1E1E1E1E1E1E1E1E1E1E1E1E1E1E1E1E1E1E1E1E1E1E1E1BEE1E1E1E1E1E1BEBEE1E1E1E1E1E1E1E1E1E1E1E1E1E1E1E1E1E1E1E1E1E1E1E1E1E1E1E1
310
E1E1E1E1E1BEE1E1E1E1E1E1E1E1E1BEE1E1E1E1BEE1E1BEE1E1BEE2BEE1E2E1E1E1E1E1E1E1E1E1E1BEE1E1E1E1E1E1E1E1E1E1E1E1E1E1E1E1E1E1E1E1E1E1E1E1E1E1E1E1E1E1E1E1E1E1E1E1E1E1E128E1E1E1E1E1E1E1E1E1B6B635350A603560353560E1E1E1E1E1E1E1E1E1E1E1E1E1E1E1E1E1E1E135603560608B
310
8BB68BB68B8B8BB68B8B8BB68B8B8BB68B8B8B8B8B28E1E128BEE1E1E1E1E1E1E1E1E1E1E1E1E1E1E1E1E1E1E1E1E1E1E1E1E1E1E1E1E1E1E1E1E1E1E1E1E1E1E1E1E1E1E1E1E1E1E1E1E1E1E1E1E1E1E1E1E1E1E1E1E1E1E1E1E1E1BEE1E1E1E1E1E1BEBEE1E1E1E1E1E1E1E1E1E1E1E1E1E1E1E1E1E1E1E1E1E1E1E1E1E1
310
E1E1E1E1E1E1E1BEE1BEBEBEBEBEBEBEBEBEE2E2E2E2E2E1E1BEE1E1BEE2BEE1E2E1E1E1E1E1E1E1E1E1E1BEE1E1E1E1E1E1E1E1E1E1E1E1E1E1E1E1E1E1E1E1E1E1E1E1E1E1E1E1E1E1E1E1E1E1E1E1E1E1E128E1E1E1E1E1E1E1E1B6600A0A353535603560B6E1E1E1E1E1E1E1E1E1E1E1E1E1E1E1E1E1E1E1E135606060
310
8B60608B8B8B8B8B8B8B8B60358B8B8B8B8B8B8B8B8B6028E1E128BEE1E1E1E1E1E1E1E1E1E1E1E1E1E1E1E1E1E1E1E1E1E1E1E1E1E1E1E1E1E1E1E1E1E1E1E1E1E1E1E1E1E1E1E1E1E1E1E1E1E1E1E1E1E1E1E1E1E1E1E1E1E1E1E1E1E1BEE1E1E1E1E1E1BEBEE1E1E1E1E1E1E1E1E1E1E1E1E1E1E1E1E1E1E1E1E1E1E1E1
310
E1E1E1E1E1E1E1E1E1BEE1E1BEE1E1E1E1E1E1BEE2E1E1E1E2E2E2E2E2E2E2E2BEE1E2E1E1E1E1E1E1E1E1E1E1BEE1E1E1E1E1E1E1E1E1E1E1E1E1E1E1E1E1E1E1E1E1E1E1E1E1E1E1E1E1E1E1E1E1E1E1E1E1E1E128E1E1E1E1E1E1B660350A353560353535B6E1E1E1E1E1E1E1E1E1E1E1E1E1E1E1E1E1E1E1E1E1E13560
310
3560356060B68B8B8BB68BB68BB68BB68B8B8BB68BB68BB68B28E1E128BEE1E1E1E1E1E1E1E1E1E1E1E1E1E1E1E1E1E1E1E1E1E1E1E1E1E1E1E1E1E1E1E1E1E1E1E1E1E1E1E1E1E1E1E1E1E1E1E1E1E1E1E1E1E1E1E1E1E1E1E1E1E1E1E1E1E1BEE1E1E1E1E1E1BEBEE1E1E1E1E1E1E1E1E1E1E1E1E1E1E1E1E1E1E1E1E1E1
310
E1E1E1E1E1E1E1E1E1E1E1BEE1E1BEE1E1E1E1E1E1E2E1E1E1E1BEE1E1BEE1E1BEE1BEE1E2E1E1E1E1E1E1E1E1E1E1BEE1E1E1E1E1E1E1E1E1E1E1E1E1E1E1E1E1E1E1E1E1E1E1E1E1E1E1E1E1E1E1E1E1E1E1E1E1E1E128E1E1E1E1B68B35353535356035358BE1E1E1E1E1E1E1E1E1E1E1E1E1E1E1E1E1E1E1E1E1E1E1E1
310
356060606035608B8B358B8B8B8B8B8B8B8B8B358B8B8B8B8B8B8B28E1E128BEE1E1E1E1E1E1E1E1E1E1E1E1E1E1E1E1E1E1E1E1E1E1E1E1E1E1E1E1E1E1E1E1E1E1E1E1E1E1E1E1E1E1E1E1E1E1E1E1E1E1E1E1E1E1E1E1E1E1E1E1E1E1E1E1E1E1BEE1E1E1E1E1E1BEBEE1E1E1E1E1E1E1E1E1E1E1E1E1E1E1E1E1E1E1E1
310
E1E1E1E1E1E1E1E1E1E1E1E1E1BEE1E1BEE1E1E1E1E1E1E2E1E1E1E1E2E2E2E2E1E1E2E2E2BEE2BEBEBEBEBEBEBEBEE1E1BEE1E1E1E1E1E1E1E1E1E1E1E1E1E1E1E1E1E1E1E1E1E1E1E1E1E1E1E1E1E1E1E1E1E1E1E1E1E1E128E1E1E18B600A35356035600A8BB6E1E1E1E1E1E1E1E1E1E1E1E1E1E1E1E1E1E1E1E1E1E1E1
310
E1E135603560358B6060358B8BB660B68B8B8BB68B8B8BB6608B8BB68B28E1E128BEE1E1E1E1E1E1E1E1E1E1E1E1E1E1E1E1E1E1E1E1E1E1E1E1E1E1E1E1E1E1E1E1E1E1E1E1E1E1E1E1E1E1E1E1E1E1E1E1E1E1E1E1E1E1E1E1E1E1E1E1E1E1E1E1E1E1BEE1E1E1E1E1E1BEBEE1E1E1E1E1E1E1E1E1E1E1E1E1E1E1E1E1E1
310
E1E1E1E1E1E1E1E1E1E1E1E1E1E1E1BEE1E1BEE1E1E1E1E1E1E2E1E1E1E1E2E1E1E2E1E1E2E1E2E1E2E1E1E1E1E1E1BEE1E1E1BEE1E1E1E1E1E1E1E1E1E1E1E1E1E1E1E1E1E1E1E1E1E1E1E1E1E1E1E1E1E1E1E1E1E1E1E1E1E1E128E1B635350A353535603560B6E1E1E1E1E1E1E1E1E1E1E1E1E1E1E1E1E1E1E1E1E1E1E1
310
E1E1E1E1356060608B358B606035608B60608B8B8B8B8B8B8B8B60358B8B8B28E1E128BEE1E1E1E1E1E1E1E1E1E1E1E1E1E1E1E1E1E1E1E1E1E1E1E1E1E1E1E1E1E1E1E1E1E1E1E1E1E1E1E1E1E1E1E1E1E1E1E1E1E1E1E1E1E1E1E1E1E1E1E1E1E1E1E1E1E1BEE1E1E1E1E1E1BEBEE1E1E1E1E1E1E1E1E1E1E1E1E1E1E1E1
310
E1E1E1E1E1E1E1E1E1E1E1E1E1E1E1E1E1BEE1E1BEE1E1E1E1E1E1E2E1E1E1E2E2E1E1E2E2E2E2E1E2E2E2BEBEBEBEBEE1BEE1E1E1BEE1E1E1E1E1E1E1E1E1E1E1E1E1E1E1E1E1E1E1E1E1E1E1E1E1E1E1E1E1E1E1E1E1E1E1E1E1E1E1288B35350A35356035608BE1E1E1E1E1E1E1E1E1E1E1E1E1E1E1E1E1E1E1E1E1E1E1
310
E1E1E1E1E1E135603560608B356060603560608B8B8B8BB68BB68BB68B8B8BB66028E1E128BEE1E1E1E1E1E1E1E1E1E1E1E1E1E1E1E1E1E1E1E1E1E1E1E1E1E1E1E1E1E1E1E1E1E1E1E1E1E1E1E1E1E1E1E1E1E1E1E1E1E1E1E1E1E1E1E1E1E1E1E1E1E1E1E1E1E1BEE1E1E1E1E1E1BEBEE1E1E1E1E1E1E1E1E1E1E1E1E1E1
310
E1E1E1E1E1E1E1E1E1E1E1E1E1E1E1E1E1E1E1BEE1E1BEE1E1E1E1E1E1E2E1E1E2BEBEBEBEBE0FBEBEBEBEBEBEE10F0FBEE10F0FE1E1E1BEE1E1E1E1E1E1E1E1E1E1E1E1E1E1E1E1E1E1E1E1E1E1E1E1E1E1E1E1E1E1E1E1E1E1E1E1E1E1E128606035353535358BE1E1E1E1E1E1E1E1E1E1E1E1E1E1E1E1E1E1E1E1E1E1E1
310
E1E1E18B353535B6356060608B60608B3560606060358B60358B8B8B8B8B8B8B8B8B6028E1E128BEE1E1E1E1E1E1E1E1E1E1E1E1E1E1E1E1E1E1E1E1E1E1E1E1E1E1E1E1E1E1E1E1E1E1E1E1E1E1E1E1E1E1E1E1E1E1E1E1E1E1E1E1E1E1E1E1E1E1E1E1E1E1E1E1E1E1BEE1E1E1E1E1E1BEBEE1E1E1E1E1E1E1E1E1E1E1E1
310
E1E1E1E1E1E1E1E1E1E1E1E1E1E1E1E1E1E1E1E1E1BEE1E1BEE1E1BEBEBEBEE2BEBEE2BEBEE1E1E10F0FE1E1E1E1BEE10F0FBEE10F0FE1E1E1BEE1E1E1E1E1E1E1E1E1E1E1E1E1E1E1E1E1E1E1E1E1E1E1E1E1E1E1E1E1E1E1E1E1E1E1E1E1E1E1356035356060358B60E1E1E1E1E1E1E1E1E1E1E1E1E1E1E1E1E1E1E1E1E1
310
E1E1E1E1606035600A3535603560608B8BB6606035606060356060B68B8B8BB68BB68BB68B8BE1E128BEE1E1E1E1E1E1E1E1E1E1E1E1E1E1E1E1E1E1E1E1E1E1E1E1E1E1E1E1E1E1E1E1E1E1E1E1E1E1E1E1E1E1E1E1E1E1E1E1E1E1E1E1E1E1E1E1E1E1E1E1E1E1E1E1E1E1BEE1E1E1E1E1E1BEBEE1E1E1E1E1E1E1E1E1E1
310
E1E1E1E1E1E1E1E1E1E1E1E1E1E1E1E1E1E1E1E1E1E1E1BEE1E1BEE1E1BEBEE1E1E2E1E1E2E1E1E1E1E1E1E1E1E1E1E1E1E10F0FBEE10F0FE1E1E1BEE1E1E1E1E1E1E1E1E1E1E1E1E1E1E1E1E1E1E1E1E1E1E1E1E1E1E1E1E1E1E1E1E1E1E1E1E1E1E12860603560358B3560608BB6E1E1E1E1E1E1E1E1E1E1E1E1E1E1E1E1
310
E1E1E1B68B35353535356060356060608B8B8B8B8B358B60358B8B3535608B358B8B8B8B8B8B8B28E1E128BEE1E1E1E1E1E1E1E1E1E1E1E1E1E1E1E1E1E1E1E1E1E1E1E1E1E1E1E1E1E1E1E1E1E1E1E1E1E1E1E1E1E1E1E1E1E1E1E1E1E1E1E1E1E1E1E1E1E1E1E1E1E1E1E1E1E1BEE1E1E1E1E1E1BEBEE1E1E1E1E1E1E1E1
310
E1E1E1E1E1E1E1E1E1E1E1E1E1E1E1E1E1E1E1E1E1E1E1E1E1BEE1E1BEE1E1BEE1E1E1E2E1E1E1E2E2E1E1E2E2E2E2E1E2E2E2BEBEBEBEBEE1BEE1E1E1BEE1E1E1E1E1E1E1E1E1E1E1E1E1E1E1E1E1E1E1E1E1E1E1E1E1E1E1E1E1E1E1E1E1E1E1E1E1E1E1286035358BB68BB66060358B8BE1E1E1E1E1E1E1E1E1E1E1E1E1
310
E1E1E1E18B60356035603560353535603560608B8BB68BB68BB66035608B6060358B60B6608B8BB68B28E1E128BEE1E1E1E1E1E1E1E1E1E1E1E1E1E1E1E1E1E1E1E1E1E1E1E1E1E1E1E1E1E1E1E1E1E1E1E1E1E1E1E1E1E1E1E1E1E1E1E1E1E1E1E1E1E1E1E1E1E1E1E1E1E1E1E1E1E1BEE1E1E1E1E1E1BEBEE1E1E1E1E1E1
310
E1E1E1E1E1E1E1E1E1E1E1E1E1E1E1E1E1E1E1E1E1E1E1E1E1E1E1BEE1E1BEE1E1BEE1E1E1E2E1E1E1E1E2E1E1E2E1E1E2E1E2E1E2E1E1E1E1E1E1BEE1E1E1BEE1E1E1E1E1E1E1E1E1E1E1E1E1E1E1E1E1E1E1E1E1E1E1E1E1E1E1E1E1E1E1E1E1E1E1E1E1E1E1286060358B8B8B8B608B60356060B6E1E1E1E1E1E1E1E1E1
310
E1E1E1E1B66035356035356060353560356060608B8B8B8B8B8B8B8B60608B3560606035608B60358B8B8B28E1E128BEE1E1E1E1E1E1E1E1E1E1E1E1E1E1E1E1E1E1E1E1E1E1E1E1E1E1E1E1E1E1E1E1E1E1E1E1E1E1E1E1E1E1E1E1E1E1E1E1E1E1E1E1E1E1E1E1E1E1E1E1E1E1E1E1E1E1BEE1E1E1E1E1E1BEBEE1E1E1E1
310
E1E1E1E1E1E1E1E1E1E1E1E1E1E1E1E1E1E1E1E1E1E1E1E1E1E1E1E1E1BEE1E1BEE1E1BEE1E1E1E2E1E1E1E1E2E2E2E2E1E1E2E2E2BEE2BEBEBEBEBEBEBEBEE1E1BEE1E1E1E1E1E1E1E1E1E1E1E1E1E1E1E1E1E1E1E1E1E1E1E1E1E1E1E1E1E1E1E1E1E1E1E1E1E1E1286035358BB68B8B8BB68B8B3560608BB6E1E1E1E1E1
310
E1E1E1E1B68B35353535356060603560B6E135603560608B8B8B8BB68BB68BB68B8B356060600A35358B8BB66028E1E128BEE1E1E1E1E1E1E1E1E1E1E1E1E1E1E1E1E1E1E1E1E1E1E1E1E1E1E1E1E1E1E1E1E1E1E1E1E1E1E1E1E1E1E1E1E1E1E1E1E1E1E1E1E1E1E1E1E1E1E1E1E1E1E1E1E1E1BEE1E1E1E1E1E1BEBEE1E1
310
E1E1E1E1E1E1E1E1E1E1E1E1E1E1E1E1E1E1E1E1E1E1E1E1E1E1E1E1E1E1E1BEE1E1BEE1E1BEE1E1E1E2E2E2E2E1E1E1E1E1E1E1E1E1E2E2E2E1E1E1E1E1E1E1E1E1E1BEE1E1E1E1E1E1E1E1E1E1E1E1E1E1E1E1E1E1E1E1E1E1E1E1E1E1E1E1E1E1E1E1E1E1E1E1E1E1E1286060358B8B8B8B8B8B8B60608B6060608BE1E1
310
E1E1E1E1E18B60353535356060353535B6E1E1E1353560608B60608B8B8B8B8B8B8B8B60358B603560606035608B6028E1E128BEE1E1E1E1E1E1E1E1E1E1E1E1E1E1E1E1E1E1E1E1E1E1E1E1E1E1E1E1E1E1E1E1E1E1E1E1E1E1E1E1E1E1E1E1E1E1E1E1E1E1E1E1E1E1E1E1E1E1E1E1E1E1E1E1E1E1BEE1E1E1E1E1E1BEBE
310
E1E1E1E1E1E1E1E1E1E1E1E1E1E1E1E1E1E1E1E1E1E1E1E1E1E1E1E1E1E1E10F0FBEE1E1BEE10F0FE1E1E1E1E1E1E2E1E1E1E2E2E2E2E1E1E2E1E1E1E1E1E1E1E1E1E10F0FBEE1E1E1E1E1E1E1E1E1E1E1E1E1E1E1E1E1E1E1E1E1E1E1E1E1E1E1E1E1E1E1E1E1E1E1E1E1E1E128603535608B8BB68BB68BB68BB68A603560
310
60B6E1E1E1B63535356035603560356060E1E1E1E1E135603560608B8BB68B608BB68BB68BB68BB68B8B3560606035608B28E1E128BEE1E1E1E1E1E1E1E1E1E1E1E1E1E1E1E1E1E1E1E1E1E1E1E1E1E1E1E1E1E1E1E1E1E1E1E1E1E1E1E1E1E1E1E1E1E1E1E1E1E1E1E1E1E1E1E1E1E1E1E1E1E1E1E1E1E1BEE1E1E1E1E1E1
310
BEBEE1E1E1E1E1E1E1E1E1E1E1E1E1E1E1E1E1E1E1E1E1E1E1E1E1E1E1E1E1E1E10F0FBEE10F0FE10F0FE1E1BEBEBEBEE2BEBEE2BEBEBEE2BEBEE2BEE1E1E1E1E1E1E1E1E10F0FBEE1E1E1E1E1E1E1E1E1E1E1E1E1E1E1E1E1E1E1E1E1E1E1E1E1E1E1E1E1E1E1E1E1E1E1E1E1E1E12860603560358B8B8B8B8B8B8B8B8B35
310
8B606060608B6035353535356035353560B6E1E1E1E1E1E1356060608B8B8B8B8B358B8B8B8B8B8B8B8B8B608B60356060606028E1E128BEE1E1E1E1E1E1E1E1E1E1E1E1E1E1E1E1E1E1E1E1E1E1E1E1E1E1E1E1E1E1E1E1E1E1E1E1E1E1E1E1E1E1E1E1E1E1E1E1E1E1E1E1E1E1E1E1E1E1E1E1E1E1E1E1E1E1BEE1E1E1E1
310
E1E1BEBEE1E1E1E1E1E1E1E1E1E1E1E1E1E1E1E1E1E1E1E1E1E1E1E1E1E1E1E1E1E1E10F0FBEE10F0FE10F0FE1E1E1E1E1E1E2E1E1E1E2BEBEE2E1E1E2E1E1E1E1E1E1E1E1E1E10F0FBEE1E1E1E1E1E1E1E1E1E1E1E1E1E1E1E1E1E1E1E1E1E1E1E1E1E1E1E1E1E1E1E1E1E1E1E1E1E1E1286035358BB68BB660B68B8B8BB6
310
8B8B8BB660603560356035606060356035B6E1E1E1E1E1E1E1E135603560608B8BB68BB68B8B608B8BB68BB68B8B8BB66060358B6028E1E128BEE1E1E1E1E1E1E1E1E1E1E1E1E1E1E1E1E1E1E1E1E1E1E1E1E1E1E1E1E1E1E1E1E1E1E1E1E1E1E1E1E1E1E1E1E1E1E1E1E1E1E1E1E1E1E1E1E1E1E1E1E1E1E1E1E1E1BEE1E1
310
E1E1E1E1BE28E1E1E1E1E1E1E1E1E1E1E1E1E1E1E1E1E1E1E1E1E1E1E1E1E1E1E1E1E1E1E10F0FBEE1E1BEE1E1BEE1E1E1E2E2E2E2E1E1E1E2E2E2E1BEE1E2E2E2E1E1E1E1E1E1E1E1E10FBEE1E1E1E1E1E1E1E1E1E1E1E1E1E1E1E1E1E1E1E1E1E1E1E1E1E1E1E1E1E1E1E1E1E1E1E1E1E1E1286060358B8B8B8B608B8B8B
310
8B8B8B8B8B8B60608B35353560606035358BE1E1E1E1E1E1E1E1E1E1356060608B8B8B8B8B8B8B8B60608B8B8B8B8B8B8B8B8B358B356028E1E128BEE1E1E1E1E1E1E1E1E1E1E1E1E1E1E1E1E1E1E1E1E1E1E1E1E1E1E1E1E1E1E1E1E1E1E1E1E1E1E1E1E1E1E1E1E1E1E1E1E1E1E1E1E1E1E1E1E1E1E1E1E1E1E1E1E1E1BE
310
E1E1E1E1E1E1E128E1E1E1E1E1E1E1E1E1E1E1E1E1E1E1E1E1E1E1E1E1E1E1E1E1E1E1E1E1E1E1E1E1BEE1E1BEE1E1BEE1E1E1E2E1E1E1E1E1E1E1BEE1E1E1BEE1E1E2E1E1E1E1E1E1E1E1E1E1BEE1E1E1E1E1E1E1E1E1E1E1E1E1E1E1E1E1E1E1E1E1E1E1E1E1E1E1E1E1E1E1E1E1E1E1E1E1E1E1286035358BB68BB68BB6
310
8B8B60B68BB68BB68BB68B8B35603535358BE1E1E1E1E1E1E1E1E1E1E1E135600A35606060B68BB68BB68BB68B8B60B68BB68BB68BB68BB66028E1E128BEE1E1E1E1E1E1E1E1E1E1E1E1E1E1E1E1E1E1E1E1E1E1E1E1E1E1E1E1E1E1E1E1E1E1E1E1E1E1E1E1E1E1E1E1E1E1E1E1E1E1E1E1E1E1E1E1E1E1E1E1E1E1E1E1E1
310
E1BEE1E1E1E1E1E1E128E1E1E1E1E1E1E1E1E1E1E1E1E1E1E1E1E1E1E1E1E1E1E1E1E1E1E1E1E1E1E1E1E1BEE1E1BEE1E1BEE1E1E1E2E1E1E1E1E2E2E2E2E1E1E2E2E2BEE2E1E1E1E1E1E1E1E1E1E1BEE1E1E1E1E1E1E1E1E1E1E1E1E1E1E1E1E1E1E1E1E1E1E1E1E1E1E1E1E1E1E1E1E1E1E1E1E1E1E1286060358B8B8B8B
310
8B8B8B60608B8B8B8B8B8B8B8B60353535356060B6E1E1E1E1E1E1E1E1E1E1E1603535356060608B8B8B8B8B8B8B8B8B608B8B8B8B8B8B8B8B8B6028E1E128BEE1E1E1E1E1E1E1E1E1E1E1E1E1E1E1E1E1E1E1E1E1E1E1E1E1E1E1E1E1E1E1E1E1E1E1E1E1E1E1E1E1E1E1E1E1E1E1E1E1E1E1E1E1E1E1E1E1E1E1E1E1E1E1
310
E1E1E1BEE1E1E1E1E1E1E128E1E1E1E1E1E1E1E1E1E1E1E1E1E1E1E1E1E1E1E1E1E1E1E1E1E1E1E1E1E1E1E1E1BEE1E1BEE1E1BEE1E1E1E2E1E1E1E2E2E1E1E2E2E2E2E1E2E2E2E1E1E1E1E1E1E1E1E1E1BEE1E1E1E1E1E1E1E1E1E1E1E1E1E1E1E1E1E1E1E1E1E1E1E1E1E1E1E1E1E1E1E1E1E1E1E1E1E1E128603535608B
310
8B8B8BB68BB68BB68B608BB68BB68BB68B8B608B3560608BB6E1E1E1E1E1E1E1E1E1B6B68B603560608B60608BB68BB68B8B8BB68B608BB68B8B8BB68B28E1E128BEE1E1E1E1E1E1E1E1E1E1E1E1E1E1E1E1E1E1E1E1E1E1E1E1E1E1E1E1E1E1E1E1E1E1E1E1E1E1E1E1E1E1E1E1E1E1E1E1E1E1E1E1E1E1E1E1E1E1E1E1E1
310
E1E1E1E1E1BEE1E1E1E1E1E1E128E1E1E1E1E1E1E1E1E1E1E1E1E1E1E1E1E1E1E1E1E1E1E1E1E1E1E1E1E1E1E1E1E1BEE1E1BEE1E1BEBEE1E1E2E1E1E2E2E1E1E1BEE1E1E1E1E1E1BEBEBEE1E1E1E1E1E1E1E1BEE1E1E1E1E1E1E1E1E1E1E1E1E1E1E1E1E1E1E1E1E1E1E1E1E1E1E1E1E1E1E1E1E1E1E1E1E1E1E12860600A
310
60608B8B8B8B8B8B8B8B8B358B8B8B8B8B8B8B8B8B608B6060608BE1E1E1E1E1E1E1E1E1E1E1E1E16035606060608B8B8B8B8B8B8B8B8B608B8B8B8B8B8B8B28E1E128BEE1E1E1E1E1E1E1E1E1E1E1E1E1E1E1E1E1E1E1E1E1E1E1E1E1E1E1E1E1E1E1E1E1E1E1E1E1E1E1E1E1E1E1E1E1E1E1E1E1E1E1E1E1E1E1E1E1E1E1
310
E1E1E1E1E1E1E1BEE1E1E1E1E1E1E128E1E1E1E1E1E1E1E1E1E1E1E1E1E1E1E1E1E1E1E1E1E1E1E1E1E1E1E1E1E1E1E1E1BEE1E1BEE1E1BEBEE1E1E2E1E1E2E1E1E1E1BEBEBE0F0F0FBEBEE1E1BEBEBEBEE1E1E1E1BEE1E1E1E1E1E1E1E1E1E1E1E1E1E1E1E1E1E1E1E1E1E1E1E1E1E1E1E1E1E1E1E1E1E1E1E1E1E1E12860
310
3535606060B635B68BB68BB68BB68BB6608B8BB68BB68BB68BB6606060E1E1E1E1E1E1E1B660E1E1E1E1E1E16060606060B6608B8BB68BB68BB68BB6608B8BB68B28E1E128BEE1E1E1E1E1E1E1E1E1E1E1E1E1E1E1E1E1E1E1E1E1E1E1E1E1E1E1E1E1E1E1E1E1E1E1E1E1E1E1E1E1E1E1E1E1E1E1E1E1E1E1E1E1E1E1E1E1
310
E1E1E1E1E1E1E1E1E1BEE1E1E1E1E1E1E128E1E1E1E1E1E1E1E1E1E1E1E1E1E1E1E1E1E1E1E1E1E1E1E1E1E1E1E1E1E1E1E1E1BEE1E1BEE1E1BEBEBEBEE2BEBEE2BEBEE1E1BEE1E10F0F0FE1BEE1E1E10F0F0FE1E1E1E1BEE1E1E1E1E1E1E1E1E1E1E1E1E1E1E1E1E1E1E1E1E1E1E1E1E1E1E1E1E1E1E1E1E1E1E1E1E1E1E1
310
3560603560606035608B8B8B8B8B8B8B8B8B8B608B8B8B8B8B8B8B8B8B60B6E1E1E1E1E1E1603535E1E1E1E1E1E1E1B66035606060608B8B8B8B8B8B8B8B8B608B8B8B8BE1E128BEE1E1E1E1E1E1E1E1E1E1E1E1E1E1E1E1E1E1E1E1E1E1E1E1E1E1E1E1E1E1E1E1E1E1E1E1E1E1E1E1E1E1E1E1E1E1E1E1E1E1E1E1E1E1E1
310
E1E1E1E1E1E1E1E1E1E1E1BEE1E1E1E1E1E1E128E1E1E1E1E1E1E1E1E1E1E1E1E1E1E1E1E1E1E1E1E1E1E1E1E1E1E1E1E1E1E1E1E1BEE1E1BEE1E1E1E1E1E1E2E1E1E2E1E1E1E1E1E1E1E1E1E1E1E1E1E1E1E1E1E1E1E1E1E1BEE1E1E1E1E1E1E1E1E1E1E1E1E1E1E1E1E1E1E1E1E1E1E1E1E1E1E1E1E1E1E1E1E1E1E1E1E1
310
E1E1286035353560358B60608B6060B68BB68BB68B8B8B8B60B68BB68B8B8BB68BE1E1E1E18B0A3C0A35E1E1E1E1E1E1E1E1E1B6356060608B8B35B68B8B8BB68B8B8BB66028E1E128BEE1E1E1E1E1E1E1E1E1E1E1E1E1E1E1E1E1E1E1E1E1E1E1E1E1E1E1E1E1E1E1E1E1E1E1E1E1E1E1E1E1E1E1E1E1E1E1E1E1E1E1E1E1
310
E1E1E1E1E1E1E1E1E1E1E1E1E1BEE1E1E1E1E1E1E128E1E1E1E1E1E1E1E1E1E1E1E1E1E1E1E1E1E1E1E1E1E1E1E1E1E1E1E1E1E1E1E1E1BEE1E1BEE1E1E1E1E1E1E2E1E1E1E2E2E1E1E2E2E2E2E1E2E2E2E1E1E1E1E1E1E1E1E1E1BEE1E1E1E1E1E1E1E1E1E1E1E1E1E1E1E1E1E1E1E1E1E1E1E1E1E1E1E1E1E1E1E1E1E1E1
310
E1E1E1E1286060356060603560606060608B8B8B8B8B8B8B8B8B608B8B8B8B8B8B8BB6E1E18B353535353535E1E1E1E1E1E1E1E1E1E1E16035608B35608B8B8B8B8B8B8B8B8B6028E1E128BEE1E1E1E1E1E1E1E1E1E1E1E1E1E1E1E1E1E1E1E1E1E1E1E1E1E1E1E1E1E1E1E1E1E1E1E1E1E1E1E1E1E1E1E1E1E1E1E1E1E1E1
310
E1E1E1E1E1E1E1E1E1E1E1E1E1E1E1BEE1E1E1E1E1E1E128E1E1E1E1E1E1E1E1E1E1E1E1E1E1E1E1E1E1E1E1E1E1E1E1E1E1E1E1E1E1E1E1E1BEE1E1BEE1E1E1E1E1E1E2E1E1E1E1E2E2E2E2E1E1E2E2E2E1E2E1E1E1E1E1E1E1E1E1E1BEE1E1E1E1E1E1E1E1E1E1E1E1E1E1E1E1E1E1E1E1E1E1E1E1E1E1E1E1E1E1E1E1E1
310
E1E1E1E1E1E1286035353560606035606060358B60608BB68BB68BB68BB68B608BB68BB68BE13535353535603535E1E1E1E1E1E1E1E1E1E1E1E1B660358B608B8B608BB68BB68BB68B28E1E128BEE1E1E1E1E1E1E1E1E1E1E1E1E1E1E1E1E1E1E1E1E1E1E1E1E1E1E1E1E1E1E1E1E1E1E1E1E1E1E1E1E1E1E1E1E1E1E1E1E1
310
E1E1E1E1E1E1E1E1E1E1E1E1E1E1E1E1E1BEE1E1E1E1E1E1E128E1E1E1E1E1E1E1E1E1E1E1E1E1E1E1E1E1E1E1E1E1E1E1E1E1E1E1E1E1E1E1E1E1BEE1E1BEE1E1E1E1E1E1E2E1E1E1E1E1E1E1E1E1E1E1E1E1E1E2E1E1E1E1E1E1E1E1E1E1BEE1E1E1E1E1E1E1E1E1E1E1E1E1E1E1E1E1E1E1E1E1E1E1E1E1E1E1E1E1E1E1
310
E1E1E1E1E1E1E1E1286060358B608B608B353560606035608B8B8B8B8B8B8B8B8B608B8B8B8B35353C35356060353C35E1E1E1E1E1E1E1E1E1E1E1E1E1E1B660606060608B8B8B8B8B8B8B28E1E128BEE1E1E1E1E1E1E1E1E1E1E1E1E1E1E1E1E1E1E1E1E1E1E1E1E1E1E1E1E1E1E1E1E1E1E1E1E1E1E1E1E1E1E1E1E1E1E1
310
E1E1E1E1E1E1E1E1E1E1E1E1E1E1E1E1E1E1E1BEE1E1E1E1E1E1E128E1E1E1E1E1E1E1E1E1E1E1E1E1E1E1E1E1E1E1E1E1E1E1E1E1E1E1E1E1E1E1E1E1BEE1E1BEE1E1E1E1E1E1E2E1E1E1E1E2E2E1E1E1E1E2E2E1E1E2E1E1E1E1E1E1E1E1E1E1BEE1E1E1E1E1E1E1E1E1E1E1E1E1E1E1E1E1E1E1E1E1E1E1E1E1E1E1E1E1
310
E1E1E1E1E1E1E1E1E1E1286035358BB68B8B358B6060358B606035B6608B8BB68B8B8BB68B8B3535353B1060606035601135B6E1E1E1E1E1E1E1E1E1E1E1E1E1E1E16060603535B660608BB68B28E1E128BEE1E1E1E1E1E1E1E1E1E1E1E1E1E1E1E1E1E1E1E1E1E1E1E1E1E1E1E1E1E1E1E1E1E1E1E1E1E1E1E1E1E1E1E1E1
310
E1E1E1E1E1E1E1E1E1E1E1E1E1E1E1E1E1E1E1E1E1BEE1E1E1E1E1E1E128E1E1E1E1E1E1E1E1E1E1E1E1E1E1E1E1E1E1E1E1E1E1E1E1E1E1E1E1E1E1E1E1E1BEE1E1BEE1E1E1E1E1E1BEE2E1E1E1E2E2E2E2E2E2E2E2E1E1E2E1E1E1E1E1E1E1E1E1E1BEE1E1E1E1E1E1E1E1E1E1E1E1E1E1E1E1E1E1E1E1E1E1E1E1E1E1E1
310
E1E1E1E1E1E1E1E1E1E1E1E1286060358B8B8B8B608B8B6060606060606060608B8B8B8B8B8B670A35353535603C6035353560B6E1E1E1E1E1E1E1E1E1E1E1E1E1E1E1E1E1B63535356060608B8B8B28E1E128BEE1E1E1E1E1E1E1E1E1E1E1E1E1E1E1E1E1E1E1E1E1E1E1E1E1E1E1E1E1E1E1E1E1E1E1E1E1E1E1E1E1E1E1
310
E1E1E1E1E1E1E1E1E1E1E1E1E1E1E1E1E1E1E1E1E1E1E1BEE1E1E1E1E1E1E128E1E1E1E1E1E1E1E1E1E1E1E1E1E1E1E1E1E1E1E1E1E1E1E1E1E1E1E1E1E1E1E1E1BEE1BEBEBEBEBEBEBEBEBEBEE2E2E2E2E1E1E1E1E1E1E2E1E1E2E1E1E1E1E1E1E1E1E1E1BEE1E1E1E1E1E1E1E1E1E1E1E1E1E1E1E1E1E1E1E1E1E1E1E1E1
310
E1E1E1E1E1E1E1E1E1E1E1E1E1E1286035358BB68BB68BB68B60608B3560358B3535358B35B660350A60353C3C603560353535B6E1E1E1E1E1E1E1E1E1E1E1E1E1E1E1E1E1E1E1E18BE16060606060B63528E1E128BEE1E1E1E1E1E1E1E1E1E1E1E1E1E1E1E1E1E1E1E1E1E1E1E1E1E1E1E1E1E1E1E1E1E1E1E1E1E1E1E1E1
310
E1E1E1E1E1E1E1E1E1E1E1E1E1E1E1E1E1E1E1E1E1E1E1E1E1BEE1E1E1E1E1E1E128E1E1E1E1E1E1E1E1E1E1E1E1E1E1E1E1E1E1E1E1E1E1E1E1E1E1E1E1E1E1E1E1E1BEE1E1E1E1E1E1E1E1E1BEE1E1E1E1E1E1E1E1E1E1E1E2E1E1E2E1E1E1E1E1E1E1E1E1E1BEE1E1E1E1E1E1E1E1E1E1E1E1E1E1E1E1E1E1E1E1E1E1E1
310
E1E1E1E1E1E1E1E1E1E1E1E1E1E1E1E1286060358B8B8B8B8B8B8B8B8B8B6060350A3535350A356035353535603C3C3B3535358BE1E1E1E1E1E1E1E1E1E1E1E1E1E1E1E1E1E1E1E1E1E1E1E1E18B606060356028E1E128BEE1E1E1E1E1E1E1E1E1E1E1E1E1E1E1E1E1E1E1E1E1E1E1E1E1E1E1E1E1E1E1E1E1E1E1E1E1E1E1
310
E1E1E1E1E1E1E1E1E1E1E1E1E1E1E1E1E1E1E1E1E1E1E1E1E1E1E1BEE1E1E1E1E1E1E128E1E1E1E1E1E1E1E1E1E1E1E1E1E1E1E1E1E1E1E1E1E1E1E1E1E1E1E1E1E1E1E1E1BEE1E1E1E1E1E1E1E1E1BEE1E1E1E1E1E1E1E1E1E1E1E2E1E1E2E1E1E1E1E1E1E1E1E1E1BEE1E1E1E1E1E1E1E1E1E1E1E1E1E1E1E1E1E1E1E1E1
310
E1E1E1E1E1E1E1E1E1E1E1E1E1E1E1E1E1E128605F3535608BB68BB68B8B8BB660350A8BB6600A351160353B3560356035351160B6E1E1E1E1E1E1E1E1E1E1E1E1E1E1E1E1E1E1E1E1E1E1E1E1E1E1E1E18B358B6028E1E128BEE1E1E1E1E1E1E1E1E1E1E1E1E1E1E1E1E1E1E1E1E1E1E1E1E1E1E1E1E1E1E1E1E1E1E1E1E1
310
E1E1E1E1E1E1E1E1E1E1E1E1E1E1E1E1E1E1E1E1E1E1E1E1E1E1E1E1E1BEE1E1E1E1E1E1E128E1E1E1E1E1E1E1E1E1E1E1E1E1E1E1E1E1E1E1E1E1E1E1E1E1E1E1E1E1E1E1E1E1BEE1E1E1E1E1E1E1E1E1BEBEBEBEBEBEBE0F0F0FBEBEE2BEBEE2E1E1E1E1E1E1E1E1E1E1BEE1E1E1E1E1E1E1E1E1E1E1E1E1E1E1E1E1E1E1
310
E1E1E1E1E1E1E1E1E1E1E1E1E1E1E1E1E1E1E1E1286060358B608B8B8B8B8B8B8B353560B6603535353535353B6060353B353535B6E1E1E1E1E1E1E1E1E1E1E1E1E1E1E1E1E1E1E1E1E1E1E1E1E1E1E1E1E1E1E1E1606028E1E128BEE1E1E1E1E1E1E1E1E1E1E1E1E1E1E1E1E1E1E1E1E1E1E1E1E1E1E1E1E1E1E1E1E1E1E1
310
E1E1E1E1E1E1E1E1E1E1E1E1E1E1E1E1E1E1E1E1E1E1E1E1E1E1E1E1E1E1E1BEE1E1E1E1E1E1E128E1E1E1E1E1E1E1E1E1E1E1E1E1E1E1E1E1E1E1E1E1E1E1E1E1E1E1E1E1E1E1E1E1BEE1E1E1E1E1E1E1E1E1BEE1E1E1E1E1E10F0F0FE1E1E2E1E1E2E1E1E1E1E1E1E1E1E1E1BEE1E1E1E1E1E1E1E1E1E1E1E1E1E1E1E1E1
310
E1E1E1E1E1E1E1E1E1E1E1E1E1E1E1E1E1E1E1E1E1E1286035358BB68BB635B68B600A608BB63535356060600A603B60353C0A3560E1E1E1E1E1E1E1E1E1E1E1E1E1E1E1E1E1E1E1E1E1E1E1E1E1E1E1E1E1E1E1E1E1E1E1B628E1E128BEE1E1E1E1E1E1E1E1E1E1E1E1E1E1E1E1E1E1E1E1E1E1E1E1E1E1E1E1E1E1E1E1E1
310
E1E1E1E1E1E1E1E1E1E1E1E1E1E1E1E1E1E1E1E1E1E1E1E1E1E1E1E1E1E1E1E1E1BEE1E1E1E1E1E1E128E1E1E1E1E1E1E1E1E1E1E1E1E1E1E1E1E1E1E1E1E1E1E1E1E1E1E1E1E1E1E1E1E1BEE1E1E1E1E1E1E1E1E1E1E1E1E1E1E1E1E1E1E1E1E1E2E1E1E2E1E1E1E1E1E1E1E1E1E1BEE1E1E1E1E1E1E1E1E1E1E1E1E1E1E1
310
E1E1E1E1E1E1E1E1E1E1E1E1E1E1E1E1E1E1E1E1E1E1E1E1356060358B8B8B8B8B6035358BB6603560608B8B8B603B353C3535103560B6E1E1E1E1E1E1E1E1E1E1E1E1E1E1E1E1E1E1E1E1E1E1E1E1E1E1E1E1E1E1E1E1E1E1E1E1E1E1E128BEE1E1E1E1E1E1E1E1E1E1E1E1E1E1E1E1E1E1E1E1E1E1E1E1E1E1E1E1E1E1E1
310
E1E1E1E1E1E1E1E1E1E1E1E1E1E1E1E1E1E1E1E1E1E1E1E1E1E1E1E1E1E1E1E1E1E1E1BEE1E1E1E1E1E1E128E1E1E1E1E1E1E1E1E1E1E1E1E1E1E1E1E1E1E1E1E1E1E1E1E1E1E1E1E1E1E1E1E1BEE1E1E1E1E1E1E1E1E1E1E1E1E1E1E1E1E1BEBEBEBEE2BEBEE2BEBEBEE1E1E1E1E1E1E1BEE1E1E1E1E1E1E1E1E1E1E1E1E1
310
E1E1E1E1E1E1E1E1E1E1E1E1E1E1E1E1E1E1E1E1E1E1E1E1E1E1286035358BB68B8B0A3560B63535358B8BB68BB68B8B35350A353560606060E1E1E1E1E1E1E1E1E1E1E1E1E1E1E1E1E1E1E1E1E1E1E1E1E1E1E1E1E1E1E1E1E1E1E1E128E1E128BEE1E1E1E1E1E1E1E1E1E1E1E1E1E1E1E1E1E1E1E1E1E1E1E1E1E1E1E1E1
310
E1E1E1E1E1E1E1E1E1E1E1E1E1E1E1E1E1E1E1E1E1E1E1E1E1E1E1E1E1E1E1E1E1E1E1E1E1BEE1E1E1E1E1E1E128E1E1E1E1E1E1E1E1E1E1E1E1E1E1E1E1E1E1E1E1E1E1E1E1E1E1E1E1E1E1E1E1E1BEE1E1E1E1E1E1E1E1E1E1E1E1E1E1E1E1E1E10F0FE1E2E1E1E2E1E1E1E1E1E1E1E1E1E1BEE1E1E1E1E1E1E1E1E1E1E1
310
E1E1E1E1E1E1E1E1E1E1E1E1E1E1E1E1E1E1E1E1E1E1E1E1E1E1E1E1286060358B8B600A60B68B3535608B8B8B8B8B8B8B8B60353560603560608BE1E1E1E1E1E1E1E1E1E1E1E1E1E1E1E1E1E1E1E1E1E1E1E1E1E1E1E1E1E1E1E1E1E1E1E128E1E128BEE1E1E1E1E1E1E1E1E1E1E1E1E1E1E1E1E1E1E1E1E1E1E1E1E1E1E1
310
E1E1E1E1E1E1E1E1E1E1E1E1E1E1E1E1E1E1E1E1E1E1E1E1E1E1E1E1E1E1E1E1E1E1E1E1E1E1E1BEE1E1E1E1E1E1E128E1E1E1E1E1E1E1E1E1E1E1E1E1E1E1E1E1E1E1E1E1E1E1E1E1E1E1E1E1E1E1E1E1BEE1E1E1E1E1E1E1E1E1E1E1E1E1E1E1E1E1E10F0FE1E2E1E1E2E2E2E2BEBEBEBEBEBEBEBEE1E1E1E1E1E1E1E1E1
310
E1E1E1E1E1E1E1E1E1E1E1E1E1E1E1E1E1E1E1E1E1E1E1E1E1E1E1E1E1E128603535353535B68B60356060B660608BB68BB68BB68B8B8B60608B356060E1E1E1E1E1E1E1E1E1E1E1E1E1E1E1E1E1E1E1E1E1E1E1E1E1E1E1E1E1E1E1E1E1E1E1E128E1E128BEE1E1E1E1E1E1E1E1E1E1E1E1E1E1E1E1E1E1E1E1E1E1E1E1E1
310
E1E1E1E1E1E1E1E1E1E1E1E1E1E1E1E1E1E1E1E1E1E1E1E1E1E1E1E1E1E1E1E1E1E1E1E1E1E1E1E1E1BEE1E1E1E1E1E1E128E1E1E1E1E1E1E1E1E1E1E1E1E1E1E1E1E1E1E1E1E1E1E1E1E1E1E1E1E1E1E1E1E1BEE1E1E1E1E1E1E1E1E1E1E1E1E1E1E1E1E1E1E1E1E1E2E1E1BEE1E1E2E1E1E1E1E1E1E1E1E1E1E1E1E1E1E1
310
E1E1E1E1E1E1E1E1E1E1E1E1E1E1E1E1E1E1E1E1E1E1E1E1E1E1E1E1E1E1E1E12860600A358BB63535358B8B8B8B8B608B8B8B8B8B8B8B8B8B608B8B8B608BE1E1E1E1E1E1E1E1B6E1E1E1E1E1E1E1E1E1E1E1E1E1E1E1E1E1E1E1E1E1E1E1E1E1E1E128E1E128BEE1E1E1E1E1E1E1E1E1E1E1E1E1E1E1E1E1E1E1E1E1E1E1
310
E1E1E1E1E1E1E1E1E1E1E1E1E1E1E1E1E1E1E1E1E1E1E1E1E1E1E1E1E1E1E1E1E1E1E1E1E1E1E1E1E1E1E1BEE1E1E1E1E1E1E128E1E1E1E1E1E1E1E1E1E1E1E1E1E1E1E1E1E1E1E1E1E1E1E1E1E1E1E1E1E1E1E1E1BEE1E1E1E1E1E1E1E1E1E1E1E1E1E1E1E1E1E1E1E1E1E2E1E1BEE1E1E2E1E1E1E1E1E1E1E1E1E1E1E1E1
310
E1E1E1E1E1E1E1E1E1E1E1E1E1E1E1E1E1E1E1E1E1E1E1E1E1E1E1E1E1E1E1E1E1E1286035358B8B356035B68B8B8BB68BB68BB6608B8BB68BB68BB68B8B60608BE1E1E1E1B60A606035E1E1E1E1E1E1E1E1E1E1E1E1E1E1E1E1E1E1E1E1E1E1E1E1E1E1E128E1E128BEE1E1E1E1E1E1E1E1E1E1E1E1E1E1E1E1E1E1E1E1E1
310
E1E1E1E1E1E1E1E1E1E1E1E1E1E1E1E1E1E1E1E1E1E1E1E1E1E1E1E1E1E1E1E1E1E1E1E1E1E1E1E1E1E1E1E1E1BEE1E1E1E1E1E1E128E1E1E1E1E1E1E1E1E1E1E1E1E1E1E1E1E1E1E1E1E1E1E1E1E1E1E1E1E1E1E1E1E1BEE1E1E1E1E1E1E1E1E1E1E1E1E1E1E1E1E1BEBEBEBEE2E2E2E2E1E1E2E1E1E1E1E1E1E1E1E1E1E1
310
E1E1E1E1E1E1E1E1E1E1E1E1E1E1E1E1E1E1E1E1E1E1E1E1E1E1E1E1E1E1E1E1E1E1E1E128608B8B35353535608B8B8B8B8B8B8B8B8B8B8B8B8B8B8B8B8B8B8B8B60B6E1E1B6603560353535E1E1E1E1E1E1E1E1E1E1E1E1E1E1E1E1E1E1E1E1E1E1E1E1E1E1E128E1E128BEE1E1E1E1E1E1E1E1E1E1E1E1E1E1E1E1E1E1E1
310
E1E1E1E1E1E1E1E1E1E1E1E1E1E1E1E1E1E1E1E1E1E1E1E1E1E1E1E1E1E1E1E1E1E1E1E1E1E1E1E1E1E1E1E1E1E1E1BEE1E1E1E1E1E1E128E1E1E1E1E1E1E1E1E1E1E1E1E1E1E1E1E1E1E1E1E1E1E1E1E1E1E1E1E1E1E1E1E1BEE1E1E1E1E1E1E1E1E1E1E1E1E1E1E1E1E1BEBEE1E1E1E1E1E2E1E1E2E1E1E1E1E1E1E1E1E1
310
E1E1E1E1E1E1E1E1E1E1E1E1E1E1E1E1E1E1E1E1E1E1E1E1E1E1E1E1E1E1E1E1E1E1E1E1E1E128E1E1E1B68B358B35358B6060B68BB68BB68BB68B6035B68BB68BB68BB68BE16035358B35353560E1E1E1E1E1E1E1E1E1E1E1E1E1E1E1E1E1E1E1E1E1E1E1E1E1E1E128E1E128BEE1E1E1E1E1E1E1E1E1E1E1E1E1E1E1E1E1
310
E1E1E1E1E1E1E1E1E1E1E1E1E1E1E1E1E1E1E1E1E1E1E1E1E1E1E1E1E1E1E1E1E1E1E1E1E1E1E1E1E1E1E1E1E1E1E1E1E1BEE1E1E1E1E1E1E128E1E1E1E1E1E1E1E1E1E1E1E1E1E1E1E1E1E1E1E1E1E1E1E1E1E1E1E1E1E1E1E1E1BEE1E1E1E1E1E1E1E1E1E1E1E1E1E1E1E10F0FBEE1E1E1E1E1E2E1E1E2E1E1E1E1E1E1E1
310
E1E1E1E1E1E1E1E1E1E1E1E1E1E1E1E1E1E1E1E1E1E1E1E1E1E1E1E1E1E1E1E1E1E1E1E1E1E1E1E128E1E1E1E1E1B68B606035358B8B8B8B8B8B8B8B8B8B608B8B8B8B8B8B8B603535606035608BB6B6E1E1E1E1E1E1E1E1E1E1E1E1E1E1E1E1E1E1E1E1E1E1E1E1E1E1E128E1E128BEE1E1E1E1E1E1E1E1E1E1E1E1E1E1E1
310
E1E1E1E1E1E1E1E1E1E1E1E1E1E1E1E1E1E1E1E1E1E1E1E1E1E1E1E1E1E1E1E1E1E1E1E1E1E1E1E1E1E1E1E1E1E1E1E1E1E1E1BEE1E1E1E1E1E1E128E1E1E1E1E1E1E1E1E1E1E1E1E1E1E1E1E1E1E1E1E1E1E1E1E1E1E1E1E1E1E1E1E1BEE1E1E1E1E1E1E1E1E1E1E1E1E1E1E1E10F0FBEE1E1E1E1E1E2E1E1E2E1E1E1E1E1
310
E1E1E1E1E1E1E1E1E1E1E1E1E1E1E1E1E1E1E1E1E1E1E1E1E1E1E1E1E1E1E1E1E1E1E1E1E1E1E1E1E1E128E1E1E1E1E1E1E1B68B6060358B60358BB68BB68BB68B8B8B608BB6606035603560358B8BE1E1E1E1E1E1E1E1E1E1E1E1E1E1E1E1E1E1E1E1E1E1E1E1E1E1E1E1E1E128E1E128BEE1E1E1E1E1E1E1E1E1E1E1E1E1
310
E1E1E1E1E1E1E1E1E1E1E1E1E1E1E1E1E1E1E1E1E1E1E1E1E1E1E1E1E1E1E1E1E1E1E1E1E1E1E1E1E1E1E1E1E1E1E1E1E1E1E1E1E1BEE1E1E1E1E1E1E128E1E1E1E1E1E1E1E1E1E1E1E1E1E1E1E1E1E1E1E1E1E1E1E1E1E1E1E1E1E1E1E1E1BEE1E1E1E1E1E1E1E1E1E1E1E1E1E1E1E10F0FBEE1E1E1E1E1E2BEBEE2E1E1E1
310
E1E1E1E1E1E1E1E1E1E1E1E1E1E1E1E1E1E1E1E1E1E1E1E1E1E1E1E1E1E1E1E1E1E1E1E1E1E1E1E1E1E1E1E128E1E1E1E1E1E1E1E1E1E160606035608B8B8B8B8B8B8B8B8B8B8B3535356035358BB6B6E1E1E1E1E1E1E1E1E1E1E1E1E1E1E1E1E1E1E1E1E1E1E1E1E1E1E1E1E1E1E128E1E128BEE1E1E1E1E1E1E1E1E1E1E1
310
E1E1E1E1E1E1E1E1E1E1E1E1E1E1E1E1E1E1E1E1E1E1E1E1E1E1E1E1E1E1E1E1E1E1E1E1E1E1E1E1E1E1E1E1E1E1E1E1E1E1E1E1E1E1E1BEE1E1E1E1E1E1E128E1E1E1E1E1E1E1E1E1E1E1E1E1E1E1E1E1E1E1E1E1E1E1E1E1E1E1E1E1E1E1E1E1BEE1E1E1E1E1E1E1E1E1E1E1E1E1E1E1E1E1E1BEE1E1E1E1BEE2BEBEE2BE
310
BEE1E1E1E1E1E1E1E1E1E1E1E1E1E1E1E1E1E1E1E1E1E1E1E1E1E1E1E1E1E1E1E1E1E1E1E1E1E1E1E1E1E1E1E1E128E1E1E1E1E1E1E1E1E1E1B68B606060358B358B8BB68BB68B603560606035608BB6B6E1E1E1E1E1E1E1E1E1E1E1E1E1E1E1E1E1E1E1E1E1E1E1E1E1E1E1E1E1E1E1E128E1E128BEE1E1E1E1E1E1E1E1E1
310
E1E1E1E1E1E1E1E1E1E1E1E1E1E1E1E1E1E1E1E1E1E1E1E1E1E1E1E1E1E1E1E1E1E1E1E1E1E1E1E1E1E1E1E1E1E1E1E1E1E1E1E1E1E1E1E1E1BEE1E1E1E1E1E1E128E1E1E1E1E1E1E1E1E1E1E1E1E1E1E1E1E1E1E1E1E1E1E1E1E1E1E1E1E1E1E1E1BEBEE1E1E1E1E1E1E1E1E1E1E1E1E1E1E1E1E1BEBEE1E1E1E1E1E2BEBE
310
E2E1E1E1E1E1E1E1E1E1E1E1E1E1E1E1E1E1E1E1E1E1E1E1E1E1E1E1E1E1E1E1E1E1E1E1E1E1E1E1E1E1E1E1E1E1E1E128E1E1E1E1E1E1E1E1B66035E1E18B606035608B8B8B8B603535606035358B8BB6E1E1E1E1E1E1E1E1E1E1E1E1E1E1E1E1E1E1E1E1E1E1E1E1E1E1E1E1E1E1E1E1E1E128E1E128BEE1E1E1E1E1E1E1
310
E1E1E1E1E1E1E1E1E1E1E1E1E1E1E1E1E1E1E1E1E1E1E1E1E1E1E1E1E1E1E1E1E1E1E1E1E1E1E1E1E1E1E1E1E1E1E1E1E1E1E1E1E1E1E1E1E1E1E1BEE1E1E1E1E1E1E128E1E1E1E1E1E1E1E1E1E1E1E1E1E1E1E1E1E1E1E1E1E1E1E1E1E1E1E1E1E1E1E1BEBEBEBEBEBEBEBEBEBEBEBEBEBEBEBEBEBEBEBEBEBEBEBEBEBEE2
310
E2E2E2E1E1E1E1E1E1E1E1E1E1E1E1E1E1E1E1E1E1E1E1E1E1E1E1E1E1E1E1E1E1E1E1E1E1E1E1E1E1E1E1E1E1E1E1E1E1E128E1E1E1E1E1E1E1603C113CB6E1E1E16060603560603535358B3560608B60E1E1E1E1E1E1E1E1E1E1E1E1E1E1E1E1E1E1E1E1E1E1E1E1E1E1E1E1E1E1E1E1E1E1E1E128E1E128BEE1E1E1E1E1
310
E1E1E1E1E1E1E1E1E1E1E1E1E1E1E1E1E1E1E1E1E1E1E1E1E1E1E1E1E1E1E1E1E1E1E1E1E1E1E1E1E1E1E1E1E1E1E1E1E1E1E1E1E1E1E1E1E1E1E1E1E1BEE1E1E1E1E1E1E128E1E1E1E1E1E1E1E1E1E1E1E1E1E1E1E1E1E1E1E1E1E1E1E1E1E1E1E1E1E1E1E1E1E1E1E1E1E1E1E1E1E1E1E1E1E1E1E1E1E1E1E1E1E1E1E1E1
310
E1E1E1E1E1E1E1E1E1E1E1E1E1E1E1E1E1E1E1E1E1E1E1E1E1E1E1E1E1E1E1E1E1E1E1E1E1E1E1E1E1E1E1E1E1E1E1E1E1E1E1E128E1E1E1E1E18B353535358BE1E1E1E1E1B660603535356035358B8B8B8BB6E1E1E1E1E1E1E1E1E1E1E1E1E1E1E1E1E1E1E1E1E1E1E1E1E1E1E1E1E1E1E1E1E1E1E1E128E1E128BEE1E1E1
310
E1E1E1E1E1E1E1E1E1E1E1E1E1E1E1E1E1E1E1E1E1E1E1E1E1E1E1E1E1E1E1E1E1E1E1E1E1E1E1E1E1E1E1E1E1E1E1E1E1E1E1E1E1E1E1E1E1E1E1E1E1E1E1BEE1E1E1E1E1E1E128E1E1E1E1E1E1E1E1E1E1E1E1E1E1E1E1E1E1E1E1E1E1E1E1E1E1E1E1E1E1E1E1E1E1E1E1E1E1E1E1E1E1E1E1E1E1E1E1E1E1E1E1E1E1E1
310
E1E1E1E1E1E1E1E1E1E1E1E1E1E1E1E1E1E1E1E1E1E1E1E1E1E1E1E1E1E1E1E1E1E1E1E1E1E1E1E1E1E1E1E1E1E1E1E1E1E1E1E1E1E1E1E1E1E18B600A6035350AB6E1E1E1E1E1E1E1B6356035355F8B608B8BB68BE1E1E1E1E1E1E1E1E1E1E1E1E1E1E1E1E1E1E1E1E1E1E1E1E1E1E1E1E1E1E1E1E1E1E1E1E1E1E128BEE1
310
E1E1E1E1E1E1E1E1E1E1E1E1E1E1E1E1E1E1E1E1E1E1E1E1E1E1E1E1E1E1E1E1E1E1E1E1E1E1E1E1E1E1E1E1E1E1E1E1E1E1E1E1E1E1E1E1E1E1E1E1E1E1E1E1E1BEE1E1E1E1E1E1E128E1E1E1E1E1E1E1E1E1E1E1E1E1E1E1E1E1E1E1E1E1E1E1E1E1E1E1E1E1E1E1E1E1E1E1E1E1E1E1E1E1E1E1E1E1E1E1E1E1E1E1E1E1
310
E1E1E1E1E1E1E1E1E1E1E1E1E1E1E1E1E1E1E1E1E1E1E1E1E1E1E1E1E1E1E1E1E1E1E1E1E1E1E1E1E1E1E1E1E1E1E1E1E1E1E1E1E1E1E1E128E1B66035353B3C6035358BE1E1E1E1E1E1E1E1E160356060608B8B8B8BB6E1E1E1E1E1E1E1E1E1E1E1E1E1E1E1E1E1E1E1E1E1E1E1E1E1E1E1E1E1E1E1E1E1E1E1E128E1E128
310
BEE1E1E1E1E1E1E1E1E1E1E1E1E1E1E1E1E1E1E1E1E1E1E1E1E1E1E1E1E1E1E1E1E1E1E1E1E1E1E1E1E1E1E1E1E1E1E1E1E1E1E1E1E1E1E1E1E1E1E1E1E1E1E1E1E1E1BEE1E1E1E1E1E1E128E1E1E1E1E1E1E1E1E1E1E1E1E1E1E1E1E1E1E1E1E1E1E1E1E1E1E1E1E1E1E1E1E1E1E1E1E1E1E1E1E1E1E1E1E1E1E1E1E1E1E1
310
E1E1E1E1E1E1E1E1E1E1E1E1E1E1E1E1E1E1E1E1E1E1E1E1E1E1E1E1E1E1E1E1E1E1E1E1E1E1E1E1E1E1E1E1E1E1E1E1E1E1E1E1E1E1E1E1E1E1288B353535603C3C0A60358BE1E1E1E1E1E1E1E1E1E1B6606060358B60608BE1E1E1E1E1E1E1E1E1E1E1E1E1E1E1E1E1E1E1E1E1E1E1E1E1E1E1E1E1E1E1E1E1E1E1E128E1
310
E128BEE1E1E1E1E1E1E1E1E1E1E1E1E1E1E1E1E1E1E1E1E1E1E1E1E1E1E1E1E1E1E1E1E1E1E1E1E1E1E1E1E1E1E1E1E1E1E1E1E1E1E1E1E1E1E1E1E1E1E1E1E1E1E1E1E1E1BEE1E1E1E1E1E1E128E1E1E1E1E1E1E1E1E1E1E1E1E1E1E1E1E1E1E1E1E1E1E1E1E1E1E1E1E1E1E1E1E1E1E1E1E1E1E1E1E1E1E1E1E1E1E1E1E1
310
E1E1E1E1E1E1E1E1E1E1E1E1E1E1E1E1E1E1E1E1E1E1E1E1E1E1E1E1E1E1E1E1E1E1E1E1E1E1E1E1E1E1E1E1E1E1E1E1E1E1E1E1E1E1E1E1E1E1E1E128353C35603B35353535358BE1E1E1E1E1E1E1E1E1E1E1E1B6608B35358BB6E1E1E1E1E1E1E1E1E1E1E1E1E1E1E1E1E1E1E1E1E1E1E1E1E1E1E1E1E1E1E1E1E1E1E1E1
310
28E1E128BEE1E1E1E1E1E1E1E1E1E1E1E1E1E1E1E1E1E1E1E1E1E1E1E1E1E1E1E1E1E1E1E1E1E1E1E1E1E1E1E1E1E1E1E1E1E1E1E1E1E1E1E1E1E1E1E1E1E1E1E1E1E1E1E1E1E1BEE1E1E1E1E1E1E128E1E1E1E1E1E1E1E1E1E1E1E1E1E1E1E1E1E1E1E1E1E1E1E1E1E1E1E1E1E1E1E1E1E1E1E1E1E1E1E1E1E1E1E1E1E1E1
310
E1E1E1E1E1E1E1E1E1E1E1E1E1E1E1E1E1E1E1E1E1E1E1E1E1E1E1E1E1E1E1E1E1E1E1E1E1E1E1E1E1E1E1E1E1E1E1E1E1E1E1E1E1E1E1E1E1E1E1E1E1E128603B60353C3560603B10B6E1E1E1E1E1E1E1E1E1E1E1E1E1E18B60606060E1E1E1E1E1E1E1E1E1E1E1E1E1E1E1E1E1E1E1E1E1E1E1E1E1E1E1E1E1E1E1E1E1E1
310
E1E128E1E128BEE1E1E1E1E1E1E1E1E1E1E1E1E1E1E1E1E1E1E1E1E1E1E1E1E1E1E1E1E1E1E1E1E1E1E1E1E1E1E1E1E1E1E1E1E1E1E1E1E1E1E1E1E1E1E1E1E1E1E1E1E1E1E1E1E1E1BEE1E1E1E1E1E1E128E1E1E1E1E1E1E1E1E1E1E1E1E1E1E1E1E1E1E1E1E1E1E1E1E1E1E1E1E1E1E1E1E1E1E1E1E1E1E1E1E1E1E1E1E1
310
E1E1E1E1E1E1E1E1E1E1E1E1E1E1E1E1E1E1E1E1E1E1E1E1E1E1E1E1E1E1E1E1E1E1E1E1E1E1E1E1E1E1E1E1E1E1E1E1E1E1E1E1E1E1E1E1E1E1E1E1E1E1E1E1288435353C3560676660358BE1E1E1E1E1E1E1E1E1E1E1E1E1E1E1E18B608BE1E1E1E1E1E1E1E1E1E1E1E1E1E1E1E1E1E1E1E1E1E1E1E1E1E1E1E1E1E1E1E1
310
E1E1E1E128E1E128BEE1E1E1E1E1E1E1E1E1E1E1E1E1E1E1E1E1E1E1E1E1E1E1E1E1E1E1E1E1E1E1E1E1E1E1E1E1E1E1E1E1E1E1E1E1E1E1E1E1E1E1E1E1E1E1E1E1E1E1E1E1E1E1E1E1E1BEE1E1E1E1E1E1E128E1E1E1E1E1E1E1E1E1E1E1E1E1E1E1E1E1E1E1E1E1E1E1E1E1E1E1E1E1E1E1E1E1E1E1E1E1E1E1E1E1E1E1
310
E1E1E1E1E1E1E1E1E1E1E1E1E1E1E1E1E1E1E1E1E1E1E1E1E1E1E1E1E1E1E1E1E1E1E1E1E1E1E1E1E1E1E1E1E1E1E1E1E1E1E1E1E1E1E1E1E1E1E1E1E1E1E1E1E1E128E1593C3B8B60673B6035B6E1E1E1E1E1E1E1E1E1E1E1E1E1E1E1E1E1E18BE1E1E1E1E1E1E1E1E1E1E1E1E1E1E1E1E1E1E1E1E1E1E1E1E1E1E1E1E1E1
310
E1E1E1E1E1E128E1E128BEE1E1E1E1E1E1E1E1E1E1E1E1E1E1E1E1E1E1E1E1E1E1E1E1E1E1E1E1E1E1E1E1E1E1E1E1E1E1E1E1E1E1E1E1E1E1E1E1E1E1E1E1E1E1E1E1E1E1E1E1E1E1E1E1E1E1BEE1E1E1E1E1E1E128E1E1E1E1E1E1E1E1E1E1E1E1E1E1E1E1E1E1E1E1E1E1E1E1E1E1E1E1E1E1E1E1E1E1E1E1E1E1E1E1E1
310
E1E1E1E1E1E1E1E1E1E1E1E1E1E1E1E1E1E1E1E1E1E1E1E1E1E1E1E1E1E1E1E1E1E1E1E1E1E1E1E1E1E1E1E1E1E1E1E1E1E1E1E1E1E1E1E1E1E1E1E1E1E1E1E1E1E1E1E128DA60606660603B3B353560E1E1E1E1E1E1E1E1E1E1E1E1E1E1E1E1E1E1E1E1E1E1E1E1E1E1E1E1E1E1E1E1E1E1E1E1E1E1E1E1E1E1E1E1E1E1E1
310
E1E1E1E1E1E1E1E128E1E128BEE1E1E1E1E1E1E1E1E1E1E1E1E1E1E1E1E1E1E1E1E1E1E1E1E1E1E1E1E1E1E1E1E1E1E1E1E1E1E1E1E1E1E1E1E1E1E1E1E1E1E1E1E1E1E1E1E1E1E1E1E1E1E1E1E1E1BEE1E1E1E1E1E1E128E1E1E1E1E1E1E1E1E1E1E1E1E1E1E1E1E1E1E1E1E1E1E1E1E1E1E1E1E1E1E1E1E1E1E1E1E1E1E1
310
E1E1E1E1E1E1E1E1E1E1E1E1E1E1E1E1E1E1E1E1E1E1E1E1E1E1E1E1E1E1E1E1E1E1E1E1E1E1E1E1E1E1E1E1E1E1E1E1E1E1E1E1E1E1E1E1E1E1E1E1E1E1E1E1E1E1E1E1E1E128DA84673C60356035603535B6E1E1E1E1E1E1E1E1E1E1E1E1E1E1E1E1E1E1E1E1E1E1E1E1E1E1E1E1E1E1E1E1E1E1E1E1E1E1E1E1E1E1E1E1
310
E1E1E1E1E1E1E1E1E1E128E1E128BEE1E1E1E1E1E1E1E1E1E1E1E1E1E1E1E1E1E1E1E1E1E1E1E1E1E1E1E1E1E1E1E1E1E1E1E1E1E1E1E1E1E1E1E1E1E1E1E1E1E1E1E1E1E1E1E1E1E1E1E1E1E1E1E1E1E1BEE1E1E1E1E1E1E128E1E1E1E1E1E1E1E1E1E1E1E1E1E1E1E1E1E1E1E1E1E1E1E1E1E1E1E1E1E1E1E1E1E1E1E1E1
310
E1E1E1E1E1E1E1E1E1E1E1E1E1E1E1E1E1E1E1E1E1E1E1E1E1E1E1E1E1E1E1E1E1E1E1E1E1E1E1E1E1E1E1E1E1E1E1E1E1E1E1E1E1E1E1E1E1E1E1E1E1E1E1E1E1E1E1E1E1E1E1E128E1DAA83C353B3560353535E1E1E1E1E1E1E1E1E1E1E1E1E1E1E1E1E1E1E1E1E1E1E1E1E1E1E1E1E1E1E1E1E1E1E1E1E1E1E1E1E1E1E1
310
E1E1E1E1E1E1E1E1E1E1E1E128E1E128BEE1E1E1E1E1E1E1E1E1E1E1E1E1E1E1E1E1E1E1E1E1E1E1E1E1E1E1E1E1E1E1E1E1E1E1E1E1E1E1E1E1E1E1E1E1E1E1E1E1E1E1E1E1E1E1E1E1E1E1E1E1E1E1E1E1E1BEE1E1E1E1E1E1E128E1E1E1E1E1E1E1E1E1E1E1E1E1E1E1E1E1E1E1E1E1E1E1E1E1E1E1E1E1E1E1E1E1E1E1
310
E1E1E1E1E1E1E1E1E1E1E1E1E1E1E1E1E1E1E1E1E1E1E1E1E1E1E1E1E1E1E1E1E1E1E1E1E1E1E1E1E1E1E1E1E1E1E1E1E1E1E1E1E1E1E1E1E1E1E1E1E1E1E1E1E1E1E1E1E1E1E1E1E1E128E1E1E135603560356060E1E1E1E1E1E1E1E1E1E1E1E1E1E1E1E1E1E1E1E1E1E1E1E1E1E1E1E1E1E1E1E1E1E1E1E1E1E1E1E1E1E1
310
E1E1E1E1E1E1E1E1E1E1E1E1E1E128E1E128BEE1E1E1E1E1E1E1E1E1E1E1E1E1E1E1E1E1E1E1E1E1E1E1E1E1E1E1E1E1E1E1E1E1E1E1E1E1E1E1E1E1E1E1E1E1E1E1E1E1E1E1E1E1E1E1E1E1E1E1E1E1E1E1E1E1E1BEE1E1E1E1E1E1E128E1E1E1E1E1E1E1E1E1E1E1E1E1E1E1E1E1E1E1E1E1E1E1E1E1E1E1E1E1E1E1E1E1
310
E1E1E1E1E1E1E1E1E1E1E1E1E1E1E1E1E1E1E1E1E1E1E1E1E1E1E1E1E1E1E1E1E1E1E1E1E1E1E1E1E1E1E1E1E1E1E1E1E1E1E1E1E1E1E1E1E1E1E1E1E1E1E1E1E1E1E1E1E1E1E1E1E1E1E1E128E1E1E1845F353560B6E1E1E1E1E1E1E1E1E1E1E1E1E1E1E1E1E1E1E1E1E1E1E1E1E1E1E1E1E1E1E1E1E1E1E1E1E1E1E1E1E1
310
E1E1E1E1E1E1E1E1E1E1E1E1E1E1E1E128E1E128BEE1E1E1E1E1E1E1E1E1E1E1E1E1E1E1E1E1E1E1E1E1E1E1E1E1E1E1E1E1E1E1E1E1E1E1E1E1E1E1E1E1E1E1E1E1E1E1E1E1E1E1E1E1E1E1E1E1E1E1E1E1E1E1E1E1E1BEE1E1E1E1E1E1E128E1E1E1E1E1E1E1E1E1E1E1E1E1E1E1E1E1E1E1E1E1E1E1E1E1E1E1E1E1E1E1
310
E1E1E1E1E1E1E1E1E1E1E1E1E1E1E1E1E1E1E1E1E1E1E1E1E1E1E1E1E1E1E1E1E1E1E1E1E1E1E1E1E1E1E1E1E1E1E1E1E1E1E1E1E1E1E1E1E1E1E1E1E1E1E1E1E1E1E1E1E1E1E1E1E1E1E1E1E1E12828282828282828282828E12828282828282828282828282828E12828282828282828282828282828E128282828282828
310
28282828282828E12828282828282828282828E1E128BEE1E1E1E1E1E1E1E1E1E1E1E1E1E1E1E1E1E1E1E1E1E1E1E1E1E1E1E1E1E1E1E1E1E1E1E1E1E1E1E1E1E1E1E1E1E1E1E1E1E1E1E1E1E1E1E1E1E1E1E1E1E1E1E1E1E1BEE1E1E1E1E1E1E128E1E1E1E1E1E1E1E1E1E1E1E1E1E1E1E1E1E1E1E1E1E1E1E1E1E1E1E1E1
310
E1E1E1E1E1E1E1E1E1E1E1E1E1E1E1E1E1E1E1E1E1E1E1E1E1E1E1E1E1E1E1E1E1E1E1E1E1E1E1E1E1E1E1E1E1E1E1E1E1E1E1E1E1E1E1E1E1E1E1E1E1E1E1E1E1E1E1E1E1E1E1E1E1E1E1E1E1E1E1E1E1E1E1E1E1E1E1E1E1E1E1E1E1E1E1E1E1E1E1E1E1E1E1E1E1E1E1E1E1E1E1E1E1E1E1E1E1E1E1E1E1E1E1E1E1E1E1
310
E1E1E1E1E1E1E1E1E1E1E1E1E1E1E1E1E1E1E1E1E1E1E128BEE1E1E1E1E1E1E1E1E1E1E1E1E1E1E1E1E1E1E1E1E1E1E1E1E1E1E1E1E1E1E1E1E1E1E1E1E1E1E1E1E1E1E1E1E1E1E1E1E1E1E1E1E1E1E1E1E1E1E1E1E1E1E1E1E1E1BEE1E1E1E1E1E1E128282828282828282828282828282828282828282828282828282828
310
28282828282828282828282828282828282828282828282828282828282828282828282828282828282828282828282828282828282828282828282828282828282828282828282828282828282828282828282828282828282828282828282828282828282828282828282828282828282828282828282828282828282828
310
2828282828282828282828282828282828282828282828282828BEE1E1E1E1E1E1E1E1E1E1E1E1E1E1E1E1E1E1E1E1E1E1E1E1E1E1E1E1E1E1E1E1E1E1E1E1E1E1E1E1E1E1E1E1E1E1E1E1E1E1E1E1E1E1E1E1E1E1E1E1E1E1E1E1E1E1BEE1E1E1E1E1E1E1E1E1E1E1E1E1E1E1E1E1E1E1E1E1E1E1E1E1E1E1E1E1E1E1E1E1
310
E1E1E1E1E1E1E1E1E1E1E1E1E1E1E1E1E1E1E1E1E1E1BEE1E1E1E1E1E1E1E1E1E1E1E1E1E1E1E1E1E1E1E1E1E1E1E1E1E1E1E1E1E1E1E1E1E1E1E1E1E1E1E1E1E1E1E1E1E1E1BEE1E1E1E1E1E1E1E1E1E1E1E1E1E1E1E1E1E1E1E1E1E1E1E1E1E1E1E1E1E1E1E1E1E1E1E1E1E1E1E1E1E1E1E1E1E1E1E1E1E1E1E1E1E1E1E1
310
E1E1E1E1E1E1E1E1E1E1E1E1E1E1E1E1E1E1E1E1E1E1E1E1E1E1E1E1BEE1E1E1E1E1E1E1E1E1E1E1E1E1E1E1E1E1E1E1E1E1E1E1E1E1E1E1E1E1E1E1E1E1E1E1E1E1E1E1E1E1E1E1E1E1E1E1E1E1E1E1E1E1E1E1E1E1E1E1E1E1E1E1E1E1E1BEBEBEBEBEBEBEBEBEBEBEBEBEBEBEBEBEBEBEBEBEBEBEBEBEBEBEBEBEBEBEBE
310
BEBEBEBEBEBEBEBEBEBEBEBEBEBEBEBEBEBEBEBEBEBEBEBEBEBEBEBEBEBEBEBEBEBEBEBEBEBEBEBEBEBEBEBEBEBEBEBEBEBEBEBEBEBEBEBEBEBEBEBEBEBEBEBEBEBEBEBEBEBEBEBEBEBEBEBEBEBEBEBEBEBEBEBEBEBEBEBEBEBEBEBEBEBEBEBEBEBEBEBEBEBEBEBEBEBEBEBEBEBEBEBEBEBEBEBEBEBEBEBEBEBEBEBEBEBEBE
310
BEBEBEBEBEBEBEBEBEBEBEBEBEBEBEBEBEBEBEBEBEBEBEBEBEBEBEBEBEBEBEE1E1E1E1E1E1E1E1E1E1E1E1E1E1E1E1E1E1E1E1E1E1E1E1E1E1E1E1E1E1E1E1E1
  0
XRECORD
  5
8FE
102
{ACAD_REACTORS
330
367
102
}
330
367
100
AcDbXrecord
280
     1
102
MATERIAL
148
0.0
149
0.0
149
0.0
 93
        0
 94
      127
282
     0
 72
     0
 77
     0
171
     0
175
     0
179
     0
273
     0
  0
XRECORD
  5
369
102
{ACAD_REACTORS
330
367
102
}
330
367
100
AcDbXrecord
280
     1
270
     1
271
     1
  0
XRECORD
  5
368
102
{ACAD_REACTORS
330
367
102
}
330
367
100
AcDbXrecord
280
     1
270
     1
271
     1
  0
XRECORD
  5
36C
102
{ACAD_REACTORS
330
367
102
}
330
367
100
AcDbXrecord
280
     1
270
     1
271
     1
  0
XRECORD
  5
36B
102
{ACAD_REACTORS
330
367
102
}
330
367
100
AcDbXrecord
280
     1
270
     1
271
     1
  0
XRECORD
  5
36D
102
{ACAD_REACTORS
330
367
102
}
330
367
100
AcDbXrecord
280
     1
270
     1
271
     1
  0
XRECORD
  5
36A
102
{ACAD_REACTORS
330
367
102
}
330
367
100
AcDbXrecord
280
     1
270
     1
271
     1
  0
XRECORD
  5
8FD
102
{ACAD_REACTORS
330
35F
102
}
330
35F
100
AcDbXrecord
280
     1
102
MATERIAL
148
0.0
149
0.0
149
0.0
 93
        0
 94
      127
282
     0
 72
     0
 77
     0
171
     0
175
     0
179
     0
273
     0
  0
XRECORD
  5
361
102
{ACAD_REACTORS
330
35F
102
}
330
35F
100
AcDbXrecord
280
     1
270
     1
271
     1
  0
XRECORD
  5
360
102
{ACAD_REACTORS
330
35F
102
}
330
35F
100
AcDbXrecord
280
     1
270
     1
271
     1
  0
XRECORD
  5
364
102
{ACAD_REACTORS
330
35F
102
}
330
35F
100
AcDbXrecord
280
     1
270
     1
271
     1
  0
XRECORD
  5
363
102
{ACAD_REACTORS
330
35F
102
}
330
35F
100
AcDbXrecord
280
     1
270
     1
271
     1
  0
XRECORD
  5
365
102
{ACAD_REACTORS
330
35F
102
}
330
35F
100
AcDbXrecord
280
     1
270
     1
271
     1
  0
XRECORD
  5
362
102
{ACAD_REACTORS
330
35F
102
}
330
35F
100
AcDbXrecord
280
     1
270
     1
271
     1
  0
XRECORD
  5
8FF
102
{ACAD_REACTORS
330
36F
102
}
330
36F
100
AcDbXrecord
280
     1
102
MATERIAL
148
0.0
149
0.0
149
0.0
 93
        0
 94
      127
282
     0
 72
     0
 77
     0
171
     0
175
     0
179
     0
273
     0
  0
XRECORD
  5
371
102
{ACAD_REACTORS
330
36F
102
}
330
36F
100
AcDbXrecord
280
     1
270
     1
271
     1
  0
XRECORD
  5
370
102
{ACAD_REACTORS
330
36F
102
}
330
36F
100
AcDbXrecord
280
     1
270
     1
271
     1
  0
XRECORD
  5
374
102
{ACAD_REACTORS
330
36F
102
}
330
36F
100
AcDbXrecord
280
     1
270
     1
271
     1
  0
XRECORD
  5
373
102
{ACAD_REACTORS
330
36F
102
}
330
36F
100
AcDbXrecord
280
     1
270
     1
271
     1
  0
XRECORD
  5
375
102
{ACAD_REACTORS
330
36F
102
}
330
36F
100
AcDbXrecord
280
     1
270
     1
271
     1
  0
XRECORD
  5
372
102
{ACAD_REACTORS
330
36F
102
}
330
36F
100
AcDbXrecord
280
     1
270
     1
271
     1
  0
CELLSTYLEMAP
  5
8F8
102
{ACAD_REACTORS
330
48F
102
}
330
48F
100
AcDbCellStyleMap
 90
        3
300
CELLSTYLE
  1
TABLEFORMAT_BEGIN
 90
        5
170
     1
 91
        0
 92
    32768
 62
   257
 93
        1
300
CONTENTFORMAT
  1
CONTENTFORMAT_BEGIN
 90
        0
 91
        0
 92
      512
 93
        0
300

 40
0.0
140
1.0
 94
        5
 62
     0
340
F
144
6.0
309
CONTENTFORMAT_END
171
     1
301
MARGIN
  1
CELLMARGIN_BEGIN
 40
1.5
 40
1.5
 40
1.5
 40
1.5
 40
4.5
 40
4.5
309
CELLMARGIN_END
 94
        6
 95
        1
302
GRIDFORMAT
  1
GRIDFORMAT_BEGIN
 90
        0
 91
        1
 62
     0
 92
       -2
340
0
 93
        0
 40
1.125
309
GRIDFORMAT_END
 95
        2
302
GRIDFORMAT
  1
GRIDFORMAT_BEGIN
 90
        0
 91
        1
 62
     0
 92
       -2
340
0
 93
        0
 40
1.125
309
GRIDFORMAT_END
 95
        4
302
GRIDFORMAT
  1
GRIDFORMAT_BEGIN
 90
        0
 91
        1
 62
     0
 92
       -2
340
0
 93
        0
 40
1.125
309
GRIDFORMAT_END
 95
        8
302
GRIDFORMAT
  1
GRIDFORMAT_BEGIN
 90
        0
 91
        1
 62
     0
 92
       -2
340
0
 93
        0
 40
1.125
309
GRIDFORMAT_END
 95
       16
302
GRIDFORMAT
  1
GRIDFORMAT_BEGIN
 90
        0
 91
        1
 62
     0
 92
       -2
340
0
 93
        0
 40
1.125
309
GRIDFORMAT_END
 95
       32
302
GRIDFORMAT
  1
GRIDFORMAT_BEGIN
 90
        0
 91
        1
 62
     0
 92
       -2
340
0
 93
        0
 40
1.125
309
GRIDFORMAT_END
309
TABLEFORMAT_END
  1
CELLSTYLE_BEGIN
 90
        1
 91
        1
300
_TITLE
309
CELLSTYLE_END
300
CELLSTYLE
  1
TABLEFORMAT_BEGIN
 90
        5
170
     1
 91
        0
 92
        0
 62
   257
 93
        1
300
CONTENTFORMAT
  1
CONTENTFORMAT_BEGIN
 90
        0
 91
        0
 92
      512
 93
        0
300

 40
0.0
140
1.0
 94
        5
 62
     0
340
F
144
4.5
309
CONTENTFORMAT_END
171
     1
301
MARGIN
  1
CELLMARGIN_BEGIN
 40
1.5
 40
1.5
 40
1.5
 40
1.5
 40
4.5
 40
4.5
309
CELLMARGIN_END
 94
        6
 95
        1
302
GRIDFORMAT
  1
GRIDFORMAT_BEGIN
 90
        0
 91
        1
 62
     0
 92
       -2
340
0
 93
        0
 40
1.125
309
GRIDFORMAT_END
 95
        2
302
GRIDFORMAT
  1
GRIDFORMAT_BEGIN
 90
        0
 91
        1
 62
     0
 92
       -2
340
0
 93
        0
 40
1.125
309
GRIDFORMAT_END
 95
        4
302
GRIDFORMAT
  1
GRIDFORMAT_BEGIN
 90
        0
 91
        1
 62
     0
 92
       -2
340
0
 93
        0
 40
1.125
309
GRIDFORMAT_END
 95
        8
302
GRIDFORMAT
  1
GRIDFORMAT_BEGIN
 90
        0
 91
        1
 62
     0
 92
       -2
340
0
 93
        0
 40
1.125
309
GRIDFORMAT_END
 95
       16
302
GRIDFORMAT
  1
GRIDFORMAT_BEGIN
 90
        0
 91
        1
 62
     0
 92
       -2
340
0
 93
        0
 40
1.125
309
GRIDFORMAT_END
 95
       32
302
GRIDFORMAT
  1
GRIDFORMAT_BEGIN
 90
        0
 91
        1
 62
     0
 92
       -2
340
0
 93
        0
 40
1.125
309
GRIDFORMAT_END
309
TABLEFORMAT_END
  1
CELLSTYLE_BEGIN
 90
        2
 91
        1
300
_HEADER
309
CELLSTYLE_END
300
CELLSTYLE
  1
TABLEFORMAT_BEGIN
 90
        5
170
     1
 91
        0
 92
        0
 62
   257
 93
        1
300
CONTENTFORMAT
  1
CONTENTFORMAT_BEGIN
 90
        0
 91
        0
 92
      512
 93
        0
300

 40
0.0
140
1.0
 94
        2
 62
     0
340
F
144
4.5
309
CONTENTFORMAT_END
171
     1
301
MARGIN
  1
CELLMARGIN_BEGIN
 40
1.5
 40
1.5
 40
1.5
 40
1.5
 40
4.5
 40
4.5
309
CELLMARGIN_END
 94
        6
 95
        1
302
GRIDFORMAT
  1
GRIDFORMAT_BEGIN
 90
        0
 91
        1
 62
     0
 92
       -2
340
0
 93
        0
 40
1.125
309
GRIDFORMAT_END
 95
        2
302
GRIDFORMAT
  1
GRIDFORMAT_BEGIN
 90
        0
 91
        1
 62
     0
 92
       -2
340
0
 93
        0
 40
1.125
309
GRIDFORMAT_END
 95
        4
302
GRIDFORMAT
  1
GRIDFORMAT_BEGIN
 90
        0
 91
        1
 62
     0
 92
       -2
340
0
 93
        0
 40
1.125
309
GRIDFORMAT_END
 95
        8
302
GRIDFORMAT
  1
GRIDFORMAT_BEGIN
 90
        0
 91
        1
 62
     0
 92
       -2
340
0
 93
        0
 40
1.125
309
GRIDFORMAT_END
 95
       16
302
GRIDFORMAT
  1
GRIDFORMAT_BEGIN
 90
        0
 91
        1
 62
     0
 92
       -2
340
0
 93
        0
 40
1.125
309
GRIDFORMAT_END
 95
       32
302
GRIDFORMAT
  1
GRIDFORMAT_BEGIN
 90
        0
 91
        1
 62
     0
 92
       -2
340
0
 93
        0
 40
1.125
309
GRIDFORMAT_END
309
TABLEFORMAT_END
  1
CELLSTYLE_BEGIN
 90
        3
 91
        2
300
_DATA
309
CELLSTYLE_END
  0
XRECORD
  5
926
102
{ACAD_REACTORS
330
48F
102
}
330
48F
100
AcDbXrecord
280
     1
102
ACAD_ROUNDTRIP_PRE2007_TABLESTYLE
 90
      512
 91
        0
  1

 92
      512
 93
        0
  2

 94
      512
 95
        0
  3

  0
XRECORD
  5
90B
102
{ACAD_REACTORS
330
90A
102
}
330
90A
100
AcDbXrecord
280
     1
102
RTVSPropertyOp0
 70
     1
102
RTVSPropertyOp1
 70
     1
102
RTVSPropertyOp2
 70
     1
102
RTVSPropertyOp3
 70
     1
102
RTVSPropertyOp4
 70
     1
102
RTVSPropertyOp5
 70
     1
102
RTVSPropertyOp6
 70
     1
102
RTVSPropertyOp7
 70
     1
102
RTVSPropertyOp8
 70
     1
102
RTVSPropertyOp9
 70
     1
102
RTVSPropertyOp10
 70
     1
102
RTVSPropertyOp11
 70
     1
102
RTVSPropertyOp12
 70
     1
102
RTVSPropertyOp13
 70
     1
102
RTVSPropertyOp14
 70
     1
102
RTVSPropertyOp15
 70
     1
102
RTVSPropertyOp16
 70
     1
102
RTVSPropertyOp17
 70
     1
102
RTVSPropertyOp18
 70
     1
102
RTVSPropertyOp19
 70
     1
102
RTVSPropertyOp20
 70
     1
102
RTVSPropertyOp21
 70
     1
102
RTVSPropertyOp22
 70
     1
102
RTVSPropertyOp23
 70
     1
102
RTVSPropertyOp24
 70
     1
102
RTVSPropertyOp25
 70
     1
102
RTVSPropertyOp26
 70
     1
102
RTVSPropertyOp27
 70
     1
  0
XRECORD
  5
90F
102
{ACAD_REACTORS
330
90E
102
}
330
90E
100
AcDbXrecord
280
     1
102
RTVSPropertyOp0
 70
     1
102
RTVSPropertyOp1
 70
     1
102
RTVSPropertyOp2
 70
     1
102
RTVSPropertyOp3
 70
     1
102
RTVSPropertyOp4
 70
     1
102
RTVSPropertyOp5
 70
     1
102
RTVSPropertyOp6
 70
     1
102
RTVSPropertyOp7
 70
     1
102
RTVSPropertyOp8
 70
     1
102
RTVSPropertyOp9
 70
     1
102
RTVSPropertyOp10
 70
     1
102
RTVSPropertyOp11
 70
     1
102
RTVSPropertyOp12
 70
     1
102
RTVSPropertyOp13
 70
     1
102
RTVSPropertyOp14
 70
     1
102
RTVSPropertyOp15
 70
     1
102
RTVSPropertyOp16
 70
     1
102
RTVSPropertyOp17
 70
     1
102
RTVSPropertyOp18
 70
     1
102
RTVSPropertyOp19
 70
     1
102
RTVSPropertyOp20
 70
     1
102
RTVSPropertyOp21
 70
     1
102
RTVSPropertyOp22
 70
     1
102
RTVSPropertyOp23
 70
     1
102
RTVSPropertyOp24
 70
     1
102
RTVSPropertyOp25
 70
     1
102
RTVSPropertyOp26
 70
     1
102
RTVSPropertyOp27
 70
     1
  0
XRECORD
  5
90D
102
{ACAD_REACTORS
330
90C
102
}
330
90C
100
AcDbXrecord
280
     1
102
RTVSPropertyOp0
 70
     1
102
RTVSPropertyOp1
 70
     1
102
RTVSPropertyOp2
 70
     1
102
RTVSPropertyOp3
 70
     1
102
RTVSPropertyOp4
 70
     1
102
RTVSPropertyOp5
 70
     1
102
RTVSPropertyOp6
 70
     1
102
RTVSPropertyOp7
 70
     1
102
RTVSPropertyOp8
 70
     1
102
RTVSPropertyOp9
 70
     1
102
RTVSPropertyOp10
 70
     1
102
RTVSPropertyOp11
 70
     1
102
RTVSPropertyOp12
 70
     1
102
RTVSPropertyOp13
 70
     1
102
RTVSPropertyOp14
 70
     1
102
RTVSPropertyOp15
 70
     1
102
RTVSPropertyOp16
 70
     1
102
RTVSPropertyOp17
 70
     1
102
RTVSPropertyOp18
 70
     1
102
RTVSPropertyOp19
 70
     1
102
RTVSPropertyOp20
 70
     1
102
RTVSPropertyOp21
 70
     1
102
RTVSPropertyOp22
 70
     1
102
RTVSPropertyOp23
 70
     1
102
RTVSPropertyOp24
 70
     1
102
RTVSPropertyOp25
 70
     1
102
RTVSPropertyOp26
 70
     1
102
RTVSPropertyOp27
 70
     1
  0
XRECORD
  5
909
102
{ACAD_REACTORS
330
908
102
}
330
908
100
AcDbXrecord
280
     1
102
RTVSPropertyOp0
 70
     1
102
RTVSPropertyOp1
 70
     1
102
RTVSPropertyOp2
 70
     1
102
RTVSPropertyOp3
 70
     1
102
RTVSPropertyOp4
 70
     1
102
RTVSPropertyOp5
 70
     1
102
RTVSPropertyOp6
 70
     1
102
RTVSPropertyOp7
 70
     1
102
RTVSPropertyOp8
 70
     1
102
RTVSPropertyOp9
 70
     1
102
RTVSPropertyOp10
 70
     1
102
RTVSPropertyOp11
 70
     1
102
RTVSPropertyOp12
 70
     1
102
RTVSPropertyOp13
 70
     1
102
RTVSPropertyOp14
 70
     1
102
RTVSPropertyOp15
 70
     1
102
RTVSPropertyOp16
 70
     1
102
RTVSPropertyOp17
 70
     1
102
RTVSPropertyOp18
 70
     1
102
RTVSPropertyOp19
 70
     1
102
RTVSPropertyOp20
 70
     1
102
RTVSPropertyOp21
 70
     1
102
RTVSPropertyOp22
 70
     1
102
RTVSPropertyOp23
 70
     1
102
RTVSPropertyOp24
 70
     1
102
RTVSPropertyOp25
 70
     1
102
RTVSPropertyOp26
 70
     1
102
RTVSPropertyOp27
 70
     1
  0
XRECORD
  5
917
102
{ACAD_REACTORS
330
916
102
}
330
916
100
AcDbXrecord
280
     1
102
RTVSPropertyOp0
 70
     1
102
RTVSPropertyOp1
 70
     1
102
RTVSPropertyOp2
 70
     1
102
RTVSPropertyOp3
 70
     1
102
RTVSPropertyOp4
 70
     1
102
RTVSPropertyOp5
 70
     1
102
RTVSPropertyOp6
 70
     1
102
RTVSPropertyOp7
 70
     1
102
RTVSPropertyOp8
 70
     1
102
RTVSPropertyOp9
 70
     1
102
RTVSPropertyOp10
 70
     1
102
RTVSPropertyOp11
 70
     1
102
RTVSPropertyOp12
 70
     1
102
RTVSPropertyOp13
 70
     1
102
RTVSPropertyOp14
 70
     1
102
RTVSPropertyOp15
 70
     1
102
RTVSPropertyOp16
 70
     1
102
RTVSPropertyOp17
 70
     1
102
RTVSPropertyOp18
 70
     1
102
RTVSPropertyOp19
 70
     1
102
RTVSPropertyOp20
 70
     1
102
RTVSPropertyOp21
 70
     1
102
RTVSPropertyOp22
 70
     1
102
RTVSPropertyOp23
 70
     1
102
RTVSPropertyOp24
 70
     1
102
RTVSPropertyOp25
 70
     1
102
RTVSPropertyOp26
 70
     1
102
RTVSPropertyOp27
 70
     1
  0
XRECORD
  5
91F
102
{ACAD_REACTORS
330
91E
102
}
330
91E
100
AcDbXrecord
280
     1
102
RTVSPropertyOp0
 70
     1
102
RTVSPropertyOp1
 70
     1
102
RTVSPropertyOp2
 70
     1
102
RTVSPropertyOp3
 70
     1
102
RTVSPropertyOp4
 70
     1
102
RTVSPropertyOp5
 70
     1
102
RTVSPropertyOp6
 70
     1
102
RTVSPropertyOp7
 70
     1
102
RTVSPropertyOp8
 70
     1
102
RTVSPropertyOp9
 70
     1
102
RTVSPropertyOp10
 70
     1
102
RTVSPropertyOp11
 70
     1
102
RTVSPropertyOp12
 70
     1
102
RTVSPropertyOp13
 70
     1
102
RTVSPropertyOp14
 70
     1
102
RTVSPropertyOp15
 70
     1
102
RTVSPropertyOp16
 70
     1
102
RTVSPropertyOp17
 70
     1
102
RTVSPropertyOp18
 70
     1
102
RTVSPropertyOp19
 70
     1
102
RTVSPropertyOp20
 70
     1
102
RTVSPropertyOp21
 70
     1
102
RTVSPropertyOp22
 70
     1
102
RTVSPropertyOp23
 70
     1
102
RTVSPropertyOp24
 70
     1
102
RTVSPropertyOp25
 70
     1
102
RTVSPropertyOp26
 70
     1
102
RTVSPropertyOp27
 70
     1
  0
XRECORD
  5
911
102
{ACAD_REACTORS
330
910
102
}
330
910
100
AcDbXrecord
280
     1
102
RTVSPropertyOp0
 70
     1
102
RTVSPropertyOp1
 70
     1
102
RTVSPropertyOp2
 70
     1
102
RTVSPropertyOp3
 70
     1
102
RTVSPropertyOp4
 70
     1
102
RTVSPropertyOp5
 70
     1
102
RTVSPropertyOp6
 70
     1
102
RTVSPropertyOp7
 70
     1
102
RTVSPropertyOp8
 70
     1
102
RTVSPropertyOp9
 70
     1
102
RTVSPropertyOp10
 70
     1
102
RTVSPropertyOp11
 70
     1
102
RTVSPropertyOp12
 70
     1
102
RTVSPropertyOp13
 70
     1
102
RTVSPropertyOp14
 70
     1
102
RTVSPropertyOp15
 70
     1
102
RTVSPropertyOp16
 70
     1
102
RTVSPropertyOp17
 70
     1
102
RTVSPropertyOp18
 70
     1
102
RTVSPropertyOp19
 70
     1
102
RTVSPropertyOp20
 70
     1
102
RTVSPropertyOp21
 70
     1
102
RTVSPropertyOp22
 70
     1
102
RTVSPropertyOp23
 70
     1
102
RTVSPropertyOp24
 70
     1
102
RTVSPropertyOp25
 70
     1
102
RTVSPropertyOp26
 70
     1
102
RTVSPropertyOp27
 70
     1
  0
XRECORD
  5
915
102
{ACAD_REACTORS
330
914
102
}
330
914
100
AcDbXrecord
280
     1
102
RTVSPropertyOp0
 70
     1
102
RTVSPropertyOp1
 70
     1
102
RTVSPropertyOp2
 70
     1
102
RTVSPropertyOp3
 70
     1
102
RTVSPropertyOp4
 70
     1
102
RTVSPropertyOp5
 70
     1
102
RTVSPropertyOp6
 70
     1
102
RTVSPropertyOp7
 70
     1
102
RTVSPropertyOp8
 70
     1
102
RTVSPropertyOp9
 70
     1
102
RTVSPropertyOp10
 70
     1
102
RTVSPropertyOp11
 70
     1
102
RTVSPropertyOp12
 70
     1
102
RTVSPropertyOp13
 70
     1
102
RTVSPropertyOp14
 70
     1
102
RTVSPropertyOp15
 70
     1
102
RTVSPropertyOp16
 70
     1
102
RTVSPropertyOp17
 70
     1
102
RTVSPropertyOp18
 70
     1
102
RTVSPropertyOp19
 70
     1
102
RTVSPropertyOp20
 70
     1
102
RTVSPropertyOp21
 70
     1
102
RTVSPropertyOp22
 70
     1
102
RTVSPropertyOp23
 70
     1
102
RTVSPropertyOp24
 70
     1
102
RTVSPropertyOp25
 70
     1
102
RTVSPropertyOp26
 70
     1
102
RTVSPropertyOp27
 70
     1
  0
XRECORD
  5
925
102
{ACAD_REACTORS
330
924
102
}
330
924
100
AcDbXrecord
280
     1
102
RTVSPropertyOp0
 70
     0
102
RTVSPropertyOp1
 70
     0
102
RTVSPropertyOp2
 70
     0
102
RTVSPropertyOp3
 70
     0
102
RTVSPropertyOp4
 70
     0
102
RTVSPropertyOp5
 70
     0
102
RTVSPropertyOp6
 70
     0
102
RTVSPropertyOp7
 70
     0
102
RTVSPropertyOp8
 70
     0
102
RTVSPropertyOp9
 70
     0
102
RTVSPropertyOp10
 70
     0
102
RTVSPropertyOp11
 70
     0
102
RTVSPropertyOp12
 70
     0
102
RTVSPropertyOp13
 70
     0
102
RTVSPropertyOp14
 70
     2
102
RTVSPropertyOp15
 70
     0
102
RTVSPropertyOp16
 70
     0
102
RTVSPropertyOp17
 70
     0
102
RTVSPropertyOp18
 70
     0
102
RTVSPropertyOp19
 70
     0
102
RTVSPropertyOp20
 70
     0
102
RTVSPropertyOp21
 70
     0
102
RTVSPropertyOp22
 70
     0
102
RTVSPropertyOp23
 70
     0
102
RTVSPropertyOp24
 70
     0
102
RTVSPropertyOp25
 70
     0
102
RTVSPropertyOp26
 70
     0
102
RTVSPropertyOp27
 70
     0
  0
XRECORD
  5
91D
102
{ACAD_REACTORS
330
91C
102
}
330
91C
100
AcDbXrecord
280
     1
102
RTVSPropertyOp0
 70
     1
102
RTVSPropertyOp1
 70
     1
102
RTVSPropertyOp2
 70
     1
102
RTVSPropertyOp3
 70
     1
102
RTVSPropertyOp4
 70
     1
102
RTVSPropertyOp5
 70
     1
102
RTVSPropertyOp6
 70
     1
102
RTVSPropertyOp7
 70
     1
102
RTVSPropertyOp8
 70
     1
102
RTVSPropertyOp9
 70
     1
102
RTVSPropertyOp10
 70
     1
102
RTVSPropertyOp11
 70
     1
102
RTVSPropertyOp12
 70
     1
102
RTVSPropertyOp13
 70
     1
102
RTVSPropertyOp14
 70
     1
102
RTVSPropertyOp15
 70
     1
102
RTVSPropertyOp16
 70
     1
102
RTVSPropertyOp17
 70
     1
102
RTVSPropertyOp18
 70
     1
102
RTVSPropertyOp19
 70
     1
102
RTVSPropertyOp20
 70
     1
102
RTVSPropertyOp21
 70
     1
102
RTVSPropertyOp22
 70
     1
102
RTVSPropertyOp23
 70
     1
102
RTVSPropertyOp24
 70
     1
102
RTVSPropertyOp25
 70
     1
102
RTVSPropertyOp26
 70
     1
102
RTVSPropertyOp27
 70
     1
  0
XRECORD
  5
901
102
{ACAD_REACTORS
330
900
102
}
330
900
100
AcDbXrecord
280
     1
102
RTVSPropertyOp0
 70
     1
102
RTVSPropertyOp1
 70
     1
102
RTVSPropertyOp2
 70
     1
102
RTVSPropertyOp3
 70
     1
102
RTVSPropertyOp4
 70
     1
102
RTVSPropertyOp5
 70
     1
102
RTVSPropertyOp6
 70
     1
102
RTVSPropertyOp7
 70
     1
102
RTVSPropertyOp8
 70
     1
102
RTVSPropertyOp9
 70
     1
102
RTVSPropertyOp10
 70
     1
102
RTVSPropertyOp11
 70
     1
102
RTVSPropertyOp12
 70
     1
102
RTVSPropertyOp13
 70
     1
102
RTVSPropertyOp14
 70
     1
102
RTVSPropertyOp15
 70
     1
102
RTVSPropertyOp16
 70
     1
102
RTVSPropertyOp17
 70
     1
102
RTVSPropertyOp18
 70
     1
102
RTVSPropertyOp19
 70
     1
102
RTVSPropertyOp20
 70
     1
102
RTVSPropertyOp21
 70
     1
102
RTVSPropertyOp22
 70
     1
102
RTVSPropertyOp23
 70
     1
102
RTVSPropertyOp24
 70
     1
102
RTVSPropertyOp25
 70
     1
102
RTVSPropertyOp26
 70
     1
102
RTVSPropertyOp27
 70
     1
  0
XRECORD
  5
903
102
{ACAD_REACTORS
330
902
102
}
330
902
100
AcDbXrecord
280
     1
102
RTVSPropertyOp0
 70
     1
102
RTVSPropertyOp1
 70
     1
102
RTVSPropertyOp2
 70
     1
102
RTVSPropertyOp3
 70
     1
102
RTVSPropertyOp4
 70
     1
102
RTVSPropertyOp5
 70
     1
102
RTVSPropertyOp6
 70
     1
102
RTVSPropertyOp7
 70
     1
102
RTVSPropertyOp8
 70
     1
102
RTVSPropertyOp9
 70
     1
102
RTVSPropertyOp10
 70
     1
102
RTVSPropertyOp11
 70
     1
102
RTVSPropertyOp12
 70
     1
102
RTVSPropertyOp13
 70
     1
102
RTVSPropertyOp14
 70
     1
102
RTVSPropertyOp15
 70
     1
102
RTVSPropertyOp16
 70
     1
102
RTVSPropertyOp17
 70
     1
102
RTVSPropertyOp18
 70
     1
102
RTVSPropertyOp19
 70
     1
102
RTVSPropertyOp20
 70
     1
102
RTVSPropertyOp21
 70
     1
102
RTVSPropertyOp22
 70
     1
102
RTVSPropertyOp23
 70
     1
102
RTVSPropertyOp24
 70
     1
102
RTVSPropertyOp25
 70
     1
102
RTVSPropertyOp26
 70
     1
102
RTVSPropertyOp27
 70
     1
  0
XRECORD
  5
905
102
{ACAD_REACTORS
330
904
102
}
330
904
100
AcDbXrecord
280
     1
102
RTVSPropertyOp0
 70
     1
102
RTVSPropertyOp1
 70
     1
102
RTVSPropertyOp2
 70
     1
102
RTVSPropertyOp3
 70
     1
102
RTVSPropertyOp4
 70
     1
102
RTVSPropertyOp5
 70
     1
102
RTVSPropertyOp6
 70
     1
102
RTVSPropertyOp7
 70
     1
102
RTVSPropertyOp8
 70
     1
102
RTVSPropertyOp9
 70
     1
102
RTVSPropertyOp10
 70
     1
102
RTVSPropertyOp11
 70
     1
102
RTVSPropertyOp12
 70
     1
102
RTVSPropertyOp13
 70
     1
102
RTVSPropertyOp14
 70
     1
102
RTVSPropertyOp15
 70
     1
102
RTVSPropertyOp16
 70
     1
102
RTVSPropertyOp17
 70
     1
102
RTVSPropertyOp18
 70
     1
102
RTVSPropertyOp19
 70
     1
102
RTVSPropertyOp20
 70
     1
102
RTVSPropertyOp21
 70
     1
102
RTVSPropertyOp22
 70
     1
102
RTVSPropertyOp23
 70
     1
102
RTVSPropertyOp24
 70
     1
102
RTVSPropertyOp25
 70
     1
102
RTVSPropertyOp26
 70
     1
102
RTVSPropertyOp27
 70
     1
  0
XRECORD
  5
907
102
{ACAD_REACTORS
330
906
102
}
330
906
100
AcDbXrecord
280
     1
102
RTVSPropertyOp0
 70
     1
102
RTVSPropertyOp1
 70
     1
102
RTVSPropertyOp2
 70
     1
102
RTVSPropertyOp3
 70
     1
102
RTVSPropertyOp4
 70
     1
102
RTVSPropertyOp5
 70
     1
102
RTVSPropertyOp6
 70
     1
102
RTVSPropertyOp7
 70
     1
102
RTVSPropertyOp8
 70
     1
102
RTVSPropertyOp9
 70
     1
102
RTVSPropertyOp10
 70
     1
102
RTVSPropertyOp11
 70
     1
102
RTVSPropertyOp12
 70
     1
102
RTVSPropertyOp13
 70
     1
102
RTVSPropertyOp14
 70
     1
102
RTVSPropertyOp15
 70
     1
102
RTVSPropertyOp16
 70
     1
102
RTVSPropertyOp17
 70
     1
102
RTVSPropertyOp18
 70
     1
102
RTVSPropertyOp19
 70
     1
102
RTVSPropertyOp20
 70
     1
102
RTVSPropertyOp21
 70
     1
102
RTVSPropertyOp22
 70
     1
102
RTVSPropertyOp23
 70
     1
102
RTVSPropertyOp24
 70
     1
102
RTVSPropertyOp25
 70
     1
102
RTVSPropertyOp26
 70
     1
102
RTVSPropertyOp27
 70
     1
  0
XRECORD
  5
921
102
{ACAD_REACTORS
330
920
102
}
330
920
100
AcDbXrecord
280
     1
102
RTVSPropertyOp0
 70
     0
102
RTVSPropertyOp1
 70
     0
102
RTVSPropertyOp2
 70
     0
102
RTVSPropertyOp3
 70
     0
102
RTVSPropertyOp4
 70
     0
102
RTVSPropertyOp5
 70
     0
102
RTVSPropertyOp6
 70
     0
102
RTVSPropertyOp7
 70
     0
102
RTVSPropertyOp8
 70
     0
102
RTVSPropertyOp9
 70
     0
102
RTVSPropertyOp10
 70
     0
102
RTVSPropertyOp11
 70
     0
102
RTVSPropertyOp12
 70
     0
102
RTVSPropertyOp13
 70
     0
102
RTVSPropertyOp14
 70
     2
102
RTVSPropertyOp15
 70
     0
102
RTVSPropertyOp16
 70
     0
102
RTVSPropertyOp17
 70
     0
102
RTVSPropertyOp18
 70
     0
102
RTVSPropertyOp19
 70
     0
102
RTVSPropertyOp20
 70
     0
102
RTVSPropertyOp21
 70
     0
102
RTVSPropertyOp22
 70
     0
102
RTVSPropertyOp23
 70
     0
102
RTVSPropertyOp24
 70
     0
102
RTVSPropertyOp25
 70
     0
102
RTVSPropertyOp26
 70
     0
102
RTVSPropertyOp27
 70
     0
  0
XRECORD
  5
91B
102
{ACAD_REACTORS
330
91A
102
}
330
91A
100
AcDbXrecord
280
     1
102
RTVSPropertyOp0
 70
     1
102
RTVSPropertyOp1
 70
     1
102
RTVSPropertyOp2
 70
     1
102
RTVSPropertyOp3
 70
     1
102
RTVSPropertyOp4
 70
     1
102
RTVSPropertyOp5
 70
     1
102
RTVSPropertyOp6
 70
     1
102
RTVSPropertyOp7
 70
     1
102
RTVSPropertyOp8
 70
     1
102
RTVSPropertyOp9
 70
     1
102
RTVSPropertyOp10
 70
     1
102
RTVSPropertyOp11
 70
     1
102
RTVSPropertyOp12
 70
     1
102
RTVSPropertyOp13
 70
     1
102
RTVSPropertyOp14
 70
     1
102
RTVSPropertyOp15
 70
     1
102
RTVSPropertyOp16
 70
     1
102
RTVSPropertyOp17
 70
     1
102
RTVSPropertyOp18
 70
     1
102
RTVSPropertyOp19
 70
     1
102
RTVSPropertyOp20
 70
     1
102
RTVSPropertyOp21
 70
     1
102
RTVSPropertyOp22
 70
     1
102
RTVSPropertyOp23
 70
     1
102
RTVSPropertyOp24
 70
     1
102
RTVSPropertyOp25
 70
     1
102
RTVSPropertyOp26
 70
     1
102
RTVSPropertyOp27
 70
     1
  0
XRECORD
  5
923
102
{ACAD_REACTORS
330
922
102
}
330
922
100
AcDbXrecord
280
     1
102
RTVSPropertyOp0
 70
     0
102
RTVSPropertyOp1
 70
     0
102
RTVSPropertyOp2
 70
     0
102
RTVSPropertyOp3
 70
     0
102
RTVSPropertyOp4
 70
     0
102
RTVSPropertyOp5
 70
     0
102
RTVSPropertyOp6
 70
     0
102
RTVSPropertyOp7
 70
     0
102
RTVSPropertyOp8
 70
     0
102
RTVSPropertyOp9
 70
     0
102
RTVSPropertyOp10
 70
     0
102
RTVSPropertyOp11
 70
     0
102
RTVSPropertyOp12
 70
     0
102
RTVSPropertyOp13
 70
     0
102
RTVSPropertyOp14
 70
     2
102
RTVSPropertyOp15
 70
     0
102
RTVSPropertyOp16
 70
     0
102
RTVSPropertyOp17
 70
     0
102
RTVSPropertyOp18
 70
     0
102
RTVSPropertyOp19
 70
     0
102
RTVSPropertyOp20
 70
     0
102
RTVSPropertyOp21
 70
     0
102
RTVSPropertyOp22
 70
     0
102
RTVSPropertyOp23
 70
     0
102
RTVSPropertyOp24
 70
     0
102
RTVSPropertyOp25
 70
     0
102
RTVSPropertyOp26
 70
     0
102
RTVSPropertyOp27
 70
     0
  0
XRECORD
  5
913
102
{ACAD_REACTORS
330
912
102
}
330
912
100
AcDbXrecord
280
     1
102
RTVSPropertyOp0
 70
     1
102
RTVSPropertyOp1
 70
     1
102
RTVSPropertyOp2
 70
     1
102
RTVSPropertyOp3
 70
     1
102
RTVSPropertyOp4
 70
     1
102
RTVSPropertyOp5
 70
     1
102
RTVSPropertyOp6
 70
     1
102
RTVSPropertyOp7
 70
     1
102
RTVSPropertyOp8
 70
     1
102
RTVSPropertyOp9
 70
     1
102
RTVSPropertyOp10
 70
     1
102
RTVSPropertyOp11
 70
     1
102
RTVSPropertyOp12
 70
     1
102
RTVSPropertyOp13
 70
     1
102
RTVSPropertyOp14
 70
     1
102
RTVSPropertyOp15
 70
     1
102
RTVSPropertyOp16
 70
     1
102
RTVSPropertyOp17
 70
     1
102
RTVSPropertyOp18
 70
     1
102
RTVSPropertyOp19
 70
     1
102
RTVSPropertyOp20
 70
     1
102
RTVSPropertyOp21
 70
     1
102
RTVSPropertyOp22
 70
     1
102
RTVSPropertyOp23
 70
     1
102
RTVSPropertyOp24
 70
     1
102
RTVSPropertyOp25
 70
     1
102
RTVSPropertyOp26
 70
     1
102
RTVSPropertyOp27
 70
     1
  0
XRECORD
  5
919
102
{ACAD_REACTORS
330
918
102
}
330
918
100
AcDbXrecord
280
     1
102
RTVSPropertyOp0
 70
     1
102
RTVSPropertyOp1
 70
     1
102
RTVSPropertyOp2
 70
     1
102
RTVSPropertyOp3
 70
     1
102
RTVSPropertyOp4
 70
     1
102
RTVSPropertyOp5
 70
     1
102
RTVSPropertyOp6
 70
     1
102
RTVSPropertyOp7
 70
     1
102
RTVSPropertyOp8
 70
     1
102
RTVSPropertyOp9
 70
     1
102
RTVSPropertyOp10
 70
     1
102
RTVSPropertyOp11
 70
     1
102
RTVSPropertyOp12
 70
     1
102
RTVSPropertyOp13
 70
     1
102
RTVSPropertyOp14
 70
     1
102
RTVSPropertyOp15
 70
     1
102
RTVSPropertyOp16
 70
     1
102
RTVSPropertyOp17
 70
     1
102
RTVSPropertyOp18
 70
     1
102
RTVSPropertyOp19
 70
     1
102
RTVSPropertyOp20
 70
     1
102
RTVSPropertyOp21
 70
     1
102
RTVSPropertyOp22
 70
     1
102
RTVSPropertyOp23
 70
     1
102
RTVSPropertyOp24
 70
     1
102
RTVSPropertyOp25
 70
     1
102
RTVSPropertyOp26
 70
     1
102
RTVSPropertyOp27
 70
     1
  0
DICTIONARY
  5
489
102
{ACAD_REACTORS
330
488
102
}
330
488
100
AcDbDictionary
281
     1
  3
PH_GRPMEMBERS
350
48A
  0
PH_GROUP
  5
48B
102
{ACAD_REACTORS
330
488
102
}
330
488
  0
PH_GROUP
  5
48A
102
{ACAD_REACTORS
330
489
102
}
330
489
  0
ENDSEC
  0
EOF
