  0
SECTION
  2
HEADER
  9
$ACADVER
  1
AC1015
  9
$ACADMAINTVER
 70
    20
  9
$DWGCODEPAGE
  3
ANSI_1252
  9
$INSBASE
 10
0.0
 20
0.0
 30
0.0
  9
$EXTMIN
 10
0.9805307641864828
 20
0.9879462492978063
 30
-0.0000000349181948
  9
$EXTMAX
 10
209.0066535642914
 20
296.0120551337162
 30
0.0000000814935746
  9
$LIMMIN
 10
0.0
 20
0.0
  9
$LIMMAX
 10
420.0
 20
297.0
  9
$ORTHOMODE
 70
     1
  9
$REGENMODE
 70
     1
  9
$FILLMODE
 70
     1
  9
$QTEXTMODE
 70
     0
  9
$MIRRTEXT
 70
     1
  9
$LTSCALE
 40
1.0
  9
$ATTMODE
 70
     1
  9
$TEXTSIZE
 40
2.5
  9
$TRACEWID
 40
1.0
  9
$TEXTSTYLE
  7
STANDARD
  9
$CLAYER
  8
0
  9
$CELTYPE
  6
BYLAYER
  9
$CECOLOR
 62
   256
  9
$CELTSCALE
 40
1.0
  9
$DISPSILH
 70
     0
  9
$DIMSCALE
 40
1.0
  9
$DIMASZ
 40
2.5
  9
$DIMEXO
 40
0.625
  9
$DIMDLI
 40
3.75
  9
$DIMRND
 40
0.0
  9
$DIMDLE
 40
0.0
  9
$DIMEXE
 40
1.25
  9
$DIMTP
 40
0.0
  9
$DIMTM
 40
0.0
  9
$DIMTXT
 40
2.5
  9
$DIMCEN
 40
2.5
  9
$DIMTSZ
 40
0.0
  9
$DIMTOL
 70
     0
  9
$DIMLIM
 70
     0
  9
$DIMTIH
 70
     0
  9
$DIMTOH
 70
     0
  9
$DIMSE1
 70
     0
  9
$DIMSE2
 70
     0
  9
$DIMTAD
 70
     1
  9
$DIMZIN
 70
     0
  9
$DIMBLK
  1

  9
$DIMASO
 70
     1
  9
$DIMSHO
 70
     1
  9
$DIMPOST
  1

  9
$DIMAPOST
  1

  9
$DIMALT
 70
     0
  9
$DIMALTD
 70
     4
  9
$DIMALTF
 40
0.0394
  9
$DIMLFAC
 40
1.0
  9
$DIMTOFL
 70
     1
  9
$DIMTVP
 40
0.0
  9
$DIMTIX
 70
     0
  9
$DIMSOXD
 70
     0
  9
$DIMSAH
 70
     0
  9
$DIMBLK1
  1

  9
$DIMBLK2
  1

  9
$DIMSTYLE
  2
STANDARD
  9
$DIMCLRD
 70
     0
  9
$DIMCLRE
 70
     0
  9
$DIMCLRT
 70
     0
  9
$DIMTFAC
 40
1.0
  9
$DIMGAP
 40
0.625
  9
$DIMJUST
 70
     0
  9
$DIMSD1
 70
     0
  9
$DIMSD2
 70
     0
  9
$DIMTOLJ
 70
     1
  9
$DIMTZIN
 70
     0
  9
$DIMALTZ
 70
     0
  9
$DIMALTTZ
 70
     0
  9
$DIMUPT
 70
     0
  9
$DIMDEC
 70
     4
  9
$DIMTDEC
 70
     4
  9
$DIMALTU
 70
     8
  9
$DIMALTTD
 70
     4
  9
$DIMTXSTY
  7
STANDARD
  9
$DIMAUNIT
 70
     0
  9
$DIMADEC
 70
     0
  9
$DIMALTRND
 40
0.0
  9
$DIMAZIN
 70
     0
  9
$DIMDSEP
 70
    46
  9
$DIMATFIT
 70
     3
  9
$DIMFRAC
 70
     0
  9
$DIMLDRBLK
  1

  9
$DIMLUNIT
 70
     6
  9
$DIMLWD
 70
    -2
  9
$DIMLWE
 70
    -2
  9
$DIMTMOVE
 70
     0
  9
$LUNITS
 70
     2
  9
$LUPREC
 70
     4
  9
$SKETCHINC
 40
1.0
  9
$FILLETRAD
 40
10.0
  9
$AUNITS
 70
     0
  9
$AUPREC
 70
     0
  9
$MENU
  1
.
  9
$ELEVATION
 40
0.0
  9
$PELEVATION
 40
0.0
  9
$THICKNESS
 40
0.0
  9
$LIMCHECK
 70
     0
  9
$CHAMFERA
 40
10.0
  9
$CHAMFERB
 40
10.0
  9
$CHAMFERC
 40
20.0
  9
$CHAMFERD
 40
0.0
  9
$SKPOLY
 70
     0
  9
$TDCREATE
 40
2451306.585777014
  9
$TDUCREATE
 40
2451306.544110347
  9
$TDUPDATE
 40
2457045.422100949
  9
$TDUUPDATE
 40
2457045.380434283
  9
$TDINDWG
 40
0.0082378588
  9
$TDUSRTIMER
 40
0.0082378588
  9
$USRTIMER
 70
     1
  9
$ANGBASE
 50
0.0
  9
$ANGDIR
 70
     0
  9
$PDMODE
 70
    35
  9
$PDSIZE
 40
-2.0
  9
$PLINEWID
 40
0.0
  9
$SPLFRAME
 70
     0
  9
$SPLINETYPE
 70
     6
  9
$SPLINESEGS
 70
     8
  9
$HANDSEED
  5
521
  9
$SURFTAB1
 70
     6
  9
$SURFTAB2
 70
     6
  9
$SURFTYPE
 70
     6
  9
$SURFU
 70
     6
  9
$SURFV
 70
     6
  9
$UCSBASE
  2

  9
$UCSNAME
  2

  9
$UCSORG
 10
0.0
 20
0.0
 30
0.0
  9
$UCSXDIR
 10
1.0
 20
0.0
 30
0.0
  9
$UCSYDIR
 10
0.0
 20
1.0
 30
0.0
  9
$UCSORTHOREF
  2

  9
$UCSORTHOVIEW
 70
     0
  9
$UCSORGTOP
 10
0.0
 20
0.0
 30
0.0
  9
$UCSORGBOTTOM
 10
0.0
 20
0.0
 30
0.0
  9
$UCSORGLEFT
 10
0.0
 20
0.0
 30
0.0
  9
$UCSORGRIGHT
 10
0.0
 20
0.0
 30
0.0
  9
$UCSORGFRONT
 10
0.0
 20
0.0
 30
0.0
  9
$UCSORGBACK
 10
0.0
 20
0.0
 30
0.0
  9
$PUCSBASE
  2

  9
$PUCSNAME
  2

  9
$PUCSORG
 10
0.0
 20
0.0
 30
0.0
  9
$PUCSXDIR
 10
1.0
 20
0.0
 30
0.0
  9
$PUCSYDIR
 10
0.0
 20
1.0
 30
0.0
  9
$PUCSORTHOREF
  2

  9
$PUCSORTHOVIEW
 70
     0
  9
$PUCSORGTOP
 10
0.0
 20
0.0
 30
0.0
  9
$PUCSORGBOTTOM
 10
0.0
 20
0.0
 30
0.0
  9
$PUCSORGLEFT
 10
0.0
 20
0.0
 30
0.0
  9
$PUCSORGRIGHT
 10
0.0
 20
0.0
 30
0.0
  9
$PUCSORGFRONT
 10
0.0
 20
0.0
 30
0.0
  9
$PUCSORGBACK
 10
0.0
 20
0.0
 30
0.0
  9
$USERI1
 70
     0
  9
$USERI2
 70
     0
  9
$USERI3
 70
     0
  9
$USERI4
 70
     0
  9
$USERI5
 70
     0
  9
$USERR1
 40
0.0
  9
$USERR2
 40
0.0
  9
$USERR3
 40
0.0
  9
$USERR4
 40
0.0
  9
$USERR5
 40
0.0
  9
$WORLDVIEW
 70
     1
  9
$SHADEDGE
 70
     3
  9
$SHADEDIF
 70
    70
  9
$TILEMODE
 70
     1
  9
$MAXACTVP
 70
    48
  9
$PINSBASE
 10
0.0
 20
0.0
 30
0.0
  9
$PLIMCHECK
 70
     0
  9
$PEXTMIN
 10
1.000000000000000E+20
 20
1.000000000000000E+20
 30
1.000000000000000E+20
  9
$PEXTMAX
 10
-1.000000000000000E+20
 20
-1.000000000000000E+20
 30
-1.000000000000000E+20
  9
$PLIMMIN
 10
0.0
 20
0.0
  9
$PLIMMAX
 10
420.0
 20
297.0
  9
$UNITMODE
 70
     0
  9
$VISRETAIN
 70
     1
  9
$PLINEGEN
 70
     0
  9
$PSLTSCALE
 70
     1
  9
$TREEDEPTH
 70
  3020
  9
$CMLSTYLE
  2
STANDARD
  9
$CMLJUST
 70
     0
  9
$CMLSCALE
 40
20.0
  9
$PROXYGRAPHICS
 70
     1
  9
$MEASUREMENT
 70
     1
  9
$CELWEIGHT
370
    -1
  9
$ENDCAPS
280
     0
  9
$JOINSTYLE
280
     0
  9
$LWDISPLAY
290
     0
  9
$INSUNITS
 70
     0
  9
$HYPERLINKBASE
  1

  9
$STYLESHEET
  1
HP_SW.ctb
  9
$XEDIT
290
     1
  9
$CEPSNTYPE
380
     0
  9
$PSTYLEMODE
290
     1
  9
$FINGERPRINTGUID
  2
{9C8822FA-A8B8-4A2D-B1E9-55823F662B13}
  9
$VERSIONGUID
  2
{4441FA1B-F767-4BE6-9FA1-DAD5A0A4FB5E}
  9
$EXTNAMES
290
     1
  9
$PSVPSCALE
 40
0.0
  9
$OLESTARTUP
290
     0
  0
ENDSEC
  0
SECTION
  2
CLASSES
  0
CLASS
  1
PH_VARS
  2
PhoenixVars
  3
PHOENIX7010
 90
        0
280
     0
281
     0
  0
CLASS
  1
PH_GROUP
  2
PhGroup
  3
PHOENIX7010
 90
        0
280
     0
281
     0
  0
CLASS
  1
ACDBDICTIONARYWDFLT
  2
AcDbDictionaryWithDefault
  3
ObjectDBX Classes
 90
        0
280
     0
281
     0
  0
CLASS
  1
MATERIAL
  2
AcDbMaterial
  3
ObjectDBX Classes
 90
     1153
280
     0
281
     0
  0
CLASS
  1
VISUALSTYLE
  2
AcDbVisualStyle
  3
ObjectDBX Classes
 90
     4095
280
     0
281
     0
  0
CLASS
  1
TABLESTYLE
  2
AcDbTableStyle
  3
ObjectDBX Classes
 90
     4095
280
     0
281
     0
  0
CLASS
  1
SCALE
  2
AcDbScale
  3
ObjectDBX Classes
 90
     1153
280
     0
281
     0
  0
CLASS
  1
MLEADERSTYLE
  2
AcDbMLeaderStyle
  3
ACDB_MLEADERSTYLE_CLASS
 90
     4095
280
     0
281
     0
  0
CLASS
  1
PH_ENTDIMREACTOR
  2
EntDimReactor
  3
PHOENIX7010
 90
        0
280
     0
281
     0
  0
CLASS
  1
DICTIONARYVAR
  2
AcDbDictionaryVar
  3
ObjectDBX Classes
 90
        0
280
     0
281
     0
  0
CLASS
  1
CELLSTYLEMAP
  2
AcDbCellStyleMap
  3
ObjectDBX Classes
 90
     1152
280
     0
281
     0
  0
CLASS
  1
ACDBPLACEHOLDER
  2
AcDbPlaceHolder
  3
ObjectDBX Classes
 90
        0
280
     0
281
     0
  0
CLASS
  1
LAYOUT
  2
AcDbLayout
  3
ObjectDBX Classes
 90
        0
280
     0
281
     0
  0
ENDSEC
  0
SECTION
  2
TABLES
  0
TABLE
  2
VPORT
  5
8
330
0
100
AcDbSymbolTable
 70
     1
  0
VPORT
  5
3D9
330
8
100
AcDbSymbolTableRecord
100
AcDbViewportTableRecord
  2
*ACTIVE
 70
     0
 10
0.0
 20
0.0
 11
1.0
 21
1.0
 12
107.8418349920563
 22
148.5107610481916
 13
0.0
 23
0.0
 14
10.0
 24
10.0
 15
10.0
 25
10.0
 16
0.0
 26
0.0
 36
1.0
 17
0.0
 27
0.0
 37
0.0
 40
297.1725206677031
 41
1.906175771971496
 42
50.0
 43
0.0
 44
0.0
 50
0.0
 51
0.0
 71
     0
 72
   100
 73
     1
 74
     0
 75
     0
 76
     0
 77
     0
 78
     0
281
     0
 65
     1
110
0.0
120
0.0
130
0.0
111
1.0
121
0.0
131
0.0
112
0.0
122
1.0
132
0.0
 79
     0
146
0.0
  0
ENDTAB
  0
TABLE
  2
LTYPE
  5
5
330
0
100
AcDbSymbolTable
 70
     2
  0
LTYPE
  5
12
330
5
100
AcDbSymbolTableRecord
100
AcDbLinetypeTableRecord
  2
BYBLOCK
 70
     0
  3

 72
    65
 73
     0
 40
0.0
  0
LTYPE
  5
13
330
5
100
AcDbSymbolTableRecord
100
AcDbLinetypeTableRecord
  2
BYLAYER
 70
     0
  3

 72
    65
 73
     0
 40
0.0
  0
LTYPE
  5
14
330
5
100
AcDbSymbolTableRecord
100
AcDbLinetypeTableRecord
  2
CONTINUOUS
 70
     0
  3
Solid line
 72
    65
 73
     0
 40
0.0
  0
LTYPE
  5
347
330
5
100
AcDbSymbolTableRecord
100
AcDbLinetypeTableRecord
  2
ACAD_ISO04W100
 70
     0
  3
____ . ____ . ____ . ____ . ____ . ____ . ____ 
 72
    65
 73
     4
 40
30.5
 49
24.0
 74
     0
 49
-3.0
 74
     0
 49
0.5
 74
     0
 49
-3.0
 74
     0
  0
ENDTAB
  0
TABLE
  2
LAYER
  5
2
102
{ACAD_XDICTIONARY
360
435
102
}
330
0
100
AcDbSymbolTable
 70
     9
  0
LAYER
  5
E
102
{ACAD_XDICTIONARY
360
4A3
102
}
330
2
100
AcDbSymbolTableRecord
100
AcDbLayerTableRecord
  2
0
 70
     0
 62
     7
  6
CONTINUOUS
370
    -3
390
3DC
  0
LAYER
  5
21
102
{ACAD_XDICTIONARY
360
4A5
102
}
330
2
100
AcDbSymbolTableRecord
100
AcDbLayerTableRecord
  2
BLA43397
 70
     0
 62
     7
  6
CONTINUOUS
370
    -3
390
3DC
  0
LAYER
  5
2C
102
{ACAD_XDICTIONARY
360
4A7
102
}
330
2
100
AcDbSymbolTableRecord
100
AcDbLayerTableRecord
  2
BGA45757
 70
     0
 62
     7
  6
CONTINUOUS
370
    -3
390
3DC
  0
LAYER
  5
11D
102
{ACAD_XDICTIONARY
360
4A9
102
}
330
2
100
AcDbSymbolTableRecord
100
AcDbLayerTableRecord
  2
RAHMEN
 70
     0
 62
     7
  6
CONTINUOUS
370
    -3
390
3DC
  0
LAYER
  5
198
102
{ACAD_XDICTIONARY
360
4AB
102
}
330
2
100
AcDbSymbolTableRecord
100
AcDbLayerTableRecord
  2
2KOPF
 70
     0
 62
     7
  6
CONTINUOUS
370
    -3
390
3DC
  0
LAYER
  5
1C3
102
{ACAD_XDICTIONARY
360
4AD
102
}
330
2
100
AcDbSymbolTableRecord
100
AcDbLayerTableRecord
  2
BZA45847
 70
     0
 62
     7
  6
CONTINUOUS
370
    -3
390
3DC
  0
LAYER
  5
1E8
102
{ACAD_XDICTIONARY
360
4AF
102
}
330
2
100
AcDbSymbolTableRecord
100
AcDbLayerTableRecord
  2
31
 70
     0
 62
     7
  6
CONTINUOUS
370
    -3
390
3DC
  0
LAYER
  5
2A9
102
{ACAD_XDICTIONARY
360
4B1
102
}
330
2
100
AcDbSymbolTableRecord
100
AcDbLayerTableRecord
  2
PH_HILFSELEMENTE
 70
     0
 62
    -7
  6
CONTINUOUS
370
    -3
390
3DC
  0
LAYER
  5
348
330
2
100
AcDbSymbolTableRecord
100
AcDbLayerTableRecord
  2
DEFPOINTS
 70
     0
 62
     7
  6
CONTINUOUS
290
     0
370
    -3
390
3DC
  0
ENDTAB
  0
TABLE
  2
STYLE
  5
3
330
0
100
AcDbSymbolTable
 70
     2
  0
STYLE
  5
F
330
3
100
AcDbSymbolTableRecord
100
AcDbTextStyleTableRecord
  2
STANDARD
 70
     0
 40
0.0
 41
1.199999999999999
 50
0.0
 71
     0
 42
2.5
  3
isocp.shx
  4

  0
ENDTAB
  0
TABLE
  2
VIEW
  5
6
330
0
100
AcDbSymbolTable
 70
     0
  0
ENDTAB
  0
TABLE
  2
UCS
  5
7
330
0
100
AcDbSymbolTable
 70
     0
  0
ENDTAB
  0
TABLE
  2
APPID
  5
9
330
0
100
AcDbSymbolTable
 70
     6
  0
APPID
  5
10
330
9
100
AcDbSymbolTableRecord
100
AcDbRegAppTableRecord
  2
ACAD
 70
     0
  0
APPID
  5
292
330
9
100
AcDbSymbolTableRecord
100
AcDbRegAppTableRecord
  2
PHOENIX7010
 70
     0
  0
APPID
  5
49F
330
9
100
AcDbSymbolTableRecord
100
AcDbRegAppTableRecord
  2
AcadAnnoPO
 70
     0
  0
APPID
  5
4A1
330
9
100
AcDbSymbolTableRecord
100
AcDbRegAppTableRecord
  2
ACAD_EXEMPT_FROM_CAD_STANDARDS
 70
     0
  0
APPID
  5
4DF
330
9
100
AcDbSymbolTableRecord
100
AcDbRegAppTableRecord
  2
ACAD_PSEXT
 70
     0
  0
APPID
  5
51D
330
9
100
AcDbSymbolTableRecord
100
AcDbRegAppTableRecord
  2
ACAD_MLEADERVER
 70
     0
  0
ENDTAB
  0
TABLE
  2
DIMSTYLE
  5
A
330
0
100
AcDbSymbolTable
 70
     5
100
AcDbDimStyleTable
 71
     1
340
1D
  0
DIMSTYLE
105
1D
330
A
100
AcDbSymbolTableRecord
100
AcDbDimStyleTableRecord
  2
STANDARD
 70
     0
340
F
  0
DIMSTYLE
105
299
330
A
100
AcDbSymbolTableRecord
100
AcDbDimStyleTableRecord
  2
PHOENIX
 70
     0
  4
"
 41
3.72
 42
0.0
 43
7.0
 44
1.5
 73
     0
 74
     0
 77
     1
 78
     8
140
3.5
141
0.0
143
0.0393700787401575
146
0.6666666666666666
147
2.0
172
     1
173
     1
176
     1
177
     1
178
     5
271
     2
272
     2
284
     8
288
     1
289
     0
340
F
341
293
343
293
344
293
  0
DIMSTYLE
105
29A
330
A
100
AcDbSymbolTableRecord
100
AcDbDimStyleTableRecord
  2
PHOENIX$4
 70
     0
  4
"
 41
3.72
 42
0.0
 43
7.0
 44
1.5
 73
     0
 74
     0
 77
     1
 78
     8
140
3.5
141
0.0
143
0.0393700787401575
146
0.6666666666666666
147
2.0
173
     1
176
     1
177
     1
178
     5
271
     2
272
     2
281
     1
284
     8
288
     1
289
     0
340
F
341
293
343
293
344
293
  0
DIMSTYLE
105
427
330
A
100
AcDbSymbolTableRecord
100
AcDbDimStyleTableRecord
  2
ISO-25
 70
     0
 41
2.5
 42
0.625
 43
3.75
 44
1.25
 73
     0
 74
     0
 77
     1
 78
     8
140
2.5
141
2.5
143
0.03937007874016
147
0.625
171
     3
172
     1
271
     2
272
     2
274
     3
278
    44
283
     0
284
     8
340
F
  0
ENDTAB
  0
TABLE
  2
BLOCK_RECORD
  5
1
330
0
100
AcDbSymbolTable
 70
    10
  0
BLOCK_RECORD
  5
18
330
1
100
AcDbSymbolTableRecord
100
AcDbBlockTableRecord
  2
*MODEL_SPACE
340
423
  0
BLOCK_RECORD
  5
15
330
1
100
AcDbSymbolTableRecord
100
AcDbBlockTableRecord
  2
*PAPER_SPACE
340
424
  0
BLOCK_RECORD
  5
293
330
1
100
AcDbSymbolTableRecord
100
AcDbBlockTableRecord
  2
_OPEN15
340
0
  0
BLOCK_RECORD
  5
2AA
330
1
100
AcDbSymbolTableRecord
100
AcDbBlockTableRecord
  2
PH_GRPBLK
340
0
102
{BLKREFS
331
428
331
44C
331
44F
331
487
102
}
  0
ENDTAB
  0
ENDSEC
  0
SECTION
  2
BLOCKS
  0
BLOCK
  5
19
330
18
100
AcDbEntity
  8
0
100
AcDbBlockBegin
  2
*MODEL_SPACE
 70
     0
 10
0.0
 20
0.0
 30
0.0
  3
*MODEL_SPACE
  1

  0
ENDBLK
  5
1A
330
18
100
AcDbEntity
  8
0
100
AcDbBlockEnd
  0
BLOCK
  5
16
330
15
100
AcDbEntity
 67
     1
  8
0
100
AcDbBlockBegin
  2
*PAPER_SPACE
 70
     0
 10
0.0
 20
0.0
 30
0.0
  3
*PAPER_SPACE
  1

  0
ENDBLK
  5
17
330
15
100
AcDbEntity
 67
     1
  8
0
100
AcDbBlockEnd
  0
BLOCK
  5
297
330
293
100
AcDbEntity
  8
0
100
AcDbBlockBegin
  2
_OPEN15
 70
     0
 10
1.0
 20
0.0
 30
0.0
  3
_OPEN15
  1

  0
LINE
  5
294
330
293
100
AcDbEntity
  8
0
  6
ByBlock
 62
     0
100
AcDbLine
 10
0.0
 20
0.0
 30
0.0
 11
1.0
 21
0.0
 31
0.0
  0
LINE
  5
295
330
293
100
AcDbEntity
  8
0
  6
ByBlock
 62
     0
100
AcDbLine
 10
1.0
 20
0.0
 30
0.0
 11
0.0
 21
0.1316524975873958
 31
0.0
  0
LINE
  5
296
330
293
100
AcDbEntity
  8
0
  6
ByBlock
 62
     0
100
AcDbLine
 10
1.0
 20
0.0
 30
0.0
 11
0.0
 21
-0.1316524975873958
 31
0.0
  0
ENDBLK
  5
298
330
293
100
AcDbEntity
  8
0
100
AcDbBlockEnd
  0
BLOCK
  5
2AC
330
2AA
100
AcDbEntity
  8
0
 62
     7
100
AcDbBlockBegin
  2
PH_GRPBLK
 70
     0
 10
0.0
 20
0.0
 30
0.0
  3
PH_GRPBLK
  1

  0
POINT
  5
2AB
330
2AA
100
AcDbEntity
  8
DEFPOINTS
  6
Continuous
 62
     0
100
AcDbPoint
 10
0.0
 20
0.0
 30
0.0
  0
ENDBLK
  5
2AD
330
2AA
100
AcDbEntity
  8
0
 62
     7
100
AcDbBlockEnd
  0
ENDSEC
  0
SECTION
  2
ENTITIES
  0
LINE
  5
22
330
18
100
AcDbEntity
  8
BLA43397
 62
     1
100
AcDbLine
 10
113.0513283423904
 20
139.7292659259125
 30
0.0
 11
86.5513436011795
 21
155.028963801889
 31
0.0
  0
LINE
  5
23
330
18
100
AcDbEntity
  8
BLA43397
 62
     1
100
AcDbLine
 10
119.6504494361404
 20
143.5392787432953
 30
0.0
 11
99.41587607188262
 21
155.2216670489594
 31
0.0
  0
LINE
  5
25
330
18
100
AcDbEntity
  8
BLA43397
  6
Continuous
 62
     1
100
AcDbLine
 10
52.17008749766387
 20
188.994051692514
 30
0.0
 11
66.45945517344512
 21
197.2440059161469
 31
0.0
  0
LINE
  5
26
330
18
100
AcDbEntity
  8
BLA43397
  6
Continuous
 62
     7
100
AcDbLine
 10
48.27296034617461
 20
191.244051692514
 30
0.0
 11
66.45945517344512
 21
201.7440059161469
 31
0.0
  0
LINE
  5
27
330
18
100
AcDbEntity
  8
BLA43397
  6
Continuous
 62
     7
100
AcDbLine
 10
52.17008749766387
 20
164.994036433725
 30
0.0
 11
57.36625448985137
 21
167.9940059161469
 31
0.0
  0
LINE
  5
28
330
18
100
AcDbEntity
  8
BLA43397
  6
Continuous
 62
     1
100
AcDbLine
 10
55.41764609141387
 20
181.119051692514
 30
0.0
 11
66.45945517344512
 21
187.4940211749359
 31
0.0
  0
LINE
  5
29
330
18
100
AcDbEntity
  8
BLA43397
  6
Continuous
 62
     1
100
AcDbLine
 10
69.70701376719512
 20
148.569002864389
 30
0.0
 11
69.70701376719512
 21
163.5690791583344
 31
0.0
  0
LINE
  5
2A
330
18
100
AcDbEntity
  8
BLA43397
  6
Continuous
 62
     7
100
AcDbLine
 10
69.70701376719512
 20
148.5690715289398
 30
0.0
 11
66.45945517344512
 21
150.444002864389
 31
0.0
  0
LINE
  5
2B
330
18
100
AcDbEntity
  8
BLA43397
  6
Continuous
 62
     1
100
AcDbLine
 10
96.28678671641388
 20
177.9531886554047
 30
0.0
 11
96.28678671641388
 21
245.4531886554047
 31
0.0
  0
LINE
  5
2D
330
18
100
AcDbEntity
  8
BGA45757
  6
Continuous
 62
     7
100
AcDbLine
 10
69.70701376719512
 20
148.5690715289398
 30
0.0
 11
81.42732016367949
 21
155.3357570147797
 31
0.0
  0
LINE
  5
2E
330
18
100
AcDbEntity
  8
BGA45757
  6
Continuous
 62
     7
100
AcDbLine
 10
85.50517050547638
 20
157.6901423907562
 30
0.0
 11
88.4600350074295
 21
159.3961360431
 31
0.0
  0
LINE
  5
2F
330
18
100
AcDbEntity
  8
BGA45757
  6
Continuous
 62
     7
100
AcDbLine
 10
92.61909262461699
 20
161.7973659014984
 30
0.0
 11
96.10340658946075
 21
163.8090388751312
 31
0.0
  0
LINE
  5
30
330
18
100
AcDbEntity
  8
BLA43397
  6
Continuous
 62
     7
100
AcDbLine
 10
66.45945517344512
 20
150.444002864389
 30
0.0
 11
66.45945517344512
 21
236.3262660479828
 31
0.0
  0
LINE
  5
31
330
18
100
AcDbEntity
  8
BLA43397
  6
Continuous
 62
     1
100
AcDbLine
 10
69.70701376719512
 20
231.0690944171234
 30
0.0
 11
69.70701376719512
 21
234.4458796954437
 31
0.0
  0
LINE
  5
32
330
18
100
AcDbEntity
  8
BGA45757
  6
Continuous
 62
     7
100
AcDbLine
 10
96.10340658946075
 20
163.8090388751312
 30
0.0
 11
96.10340658946075
 21
247.9956080889984
 31
0.0
  0
LINE
  5
34
330
18
100
AcDbEntity
  8
BLA43397
  6
Continuous
 62
     7
100
AcDbLine
 10
48.27296034617461
 20
167.244036433725
 30
0.0
 11
52.17008749766387
 21
164.994036433725
 31
0.0
  0
LINE
  5
35
330
18
100
AcDbEntity
  8
BLA43397
  6
Continuous
 62
     7
100
AcDbLine
 10
48.27296034617461
 20
167.244036433725
 30
0.0
 11
48.27296034617461
 21
191.244051692514
 31
0.0
  0
LINE
  5
36
330
18
100
AcDbEntity
  8
BLA43397
  6
Continuous
 62
     1
100
AcDbLine
 10
48.27296034617461
 20
169.494051692514
 30
0.0
 11
49.57200400157012
 21
168.744051692514
 31
0.0
  0
LINE
  5
37
330
18
100
AcDbEntity
  8
BLA43397
  6
Continuous
 62
     1
100
AcDbLine
 10
49.57200400157012
 20
168.744036433725
 30
0.0
 11
49.57200400157012
 21
188.244051692514
 31
0.0
  0
LINE
  5
38
330
18
100
AcDbEntity
  8
BLA43397
  6
Continuous
 62
     1
100
AcDbLine
 10
48.27296034617461
 20
188.994051692514
 30
0.0
 11
49.57200400157012
 21
188.244051692514
 31
0.0
  0
LINE
  5
39
330
18
100
AcDbEntity
  8
BLA43397
  6
Continuous
 62
     1
100
AcDbLine
 10
48.27296034617461
 20
191.244051692514
 30
0.0
 11
52.17008749766387
 21
188.994051692514
 31
0.0
  0
LINE
  5
3A
330
18
100
AcDbEntity
  8
BLA43397
  6
Continuous
 62
     1
100
AcDbLine
 10
52.17008749766387
 20
188.994051692514
 30
0.0
 11
55.41764609141387
 21
181.119051692514
 31
0.0
  0
LINE
  5
3B
330
18
100
AcDbEntity
  8
BLA43397
  6
Continuous
 62
     1
100
AcDbLine
 10
52.17008749766387
 20
164.994036433725
 30
0.0
 11
55.41764609141387
 21
169.119036433725
 31
0.0
  0
LINE
  5
3C
330
18
100
AcDbEntity
  8
BLA43397
  6
Continuous
 62
     1
100
AcDbLine
 10
66.45945517344512
 20
174.744051692514
 30
0.0
 11
55.41764609141387
 21
181.119051692514
 31
0.0
  0
LINE
  5
3D
330
18
100
AcDbEntity
  8
BLA43397
  6
Continuous
 62
     7
100
AcDbLine
 10
66.45945517344512
 20
162.744036433725
 30
0.0
 11
55.41764609141387
 21
169.119036433725
 31
0.0
  0
LINE
  5
3E
330
18
100
AcDbEntity
  8
BLA43397
  6
Continuous
 62
     1
100
AcDbLine
 10
66.45945517344512
 20
162.744036433725
 30
0.0
 11
66.45945517344512
 21
174.744051692514
 31
0.0
  0
LINE
  5
40
330
18
100
AcDbEntity
  8
BLA43397
  6
Continuous
 62
     1
100
AcDbLine
 10
71.60343710703887
 20
162.4516170001312
 30
0.0
 11
71.60343710703887
 21
228.5553920245453
 31
0.0
  0
LINE
  5
41
330
18
100
AcDbEntity
  8
BLA43397
  6
Continuous
 62
     7
100
AcDbLine
 10
74.09165732188262
 20
161.6577479815765
 30
0.0
 11
74.09165732188262
 21
229.1577479815765
 31
0.0
  0
LINE
  5
42
330
18
100
AcDbEntity
  8
BLA43397
  6
Continuous
 62
     1
100
AcDbLine
 10
70.68122641367949
 20
163.0066096759125
 30
0.0
 11
70.68122641367949
 21
229.5136744952484
 31
0.0
  0
LINE
  5
43
330
18
100
AcDbEntity
  8
BLA43397
  6
Continuous
 62
     7
100
AcDbLine
 10
68.08323447032012
 20
164.5065486407562
 30
0.0
 11
68.08323447032012
 21
234.7998378253266
 31
0.0
  0
LINE
  5
45
330
18
100
AcDbEntity
  8
BLA43397
  6
Continuous
 62
     7
100
AcDbLine
 10
71.74223105235137
 20
161.4921443438812
 30
0.0
 11
73.860303562117
 21
161.4328181720062
 31
0.0
  0
ARC
  5
46
330
18
100
AcDbEntity
  8
BLA43397
  6
Continuous
 62
     7
100
AcDbCircle
 10
71.76319662852325
 20
162.241854426889
 30
0.0
 40
0.7500178217887879
100
AcDbArc
 50
200.2670745849608
 51
268.3981323242187
  0
LINE
  5
47
330
18
100
AcDbEntity
  8
BLA43397
  6
Continuous
 62
     7
100
AcDbLine
 10
70.68131796641387
 20
163.0065486407562
 30
0.0
 11
71.05961386485137
 21
161.9820430255219
 31
0.0
  0
LINE
  5
48
330
18
100
AcDbEntity
  8
BLA43397
  6
Continuous
 62
     7
100
AcDbLine
 10
68.08323447032012
 20
164.5065486407562
 30
0.0
 11
70.68122641367949
 21
163.0066096759125
 31
0.0
  0
ARC
  5
49
330
18
100
AcDbEntity
  8
BLA43397
  6
Continuous
 62
     7
100
AcDbCircle
 10
73.86662070078887
 20
161.6577479815765
 30
0.0
 40
0.225010871887207
100
AcDbArc
 50
268.3912048339844
 51
0.0
  0
LINE
  5
4B
330
18
100
AcDbEntity
  8
BLA43397
  6
Continuous
 62
     1
100
AcDbLine
 10
71.74223105235137
 20
168.9921596026703
 30
0.0
 11
73.860303562117
 21
168.9328334307953
 31
0.0
  0
ARC
  5
4C
330
18
100
AcDbEntity
  8
BLA43397
  6
Continuous
 62
     1
100
AcDbCircle
 10
71.76319662852325
 20
169.7418696856781
 30
0.0
 40
0.7500178217887879
100
AcDbArc
 50
200.2670745849608
 51
268.3981323242187
  0
LINE
  5
4D
330
18
100
AcDbEntity
  8
BLA43397
  6
Continuous
 62
     1
100
AcDbLine
 10
70.68131796641387
 20
170.5065638995453
 30
0.0
 11
71.05961386485137
 21
169.4820582843109
 31
0.0
  0
LINE
  5
4E
330
18
100
AcDbEntity
  8
BLA43397
  6
Continuous
 62
     1
100
AcDbLine
 10
68.08323447032012
 20
172.0065638995453
 30
0.0
 11
70.68122641367949
 21
170.5066249347015
 31
0.0
  0
ARC
  5
4F
330
18
100
AcDbEntity
  8
BLA43397
  6
Continuous
 62
     1
100
AcDbCircle
 10
73.86662070078887
 20
169.1577632403656
 30
0.0
 40
0.225010871887207
100
AcDbArc
 50
268.3912048339844
 51
0.0
  0
LINE
  5
51
330
18
100
AcDbEntity
  8
BLA43397
  6
Continuous
 62
     1
100
AcDbLine
 10
71.74223105235137
 20
183.9921596026703
 30
0.0
 11
73.860303562117
 21
183.9328334307953
 31
0.0
  0
ARC
  5
52
330
18
100
AcDbEntity
  8
BLA43397
  6
Continuous
 62
     1
100
AcDbCircle
 10
71.76319662852325
 20
184.7418696856781
 30
0.0
 40
0.7500178217887879
100
AcDbArc
 50
200.2670745849608
 51
268.3981323242187
  0
LINE
  5
53
330
18
100
AcDbEntity
  8
BLA43397
  6
Continuous
 62
     1
100
AcDbLine
 10
70.68131796641387
 20
185.5065638995453
 30
0.0
 11
71.05961386485137
 21
184.4820582843109
 31
0.0
  0
LINE
  5
54
330
18
100
AcDbEntity
  8
BLA43397
  6
Continuous
 62
     1
100
AcDbLine
 10
68.08323447032012
 20
187.0065638995453
 30
0.0
 11
70.68122641367949
 21
185.5066249347015
 31
0.0
  0
ARC
  5
55
330
18
100
AcDbEntity
  8
BLA43397
  6
Continuous
 62
     1
100
AcDbCircle
 10
73.86662070078887
 20
184.1577632403656
 30
0.0
 40
0.225010871887207
100
AcDbArc
 50
268.3912048339844
 51
0.0
  0
LINE
  5
57
330
18
100
AcDbEntity
  8
BLA43397
  6
Continuous
 62
     1
100
AcDbLine
 10
71.74223105235137
 20
206.4921596026703
 30
0.0
 11
73.860303562117
 21
206.4328334307953
 31
0.0
  0
ARC
  5
58
330
18
100
AcDbEntity
  8
BLA43397
  6
Continuous
 62
     1
100
AcDbCircle
 10
71.76319662852325
 20
207.2418696856781
 30
0.0
 40
0.7500178217887879
100
AcDbArc
 50
200.2670745849608
 51
268.3981323242187
  0
LINE
  5
59
330
18
100
AcDbEntity
  8
BLA43397
  6
Continuous
 62
     1
100
AcDbLine
 10
70.68131796641387
 20
208.0065638995453
 30
0.0
 11
71.05961386485137
 21
206.9820582843109
 31
0.0
  0
LINE
  5
5A
330
18
100
AcDbEntity
  8
BLA43397
  6
Continuous
 62
     1
100
AcDbLine
 10
68.08323447032012
 20
209.5065638995453
 30
0.0
 11
70.68122641367949
 21
208.0066249347015
 31
0.0
  0
ARC
  5
5B
330
18
100
AcDbEntity
  8
BLA43397
  6
Continuous
 62
     1
100
AcDbCircle
 10
73.86662070078887
 20
206.6577632403656
 30
0.0
 40
0.225010871887207
100
AcDbArc
 50
268.3912048339844
 51
0.0
  0
LINE
  5
5D
330
18
100
AcDbEntity
  8
BLA43397
  6
Continuous
 62
     1
100
AcDbLine
 10
71.74223105235137
 20
221.4921596026703
 30
0.0
 11
73.860303562117
 21
221.4328334307953
 31
0.0
  0
ARC
  5
5E
330
18
100
AcDbEntity
  8
BLA43397
  6
Continuous
 62
     1
100
AcDbCircle
 10
71.76319662852325
 20
222.2418696856781
 30
0.0
 40
0.7500178217887879
100
AcDbArc
 50
200.2670745849608
 51
268.3981323242187
  0
LINE
  5
5F
330
18
100
AcDbEntity
  8
BLA43397
  6
Continuous
 62
     1
100
AcDbLine
 10
70.68131796641387
 20
223.0065638995453
 30
0.0
 11
71.05961386485137
 21
221.9820582843109
 31
0.0
  0
LINE
  5
60
330
18
100
AcDbEntity
  8
BLA43397
  6
Continuous
 62
     1
100
AcDbLine
 10
68.08323447032012
 20
224.5065638995453
 30
0.0
 11
70.68122641367949
 21
223.0066249347016
 31
0.0
  0
ARC
  5
61
330
18
100
AcDbEntity
  8
BLA43397
  6
Continuous
 62
     1
100
AcDbCircle
 10
73.86662070078887
 20
221.6577632403656
 30
0.0
 40
0.225010871887207
100
AcDbArc
 50
268.3912048339844
 51
0.0
  0
LINE
  5
63
330
18
100
AcDbEntity
  8
BLA43397
  6
Continuous
 62
     1
100
AcDbLine
 10
71.74223105235137
 20
213.9921596026703
 30
0.0
 11
73.860303562117
 21
213.9328334307953
 31
0.0
  0
ARC
  5
64
330
18
100
AcDbEntity
  8
BLA43397
  6
Continuous
 62
     1
100
AcDbCircle
 10
71.76319662852325
 20
214.7418696856781
 30
0.0
 40
0.7500178217887879
100
AcDbArc
 50
200.2670745849608
 51
268.3981323242187
  0
LINE
  5
65
330
18
100
AcDbEntity
  8
BLA43397
  6
Continuous
 62
     1
100
AcDbLine
 10
70.68131796641387
 20
215.5065638995453
 30
0.0
 11
71.05961386485137
 21
214.4820582843109
 31
0.0
  0
LINE
  5
66
330
18
100
AcDbEntity
  8
BLA43397
  6
Continuous
 62
     1
100
AcDbLine
 10
68.08323447032012
 20
217.0065638995453
 30
0.0
 11
70.68122641367949
 21
215.5066249347016
 31
0.0
  0
ARC
  5
67
330
18
100
AcDbEntity
  8
BLA43397
  6
Continuous
 62
     1
100
AcDbCircle
 10
73.86662070078887
 20
214.1577632403656
 30
0.0
 40
0.225010871887207
100
AcDbArc
 50
268.3912048339844
 51
0.0
  0
LINE
  5
69
330
18
100
AcDbEntity
  8
BLA43397
  6
Continuous
 62
     1
100
AcDbLine
 10
71.74223105235137
 20
191.4921596026703
 30
0.0
 11
73.860303562117
 21
191.4328334307953
 31
0.0
  0
ARC
  5
6A
330
18
100
AcDbEntity
  8
BLA43397
  6
Continuous
 62
     1
100
AcDbCircle
 10
71.76319662852325
 20
192.2418696856781
 30
0.0
 40
0.7500178217887879
100
AcDbArc
 50
200.2670745849608
 51
268.3981323242187
  0
LINE
  5
6B
330
18
100
AcDbEntity
  8
BLA43397
  6
Continuous
 62
     1
100
AcDbLine
 10
70.68131796641387
 20
193.0065638995453
 30
0.0
 11
71.05961386485137
 21
191.9820582843109
 31
0.0
  0
LINE
  5
6C
330
18
100
AcDbEntity
  8
BLA43397
  6
Continuous
 62
     1
100
AcDbLine
 10
68.08323447032012
 20
194.5065638995453
 30
0.0
 11
70.68122641367949
 21
193.0066249347015
 31
0.0
  0
ARC
  5
6D
330
18
100
AcDbEntity
  8
BLA43397
  6
Continuous
 62
     1
100
AcDbCircle
 10
73.86662070078887
 20
191.6577632403656
 30
0.0
 40
0.225010871887207
100
AcDbArc
 50
268.3912048339844
 51
0.0
  0
LINE
  5
6F
330
18
100
AcDbEntity
  8
BLA43397
  6
Continuous
 62
     1
100
AcDbLine
 10
71.74223105235137
 20
198.9921596026703
 30
0.0
 11
73.860303562117
 21
198.9328334307953
 31
0.0
  0
ARC
  5
70
330
18
100
AcDbEntity
  8
BLA43397
  6
Continuous
 62
     1
100
AcDbCircle
 10
71.76319662852325
 20
199.7418696856781
 30
0.0
 40
0.7500178217887879
100
AcDbArc
 50
200.2670745849608
 51
268.3981323242187
  0
LINE
  5
71
330
18
100
AcDbEntity
  8
BLA43397
  6
Continuous
 62
     1
100
AcDbLine
 10
70.68131796641387
 20
200.5065638995453
 30
0.0
 11
71.05961386485137
 21
199.4820582843109
 31
0.0
  0
LINE
  5
72
330
18
100
AcDbEntity
  8
BLA43397
  6
Continuous
 62
     1
100
AcDbLine
 10
68.08323447032012
 20
202.0065638995453
 30
0.0
 11
70.68122641367949
 21
200.5066249347016
 31
0.0
  0
ARC
  5
73
330
18
100
AcDbEntity
  8
BLA43397
  6
Continuous
 62
     1
100
AcDbCircle
 10
73.86662070078887
 20
199.1577632403656
 30
0.0
 40
0.225010871887207
100
AcDbArc
 50
268.3912048339844
 51
0.0
  0
LINE
  5
75
330
18
100
AcDbEntity
  8
BLA43397
  6
Continuous
 62
     1
100
AcDbLine
 10
71.74223105235137
 20
176.4921596026703
 30
0.0
 11
73.860303562117
 21
176.4328334307953
 31
0.0
  0
ARC
  5
76
330
18
100
AcDbEntity
  8
BLA43397
  6
Continuous
 62
     1
100
AcDbCircle
 10
71.76319662852325
 20
177.2418696856781
 30
0.0
 40
0.7500178217887879
100
AcDbArc
 50
200.2670745849608
 51
268.3981323242187
  0
LINE
  5
77
330
18
100
AcDbEntity
  8
BLA43397
  6
Continuous
 62
     1
100
AcDbLine
 10
70.68131796641387
 20
178.0065638995453
 30
0.0
 11
71.05961386485137
 21
176.9820582843109
 31
0.0
  0
LINE
  5
78
330
18
100
AcDbEntity
  8
BLA43397
  6
Continuous
 62
     1
100
AcDbLine
 10
68.08323447032012
 20
179.5065638995453
 30
0.0
 11
70.68122641367949
 21
178.0066249347015
 31
0.0
  0
ARC
  5
79
330
18
100
AcDbEntity
  8
BLA43397
  6
Continuous
 62
     1
100
AcDbCircle
 10
73.86662070078887
 20
176.6577632403656
 30
0.0
 40
0.225010871887207
100
AcDbArc
 50
268.3912048339844
 51
0.0
  0
LINE
  5
7B
330
18
100
AcDbEntity
  8
BLA43397
  6
Continuous
 62
     7
100
AcDbLine
 10
71.18934408946074
 20
230.9632289386078
 30
0.0
 11
73.97913901133574
 21
229.3526027179047
 31
0.0
  0
ARC
  5
7C
330
18
100
AcDbEntity
  8
BLA43397
  6
Continuous
 62
     7
100
AcDbCircle
 10
73.86662070078887
 20
229.1577632403656
 30
0.0
 40
0.225010871887207
100
AcDbArc
 50
268.3912048339844
 51
59.99487304687499
  0
LINE
  5
7D
330
18
100
AcDbEntity
  8
BLA43397
  6
Continuous
 62
     1
100
AcDbLine
 10
71.74223105235137
 20
228.9921596026703
 30
0.0
 11
73.860303562117
 21
228.9328334307953
 31
0.0
  0
ARC
  5
7E
330
18
100
AcDbEntity
  8
BLA43397
  6
Continuous
 62
     1
100
AcDbCircle
 10
71.76319662852325
 20
229.7418696856781
 30
0.0
 40
0.7500178217887879
100
AcDbArc
 50
200.2670745849608
 51
268.3981323242187
  0
LINE
  5
7F
330
18
100
AcDbEntity
  8
BLA43397
  6
Continuous
 62
     1
100
AcDbLine
 10
70.68131796641387
 20
230.5065638995453
 30
0.0
 11
71.05961386485137
 21
229.4820582843109
 31
0.0
  0
LINE
  5
80
330
18
100
AcDbEntity
  8
BLA43397
  6
Continuous
 62
     1
100
AcDbLine
 10
68.08323447032012
 20
232.0065638995453
 30
0.0
 11
70.68122641367949
 21
230.5066249347015
 31
0.0
  0
LINE
  5
82
330
18
100
AcDbEntity
  8
BLA43397
  6
Continuous
 62
     7
100
AcDbLine
 10
99.81522909922638
 20
176.3057429766937
 30
0.0
 11
99.81522909922638
 21
243.8057429766938
 31
0.0
  0
LINE
  5
84
330
18
100
AcDbEntity
  8
BLA43397
  6
Continuous
 62
     7
100
AcDbLine
 10
96.28678671641388
 20
177.9531886554047
 30
0.0
 11
99.47767416758575
 21
176.1108729815765
 31
0.0
  0
LINE
  5
85
330
18
100
AcDbEntity
  8
BLA43397
  6
Continuous
 62
     1
100
AcDbLine
 10
96.10340658946075
 20
178.8090541339203
 30
0.0
 11
96.28678671641388
 21
178.7031733966156
 31
0.0
  0
LINE
  5
86
330
18
100
AcDbEntity
  8
BLA43397
  6
Continuous
 62
     1
100
AcDbLine
 10
99.81458823008575
 20
176.3226344561859
 30
0.0
 11
99.81522909922638
 21
176.314120051889
 31
0.0
  0
ARC
  5
87
330
18
100
AcDbEntity
  8
BLA43397
  6
Continuous
 62
     7
100
AcDbCircle
 10
99.59019247813262
 20
176.3057429766937
 30
0.0
 40
0.2250215113162994
100
AcDbArc
 50
239.9977569580078
 51
0.0
  0
LINE
  5
89
330
18
100
AcDbEntity
  8
BLA43397
  6
Continuous
 62
     1
100
AcDbLine
 10
96.28678671641388
 20
185.4531886554047
 30
0.0
 11
99.47767416758575
 21
183.6108729815765
 31
0.0
  0
LINE
  5
8A
330
18
100
AcDbEntity
  8
BLA43397
  6
Continuous
 62
     1
100
AcDbLine
 10
96.10340658946075
 20
186.3090541339203
 30
0.0
 11
96.28678671641388
 21
186.2031733966156
 31
0.0
  0
LINE
  5
8B
330
18
100
AcDbEntity
  8
BLA43397
  6
Continuous
 62
     1
100
AcDbLine
 10
99.81458823008575
 20
183.8226344561859
 30
0.0
 11
99.81522909922638
 21
183.814120051889
 31
0.0
  0
ARC
  5
8C
330
18
100
AcDbEntity
  8
BLA43397
  6
Continuous
 62
     1
100
AcDbCircle
 10
99.59019247813262
 20
183.8057429766937
 30
0.0
 40
0.2250215113162994
100
AcDbArc
 50
239.9977569580078
 51
0.0
  0
LINE
  5
8E
330
18
100
AcDbEntity
  8
BLA43397
  6
Continuous
 62
     1
100
AcDbLine
 10
96.28678671641388
 20
192.9531886554047
 30
0.0
 11
99.47767416758575
 21
191.1108729815765
 31
0.0
  0
LINE
  5
8F
330
18
100
AcDbEntity
  8
BLA43397
  6
Continuous
 62
     1
100
AcDbLine
 10
96.10340658946075
 20
193.8090541339203
 30
0.0
 11
96.28678671641388
 21
193.7031733966156
 31
0.0
  0
LINE
  5
90
330
18
100
AcDbEntity
  8
BLA43397
  6
Continuous
 62
     1
100
AcDbLine
 10
99.81458823008575
 20
191.3226344561859
 30
0.0
 11
99.81522909922638
 21
191.314120051889
 31
0.0
  0
ARC
  5
91
330
18
100
AcDbEntity
  8
BLA43397
  6
Continuous
 62
     1
100
AcDbCircle
 10
99.59019247813262
 20
191.3057429766937
 30
0.0
 40
0.2250215113162994
100
AcDbArc
 50
239.9977569580078
 51
0.0
  0
LINE
  5
93
330
18
100
AcDbEntity
  8
BLA43397
  6
Continuous
 62
     1
100
AcDbLine
 10
96.28678671641388
 20
200.4531886554047
 30
0.0
 11
99.47767416758575
 21
198.6108729815765
 31
0.0
  0
LINE
  5
94
330
18
100
AcDbEntity
  8
BLA43397
  6
Continuous
 62
     1
100
AcDbLine
 10
96.10340658946075
 20
201.3090541339203
 30
0.0
 11
96.28678671641388
 21
201.2031733966156
 31
0.0
  0
LINE
  5
95
330
18
100
AcDbEntity
  8
BLA43397
  6
Continuous
 62
     1
100
AcDbLine
 10
99.81458823008575
 20
198.8226344561859
 30
0.0
 11
99.81522909922638
 21
198.814120051889
 31
0.0
  0
ARC
  5
96
330
18
100
AcDbEntity
  8
BLA43397
  6
Continuous
 62
     1
100
AcDbCircle
 10
99.59019247813262
 20
198.8057429766937
 30
0.0
 40
0.2250215113162994
100
AcDbArc
 50
239.9977569580078
 51
0.0
  0
LINE
  5
98
330
18
100
AcDbEntity
  8
BLA43397
  6
Continuous
 62
     1
100
AcDbLine
 10
96.28678671641388
 20
207.9531886554047
 30
0.0
 11
99.47767416758575
 21
206.1108729815765
 31
0.0
  0
LINE
  5
99
330
18
100
AcDbEntity
  8
BLA43397
  6
Continuous
 62
     1
100
AcDbLine
 10
96.10340658946075
 20
208.8090541339203
 30
0.0
 11
96.28678671641388
 21
208.7031733966156
 31
0.0
  0
LINE
  5
9A
330
18
100
AcDbEntity
  8
BLA43397
  6
Continuous
 62
     1
100
AcDbLine
 10
99.81458823008575
 20
206.3226344561859
 30
0.0
 11
99.81522909922638
 21
206.3141200518891
 31
0.0
  0
ARC
  5
9B
330
18
100
AcDbEntity
  8
BLA43397
  6
Continuous
 62
     1
100
AcDbCircle
 10
99.59019247813262
 20
206.3057429766938
 30
0.0
 40
0.2250215113162994
100
AcDbArc
 50
239.9977569580078
 51
0.0
  0
LINE
  5
9D
330
18
100
AcDbEntity
  8
BLA43397
  6
Continuous
 62
     1
100
AcDbLine
 10
96.28678671641388
 20
215.4531886554047
 30
0.0
 11
99.47767416758575
 21
213.6108729815766
 31
0.0
  0
LINE
  5
9E
330
18
100
AcDbEntity
  8
BLA43397
  6
Continuous
 62
     1
100
AcDbLine
 10
96.10340658946075
 20
216.3090541339203
 30
0.0
 11
96.28678671641388
 21
216.2031733966156
 31
0.0
  0
LINE
  5
9F
330
18
100
AcDbEntity
  8
BLA43397
  6
Continuous
 62
     1
100
AcDbLine
 10
99.81458823008575
 20
213.8226344561859
 30
0.0
 11
99.81522909922638
 21
213.8141200518891
 31
0.0
  0
ARC
  5
A0
330
18
100
AcDbEntity
  8
BLA43397
  6
Continuous
 62
     1
100
AcDbCircle
 10
99.59019247813262
 20
213.8057429766937
 30
0.0
 40
0.2250215113162994
100
AcDbArc
 50
239.9977569580078
 51
0.0
  0
LINE
  5
A2
330
18
100
AcDbEntity
  8
BLA43397
  6
Continuous
 62
     1
100
AcDbLine
 10
96.28678671641388
 20
222.9531886554047
 30
0.0
 11
99.47767416758575
 21
221.1108729815766
 31
0.0
  0
LINE
  5
A3
330
18
100
AcDbEntity
  8
BLA43397
  6
Continuous
 62
     1
100
AcDbLine
 10
96.10340658946075
 20
223.8090541339203
 30
0.0
 11
96.28678671641388
 21
223.7031733966156
 31
0.0
  0
LINE
  5
A4
330
18
100
AcDbEntity
  8
BLA43397
  6
Continuous
 62
     1
100
AcDbLine
 10
99.81458823008575
 20
221.322634456186
 30
0.0
 11
99.81522909922638
 21
221.3141200518891
 31
0.0
  0
ARC
  5
A5
330
18
100
AcDbEntity
  8
BLA43397
  6
Continuous
 62
     1
100
AcDbCircle
 10
99.59019247813262
 20
221.3057429766938
 30
0.0
 40
0.2250215113162994
100
AcDbArc
 50
239.9977569580078
 51
0.0
  0
LINE
  5
A7
330
18
100
AcDbEntity
  8
BLA43397
  6
Continuous
 62
     1
100
AcDbLine
 10
96.28678671641388
 20
230.4531886554047
 30
0.0
 11
99.47767416758575
 21
228.6108729815766
 31
0.0
  0
LINE
  5
A8
330
18
100
AcDbEntity
  8
BLA43397
  6
Continuous
 62
     1
100
AcDbLine
 10
96.10340658946075
 20
231.3090541339203
 30
0.0
 11
96.28678671641388
 21
231.2031733966156
 31
0.0
  0
LINE
  5
A9
330
18
100
AcDbEntity
  8
BLA43397
  6
Continuous
 62
     1
100
AcDbLine
 10
99.81458823008575
 20
228.8226344561859
 30
0.0
 11
99.81522909922638
 21
228.8141200518891
 31
0.0
  0
ARC
  5
AA
330
18
100
AcDbEntity
  8
BLA43397
  6
Continuous
 62
     1
100
AcDbCircle
 10
99.59019247813262
 20
228.8057429766937
 30
0.0
 40
0.2250215113162994
100
AcDbArc
 50
239.9977569580078
 51
0.0
  0
LINE
  5
AC
330
18
100
AcDbEntity
  8
BLA43397
  6
Continuous
 62
     1
100
AcDbLine
 10
96.28678671641388
 20
237.9531886554047
 30
0.0
 11
99.47767416758575
 21
236.1108729815766
 31
0.0
  0
LINE
  5
AD
330
18
100
AcDbEntity
  8
BLA43397
  6
Continuous
 62
     1
100
AcDbLine
 10
96.10340658946075
 20
238.8090541339203
 30
0.0
 11
96.28678671641388
 21
238.7031733966156
 31
0.0
  0
LINE
  5
AE
330
18
100
AcDbEntity
  8
BLA43397
  6
Continuous
 62
     1
100
AcDbLine
 10
99.81458823008575
 20
236.3226344561859
 30
0.0
 11
99.81522909922638
 21
236.314120051889
 31
0.0
  0
ARC
  5
AF
330
18
100
AcDbEntity
  8
BLA43397
  6
Continuous
 62
     1
100
AcDbCircle
 10
99.59019247813262
 20
236.3057429766938
 30
0.0
 40
0.2250215113162994
100
AcDbArc
 50
239.9977569580078
 51
0.0
  0
LINE
  5
B1
330
18
100
AcDbEntity
  8
BLA43397
  6
Continuous
 62
     1
100
AcDbLine
 10
96.28678671641388
 20
245.4531886554047
 30
0.0
 11
99.47767416758575
 21
243.6108729815765
 31
0.0
  0
LINE
  5
B2
330
18
100
AcDbEntity
  8
BLA43397
  6
Continuous
 62
     7
100
AcDbLine
 10
99.81458823008575
 20
243.8226344561859
 30
0.0
 11
99.73942343516387
 21
244.8206813311859
 31
0.0
  0
ARC
  5
B3
330
18
100
AcDbEntity
  8
BLA43397
  6
Continuous
 62
     7
100
AcDbCircle
 10
98.9915291480545
 20
244.7643916583344
 30
0.0
 40
0.7499924898147583
100
AcDbArc
 50
4.303625106811487
 51
83.24194145202637
  0
ARC
  5
B4
330
18
100
AcDbEntity
  8
BLA43397
  6
Continuous
 62
     1
100
AcDbCircle
 10
99.59019247813262
 20
243.8057429766938
 30
0.0
 40
0.2250215113162994
100
AcDbArc
 50
239.9977569580078
 51
4.304847717285208
  0
LINE
  5
B5
330
18
100
AcDbEntity
  8
BLA43397
  6
Continuous
 62
     7
100
AcDbLine
 10
97.07771078867949
 20
245.7465236163422
 30
0.0
 11
99.079785983992
 21
245.509173152475
 31
0.0
  0
LINE
  5
B6
330
18
100
AcDbEntity
  8
BLA43397
  6
Continuous
 62
     7
100
AcDbLine
 10
96.10340658946075
 20
246.3090541339203
 30
0.0
 11
97.07771078867949
 21
245.7465236163422
 31
0.0
  0
ELLIPSE
  5
B8
330
18
100
AcDbEntity
  8
BLA43397
  6
Continuous
 62
     1
100
AcDbEllipse
 10
79.82652060313262
 20
158.9115779376312
 30
0.0
 11
1.148203437694192
 21
1.988736906425394
 31
0.0
210
0.0
220
0.0
230
1.0
 40
0.5773509667410835
 41
0.0000330788460499
 42
3.141856368674856
  0
ELLIPSE
  5
B9
330
18
100
AcDbEntity
  8
BLA43397
  6
Continuous
 62
     1
100
AcDbEllipse
 10
83.72364584727325
 20
156.6615779376312
 30
0.0
 11
1.148203437694192
 21
1.988736906425394
 31
0.0
210
0.0
220
0.0
230
1.0
 40
0.5773509667410835
 41
5.921838632469746
 42
9.786166918779922
  0
LINE
  5
BA
330
18
100
AcDbEntity
  8
BLA43397
  6
Continuous
 62
     1
100
AcDbLine
 10
82.57548300547638
 20
154.6728389239594
 30
0.0
 11
78.67835776133574
 21
156.9228389239594
 31
0.0
  0
LINE
  5
BB
330
18
100
AcDbEntity
  8
BLA43397
  6
Continuous
 62
     1
100
AcDbLine
 10
84.87180868907012
 20
158.6503169513031
 30
0.0
 11
80.9746834449295
 21
160.9003169513031
 31
0.0
  0
LINE
  5
BC
330
18
100
AcDbEntity
  8
BLA43397
  6
Continuous
 62
     1
100
AcDbLine
 10
86.61771933360137
 20
155.4867732501312
 30
0.0
 11
85.20359579844512
 21
158.287508723764
 31
0.0
  0
LINE
  5
BD
330
18
100
AcDbEntity
  8
BLA43397
  6
Continuous
 62
     1
100
AcDbLine
 10
86.18815390391388
 20
154.7426631427093
 30
0.0
 11
83.05558554453886
 21
154.5669276690765
 31
0.0
  0
ELLIPSE
  5
BE
330
18
100
AcDbEntity
  8
BLA43397
  6
Continuous
 62
     1
100
AcDbEllipse
 10
86.32172934336699
 20
155.1615779376312
 30
0.0
 11
0.2296406607166493
 21
0.3977473348279132
 31
0.0
210
0.0
220
0.0
230
1.0
 40
0.5773510341760785
 41
3.50312237014815
 42
5.92187165266484
  0
ELLIPSE
  5
C0
330
18
100
AcDbEntity
  8
BLA43397
  6
Continuous
 62
     1
100
AcDbEllipse
 10
86.42564169688261
 20
162.721575496225
 30
0.0
 11
0.9185626428665973
 21
1.590989339311652
 31
0.0
210
0.0
220
0.0
230
1.0
 40
0.5773510341760785
 41
0.0000330600756897
 42
3.141856811144487
  0
LINE
  5
C1
330
18
100
AcDbEntity
  8
BLA43397
  6
Continuous
 62
     1
100
AcDbLine
 10
85.50709311289825
 20
161.1306025958344
 30
0.0
 11
88.45545737071075
 21
159.4283626056
 31
0.0
  0
LINE
  5
C2
330
18
100
AcDbEntity
  8
BLA43397
  6
Continuous
 62
     1
100
AcDbLine
 10
87.344190280867
 20
164.3125483966156
 30
0.0
 11
90.2925545386795
 21
162.6103084063812
 31
0.0
  0
ELLIPSE
  5
C3
330
18
100
AcDbEntity
  8
BLA43397
  6
Continuous
 62
     1
100
AcDbEllipse
 10
90.06294028086699
 20
160.6215846514984
 30
0.0
 11
1.148203437694192
 21
1.988736906425394
 31
0.0
210
0.0
220
0.0
230
1.0
 40
0.5773509667410835
 41
0.0000330788460499
 42
3.141856368674856
  0
ELLIPSE
  5
C4
330
18
100
AcDbEntity
  8
BLA43397
  6
Continuous
 62
     1
100
AcDbEllipse
 10
91.10215536875761
 20
160.0215938067719
 30
0.0
 11
1.148203437694192
 21
1.988736906425394
 31
0.0
210
0.0
220
0.0
230
1.0
 40
0.5773509667410835
 41
0.0000330788460499
 42
3.141856368674856
  0
ELLIPSE
  5
C5
330
18
100
AcDbEntity
  8
BLA43397
  6
Continuous
 62
     1
100
AcDbEllipse
 10
92.14137045664825
 20
159.4216029620453
 30
0.0
 11
1.148203437694192
 21
1.988736906425394
 31
0.0
210
0.0
220
0.0
230
1.0
 40
0.5773509667410835
 41
0.0000330788460499
 42
3.141856368674856
  0
ELLIPSE
  5
C6
330
18
100
AcDbEntity
  8
BLA43397
  6
Continuous
 62
     1
100
AcDbEllipse
 10
93.18058554453887
 20
158.8216121173187
 30
0.0
 11
1.148203437694192
 21
1.988736906425394
 31
0.0
210
0.0
220
0.0
230
1.0
 40
0.5773509667410835
 41
0.0000330788460499
 42
3.141856368674856
  0
ELLIPSE
  5
C7
330
18
100
AcDbEntity
  8
BLA43397
  6
Continuous
 62
     1
100
AcDbEllipse
 10
94.2198006324295
 20
158.2216212725922
 30
0.0
 11
1.148203437694192
 21
1.988736906425394
 31
0.0
210
0.0
220
0.0
230
1.0
 40
0.5773509667410835
 41
0.0000330788460499
 42
3.141856368674856
  0
ELLIPSE
  5
C8
330
18
100
AcDbEntity
  8
BLA43397
  6
Continuous
 62
     1
100
AcDbEllipse
 10
95.25901572032012
 20
157.6216304278656
 30
0.0
 11
1.148203437694192
 21
1.988736906425394
 31
0.0
210
0.0
220
0.0
230
1.0
 40
0.5773509667410835
 41
0.0000330788460499
 42
3.141856368674856
  0
ELLIPSE
  5
C9
330
18
100
AcDbEntity
  8
BLA43397
  6
Continuous
 62
     1
100
AcDbEllipse
 10
96.29823080821076
 20
157.021639583139
 30
0.0
 11
1.148203437694192
 21
1.988736906425394
 31
0.0
210
0.0
220
0.0
230
1.0
 40
0.5773509667410835
 41
0.0000330788460499
 42
3.141856368674856
  0
ELLIPSE
  5
CA
330
18
100
AcDbEntity
  8
BLA43397
  6
Continuous
 62
     1
100
AcDbEllipse
 10
97.33744589610138
 20
156.4216487384125
 30
0.0
 11
1.148203437694192
 21
1.988736906425394
 31
0.0
210
0.0
220
0.0
230
1.0
 40
0.5773509667410835
 41
5.825420639347316
 42
9.88257873714194
  0
LINE
  5
CB
330
18
100
AcDbEntity
  8
BLA43397
  6
Continuous
 62
     1
100
AcDbLine
 10
96.18928305430451
 20
154.4329097247406
 30
0.0
 11
88.91477743907012
 21
158.6328456378265
 31
0.0
  0
LINE
  5
CC
330
18
100
AcDbEntity
  8
BLA43397
  6
Continuous
 62
     1
100
AcDbLine
 10
98.48560873789825
 20
158.4103877520844
 30
0.0
 11
91.21110312266386
 21
162.6103236651703
 31
0.0
  0
LINE
  5
CD
330
18
100
AcDbEntity
  8
BLA43397
  6
Continuous
 62
     1
100
AcDbLine
 10
99.72340170664825
 20
155.5198848223968
 30
0.0
 11
98.87489096446074
 21
157.9126765704437
 31
0.0
  0
LINE
  5
CE
330
18
100
AcDbEntity
  8
BLA43397
  6
Continuous
 62
     1
100
AcDbLine
 10
99.31132284922638
 20
154.8062617755219
 30
0.0
 11
96.81486288828887
 21
154.3446986651703
 31
0.0
  0
ELLIPSE
  5
CF
330
18
100
AcDbEntity
  8
BLA43397
  6
Continuous
 62
     1
100
AcDbEllipse
 10
99.41587607188262
 20
155.2216670489594
 30
0.0
 11
0.2296406607166493
 21
0.3977473348279132
 31
0.0
210
0.0
220
0.0
230
1.0
 40
0.5773510341760785
 41
3.599365299305263
 42
5.825426302606951
  0
LINE
  5
D3
330
18
100
AcDbEntity
  8
BLA43397
  6
Continuous
 62
     7
100
AcDbLine
 10
100.4506889991287
 20
124.2043025470062
 30
0.0
 11
99.80116812510528
 21
124.5793025470062
 31
0.0
  0
LINE
  5
D4
330
18
100
AcDbEntity
  8
BLA43397
  6
Continuous
 62
     7
100
AcDbLine
 10
99.80112234873809
 20
124.5793025470062
 30
0.0
 11
99.80112234873809
 21
132.0793025470062
 31
0.0
  0
LINE
  5
D5
330
18
100
AcDbEntity
  8
BLA43397
  6
Continuous
 62
     1
100
AcDbLine
 10
100.4506889991287
 20
124.2043025470062
 30
0.0
 11
100.4506889991287
 21
131.7043025470062
 31
0.0
  0
LINE
  5
D6
330
18
100
AcDbEntity
  8
BLA43397
  6
Continuous
 62
     1
100
AcDbLine
 10
100.4506889991287
 20
131.7043025470062
 30
0.0
 11
99.80116812510528
 21
132.0793178057953
 31
0.0
  0
LINE
  5
D8
330
18
100
AcDbEntity
  8
BLA43397
  6
Continuous
 62
     7
100
AcDbLine
 10
142.0566536597732
 20
134.526262996225
 30
0.0
 11
143.6693550757889
 21
135.4573543048187
 31
0.0
  0
LINE
  5
D9
330
18
100
AcDbEntity
  8
BLA43397
  6
Continuous
 62
     7
100
AcDbLine
 10
144.2217842750076
 20
135.2262141681
 30
0.0
 11
147.4693810157303
 21
137.1012141681
 31
0.0
  0
LINE
  5
DA
330
18
100
AcDbEntity
  8
BLA43397
  6
Continuous
 62
     1
100
AcDbLine
 10
145.0881478003982
 20
139.2270839190765
 30
0.0
 11
147.286702793074
 21
140.4964320636078
 31
0.0
  0
LINE
  5
DB
330
18
100
AcDbEntity
  8
BLA43397
  6
Continuous
 62
     1
100
AcDbLine
 10
145.0881478003982
 20
141.7493388629242
 30
0.0
 11
147.1126915626053
 21
142.9181926226898
 31
0.0
  0
LINE
  5
DC
330
18
100
AcDbEntity
  8
BLA43397
  6
Continuous
 62
     7
100
AcDbLine
 10
149.7860008887771
 20
131.5637080645843
 30
0.0
 11
158.6732994727615
 21
136.6947810626312
 31
0.0
  0
LINE
  5
DD
330
18
100
AcDbEntity
  8
BLA43397
  6
Continuous
 62
     7
100
AcDbLine
 10
162.7764183692459
 20
132.0137050128265
 30
0.0
 11
195.2523705176834
 21
150.7637050128265
 31
0.0
  0
LINE
  5
DE
330
18
100
AcDbEntity
  8
BLA43397
  6
Continuous
 62
     1
100
AcDbLine
 10
162.8524071387771
 20
133.0819728350922
 30
0.0
 11
195.3283592872146
 21
151.8319728350922
 31
0.0
  0
LINE
  5
DF
330
18
100
AcDbEntity
  8
BLA43397
  6
Continuous
 62
     1
100
AcDbLine
 10
162.7763573340896
 20
135.4637019610687
 30
0.0
 11
195.2523094825271
 21
154.2137019610687
 31
0.0
  0
LINE
  5
E0
330
18
100
AcDbEntity
  8
BLA43397
  6
Continuous
 62
     1
100
AcDbLine
 10
162.8524071387771
 20
136.5319774127289
 30
0.0
 11
195.3283592872146
 21
155.2819697833343
 31
0.0
  0
LINE
  5
E1
330
18
100
AcDbEntity
  8
BLA43397
  6
Continuous
 62
     1
100
AcDbLine
 10
160.2543236426834
 20
134.5819728350922
 30
0.0
 11
162.2028404883865
 21
135.7069728350922
 31
0.0
  0
LINE
  5
E2
330
18
100
AcDbEntity
  8
BLA43397
  6
Continuous
 62
     1
100
AcDbLine
 10
148.303304355574
 20
145.8319117999359
 30
0.0
 11
180.7792565040115
 21
164.581927058725
 31
0.0
  0
LINE
  5
E3
330
18
100
AcDbEntity
  8
BLA43397
  6
Continuous
 62
     7
100
AcDbLine
 10
143.2369515113357
 20
148.7569301104828
 30
0.0
 11
175.7129112891677
 21
167.5069453692719
 31
0.0
  0
LINE
  5
E4
330
18
100
AcDbEntity
  8
BLA43397
  6
Continuous
 62
     1
100
AcDbLine
 10
141.1585213355545
 20
149.9569117999359
 30
0.0
 11
173.6344811133865
 21
168.706927058725
 31
0.0
  0
LINE
  5
E5
330
18
100
AcDbEntity
  8
BLA43397
  6
Continuous
 62
     7
100
AcDbLine
 10
139.7944771461014
 20
150.7444484210297
 30
0.0
 11
172.2704369239334
 21
169.4944789386078
 31
0.0
  0
LINE
  5
E6
330
18
100
AcDbEntity
  8
BLA43397
  6
Continuous
 62
     1
100
AcDbLine
 10
133.0395332984451
 20
154.644427058725
 30
0.0
 11
165.5154930762771
 21
173.394442317514
 31
0.0
  0
LINE
  5
E7
330
18
100
AcDbEntity
  8
BLA43397
  6
Continuous
 62
     1
100
AcDbLine
 10
134.3981758765701
 20
152.8721034503265
 30
0.0
 11
166.8741356544021
 21
171.6221034503265
 31
0.0
  0
LINE
  5
E8
330
18
100
AcDbEntity
  8
BLA43397
  6
Continuous
 62
     1
100
AcDbLine
 10
131.2320076636795
 20
155.6001002764984
 30
0.0
 11
163.7079674415115
 21
174.3501002764984
 31
0.0
  0
LINE
  5
E9
330
18
100
AcDbEntity
  8
BLA43397
  6
Continuous
 62
     7
100
AcDbLine
 10
129.9330116919998
 20
156.0501430011078
 30
0.0
 11
162.4089562110428
 21
174.8001430011078
 31
0.0
  0
LINE
  5
EB
330
18
100
AcDbEntity
  8
BLA43397
  6
Continuous
 62
     7
100
AcDbLine
 10
115.8052727393631
 20
127.1442515826508
 30
0.0
 11
114.5062309913162
 21
127.8942515826507
 31
0.0
  0
LINE
  5
EC
330
18
100
AcDbEntity
  8
BLA43397
  6
Continuous
 62
     1
100
AcDbLine
 10
115.8052727393631
 20
129.0571086383148
 30
0.0
 11
114.5062309913162
 21
129.8071315264984
 31
0.0
  0
LINE
  5
ED
330
18
100
AcDbEntity
  8
BLA43397
  6
Continuous
 62
     7
100
AcDbLine
 10
115.8052727393631
 20
132.7313716388031
 30
0.0
 11
114.5062309913162
 21
133.4813716388031
 31
0.0
  0
LINE
  5
EE
330
18
100
AcDbEntity
  8
BLA43397
  6
Continuous
 62
     1
100
AcDbLine
 10
115.8052727393631
 20
134.6442515826508
 30
0.0
 11
114.5062309913162
 21
135.3942515826508
 31
0.0
  0
LINE
  5
F0
330
18
100
AcDbEntity
  8
BLA43397
  6
Continuous
 62
     1
100
AcDbLine
 10
160.574788730574
 20
143.8469874835297
 30
0.0
 11
158.6262413672927
 21
142.7219951129242
 31
0.0
  0
LINE
  5
F1
330
18
100
AcDbEntity
  8
BLA43397
  6
Continuous
 62
     1
100
AcDbLine
 10
160.574788730574
 20
146.0969874835297
 30
0.0
 11
160.574788730574
 21
143.8469874835297
 31
0.0
  0
LINE
  5
F2
330
18
100
AcDbEntity
  8
BLA43397
  6
Continuous
 62
     1
100
AcDbLine
 10
163.8223931006912
 20
141.9719951129242
 30
0.0
 11
160.574788730574
 21
143.8469874835297
 31
0.0
  0
LINE
  5
F4
330
18
100
AcDbEntity
  8
BLA43397
  6
Continuous
 62
     1
100
AcDbLine
 10
156.6776787452224
 20
143.8469874835297
 30
0.0
 11
161.8738304786209
 21
140.8469874835297
 31
0.0
  0
LINE
  5
F5
330
18
100
AcDbEntity
  8
BLA43397
  6
Continuous
 62
     1
100
AcDbLine
 10
161.8738304786209
 20
140.8469874835297
 30
0.0
 11
165.7709404639724
 21
143.0969874835296
 31
0.0
  0
LINE
  5
F6
330
18
100
AcDbEntity
  8
BLA43397
  6
Continuous
 62
     1
100
AcDbLine
 10
165.7709404639724
 20
143.0969874835296
 30
0.0
 11
160.574788730574
 21
146.0969874835297
 31
0.0
  0
LINE
  5
F7
330
18
100
AcDbEntity
  8
BLA43397
  6
Continuous
 62
     1
100
AcDbLine
 10
160.574788730574
 20
146.0969874835297
 30
0.0
 11
156.6776787452224
 21
143.8469874835297
 31
0.0
  0
LINE
  5
F9
330
18
100
AcDbEntity
  8
BLA43397
  6
Continuous
 62
     1
100
AcDbLine
 10
167.1738945655349
 20
147.6569850421234
 30
0.0
 11
165.2253472022537
 21
146.531992671518
 31
0.0
  0
LINE
  5
FA
330
18
100
AcDbEntity
  8
BLA43397
  6
Continuous
 62
     1
100
AcDbLine
 10
167.1738945655349
 20
149.9069850421234
 30
0.0
 11
167.1738945655349
 21
147.6569850421234
 31
0.0
  0
LINE
  5
FB
330
18
100
AcDbEntity
  8
BLA43397
  6
Continuous
 62
     1
100
AcDbLine
 10
170.4214989356521
 20
145.7819926715179
 30
0.0
 11
167.1738945655349
 21
147.6569850421234
 31
0.0
  0
LINE
  5
FD
330
18
100
AcDbEntity
  8
BLA43397
  6
Continuous
 62
     1
100
AcDbLine
 10
163.2767845801834
 20
147.6569850421234
 30
0.0
 11
168.4729363135818
 21
144.6569850421234
 31
0.0
  0
LINE
  5
FE
330
18
100
AcDbEntity
  8
BLA43397
  6
Continuous
 62
     1
100
AcDbLine
 10
168.4729363135818
 20
144.6569850421234
 30
0.0
 11
172.3700462989334
 21
146.9069850421234
 31
0.0
  0
LINE
  5
FF
330
18
100
AcDbEntity
  8
BLA43397
  6
Continuous
 62
     1
100
AcDbLine
 10
172.3700462989334
 20
146.9069850421234
 30
0.0
 11
167.1738945655349
 21
149.9069850421234
 31
0.0
  0
LINE
  5
100
330
18
100
AcDbEntity
  8
BLA43397
  6
Continuous
 62
     1
100
AcDbLine
 10
167.1738945655349
 20
149.9069850421234
 30
0.0
 11
163.2767845801834
 21
147.6569850421234
 31
0.0
  0
LINE
  5
102
330
18
100
AcDbEntity
  8
BLA43397
  6
Continuous
 62
     1
100
AcDbLine
 10
173.7730004004959
 20
151.4669826007172
 30
0.0
 11
171.8244530372146
 21
150.3419902301117
 31
0.0
  0
LINE
  5
103
330
18
100
AcDbEntity
  8
BLA43397
  6
Continuous
 62
     1
100
AcDbLine
 10
173.7730004004959
 20
153.7169826007172
 30
0.0
 11
173.7730004004959
 21
151.4669826007172
 31
0.0
  0
LINE
  5
104
330
18
100
AcDbEntity
  8
BLA43397
  6
Continuous
 62
     1
100
AcDbLine
 10
177.0206047706131
 20
149.5919902301117
 30
0.0
 11
173.7730004004959
 21
151.4669826007172
 31
0.0
  0
LINE
  5
106
330
18
100
AcDbEntity
  8
BLA43397
  6
Continuous
 62
     1
100
AcDbLine
 10
169.8758904151443
 20
151.4669826007172
 30
0.0
 11
175.0720421485427
 21
148.4669826007172
 31
0.0
  0
LINE
  5
107
330
18
100
AcDbEntity
  8
BLA43397
  6
Continuous
 62
     1
100
AcDbLine
 10
175.0720421485427
 20
148.4669826007172
 30
0.0
 11
178.9691521338943
 21
150.7169826007172
 31
0.0
  0
LINE
  5
108
330
18
100
AcDbEntity
  8
BLA43397
  6
Continuous
 62
     1
100
AcDbLine
 10
178.9691521338943
 20
150.7169826007172
 30
0.0
 11
173.7730004004959
 21
153.7169826007172
 31
0.0
  0
LINE
  5
109
330
18
100
AcDbEntity
  8
BLA43397
  6
Continuous
 62
     1
100
AcDbLine
 10
173.7730004004959
 20
153.7169826007172
 30
0.0
 11
169.8758904151443
 21
151.4669826007172
 31
0.0
  0
LINE
  5
10B
330
18
100
AcDbEntity
  8
BLA43397
  6
Continuous
 62
     1
100
AcDbLine
 10
180.3721062354568
 20
155.2769801593109
 30
0.0
 11
178.4235588721756
 21
154.1519877887054
 31
0.0
  0
LINE
  5
10C
330
18
100
AcDbEntity
  8
BLA43397
  6
Continuous
 62
     1
100
AcDbLine
 10
180.3721062354568
 20
157.5269801593109
 30
0.0
 11
180.3721062354568
 21
155.2769801593109
 31
0.0
  0
LINE
  5
10D
330
18
100
AcDbEntity
  8
BLA43397
  6
Continuous
 62
     1
100
AcDbLine
 10
183.619710605574
 20
153.4019877887054
 30
0.0
 11
180.3721062354568
 21
155.2769801593109
 31
0.0
  0
LINE
  5
10F
330
18
100
AcDbEntity
  8
BLA43397
  6
Continuous
 62
     1
100
AcDbLine
 10
176.4749962501053
 20
155.2769801593109
 30
0.0
 11
181.6711479835037
 21
152.2769801593109
 31
0.0
  0
LINE
  5
110
330
18
100
AcDbEntity
  8
BLA43397
  6
Continuous
 62
     1
100
AcDbLine
 10
181.6711479835037
 20
152.2769801593109
 30
0.0
 11
185.5682579688552
 21
154.5269801593109
 31
0.0
  0
LINE
  5
111
330
18
100
AcDbEntity
  8
BLA43397
  6
Continuous
 62
     1
100
AcDbLine
 10
185.5682579688552
 20
154.5269801593109
 30
0.0
 11
180.3721062354568
 21
157.5269801593109
 31
0.0
  0
LINE
  5
112
330
18
100
AcDbEntity
  8
BLA43397
  6
Continuous
 62
     1
100
AcDbLine
 10
180.3721062354568
 20
157.5269801593109
 30
0.0
 11
176.4749962501053
 21
155.2769801593109
 31
0.0
  0
LINE
  5
114
330
18
100
AcDbEntity
  8
BLA43397
  6
Continuous
 62
     1
100
AcDbLine
 10
186.9712120704178
 20
159.0869777179047
 30
0.0
 11
185.0226647071365
 21
157.9619777179047
 31
0.0
  0
LINE
  5
115
330
18
100
AcDbEntity
  8
BLA43397
  6
Continuous
 62
     1
100
AcDbLine
 10
186.9712120704178
 20
161.3369777179047
 30
0.0
 11
186.9712120704178
 21
159.0869777179047
 31
0.0
  0
LINE
  5
116
330
18
100
AcDbEntity
  8
BLA43397
  6
Continuous
 62
     1
100
AcDbLine
 10
190.218816440535
 20
157.2119777179047
 30
0.0
 11
186.9712120704178
 21
159.0869777179047
 31
0.0
  0
LINE
  5
118
330
18
100
AcDbEntity
  8
BLA43397
  6
Continuous
 62
     1
100
AcDbLine
 10
183.0741020850662
 20
159.0869777179047
 30
0.0
 11
188.2702538184646
 21
156.0869777179047
 31
0.0
  0
LINE
  5
119
330
18
100
AcDbEntity
  8
BLA43397
  6
Continuous
 62
     1
100
AcDbLine
 10
188.2702538184646
 20
156.0869777179047
 30
0.0
 11
192.1673638038162
 21
158.3369777179047
 31
0.0
  0
LINE
  5
11A
330
18
100
AcDbEntity
  8
BLA43397
  6
Continuous
 62
     1
100
AcDbLine
 10
192.1673638038162
 20
158.3369777179047
 30
0.0
 11
186.9712120704178
 21
161.3369777179047
 31
0.0
  0
LINE
  5
11B
330
18
100
AcDbEntity
  8
BLA43397
  6
Continuous
 62
     1
100
AcDbLine
 10
186.9712120704178
 20
161.3369777179047
 30
0.0
 11
183.0741020850662
 21
159.0869777179047
 31
0.0
  0
ELLIPSE
  5
1C4
330
18
100
AcDbEntity
  8
BZA45847
  6
Continuous
 62
     1
100
AcDbEllipse
 10
103.7502495460037
 20
129.8592936969086
 30
0.0
 11
1.148203834918675
 21
1.988736677086551
 31
0.0
210
0.0
220
0.0
230
1.0
 40
0.5773509148296689
 41
0.0
 42
6.283185307179586
  0
LINE
  5
1C5
330
18
100
AcDbEntity
  8
BZA45847
  6
Continuous
 62
     1
100
AcDbLine
 10
133.4292198829178
 20
150.7444789386078
 30
0.0
 11
100.4506889991287
 21
131.7043025470062
 31
0.0
  0
LINE
  5
1C6
330
18
100
AcDbEntity
  8
BZA45847
  6
Continuous
 62
     7
100
AcDbLine
 10
115.5126244239334
 20
132.9003322100922
 30
0.0
 11
100.4506889991287
 21
124.2043025470062
 31
0.0
  0
ELLIPSE
  5
1C7
330
18
100
AcDbEntity
  8
BZA45847
  6
Continuous
 62
     1
100
AcDbEllipse
 10
110.3493248633865
 20
133.6692836261078
 30
0.0
 11
1.148203834918675
 21
1.988736677086551
 31
0.0
210
0.0
220
0.0
230
1.0
 40
0.5773509148296689
 41
0.0
 42
6.283185307179586
  0
ELLIPSE
  5
1C8
330
18
100
AcDbEntity
  8
BZA45847
  6
Continuous
 62
     1
100
AcDbEllipse
 10
123.5475212745193
 20
141.2892863726898
 30
0.0
 11
1.148203834918675
 21
1.988736677086551
 31
0.0
210
0.0
220
0.0
230
1.0
 40
0.5773509148296689
 41
5.129508860644822
 42
9.007663685848982
  0
ELLIPSE
  5
1C9
330
18
100
AcDbEntity
  8
BZA45847
  6
Continuous
 62
     1
100
AcDbEllipse
 10
130.1466881446365
 20
145.0992991900726
 30
0.0
 11
1.148203834918675
 21
1.988736677086551
 31
0.0
210
0.0
220
0.0
230
1.0
 40
0.5773509148296689
 41
5.129512945255521
 42
9.007661221041232
  0
ELLIPSE
  5
1CA
330
18
100
AcDbEntity
  8
BZA45847
  6
Continuous
 62
     1
100
AcDbEllipse
 10
116.9484001807693
 20
137.479273555307
 30
0.0
 11
1.148203834918675
 21
1.988736677086551
 31
0.0
210
0.0
220
0.0
230
1.0
 40
0.5773509148296689
 41
5.129512945255521
 42
9.007651361843928
  0
ELLIPSE
  5
1CC
330
18
100
AcDbEntity
  8
BZA45847
  6
Continuous
 62
     1
100
AcDbEllipse
 10
103.1006828956131
 20
130.2342936969086
 30
0.0
 11
1.148203834918675
 21
1.988736677086551
 31
0.0
210
0.0
220
0.0
230
1.0
 40
0.5773509148296689
 41
3.428354407464355
 42
5.996433160073098
  0
LINE
  5
1CD
330
18
100
AcDbEntity
  8
BZA45847
  6
Continuous
 62
     7
100
AcDbLine
 10
132.7796990088943
 20
151.1194789386078
 30
0.0
 11
99.80112234873809
 21
132.0793025470062
 31
0.0
  0
ELLIPSE
  5
1CE
330
18
100
AcDbEntity
  8
BZA45847
  6
Continuous
 62
     1
100
AcDbEllipse
 10
109.6998039893631
 20
134.0442836261078
 30
0.0
 11
1.148203834918675
 21
1.988736677086551
 31
0.0
210
0.0
220
0.0
230
1.0
 40
0.5773509148296689
 41
3.428354407464355
 42
5.996433160073098
  0
ELLIPSE
  5
1CF
330
18
100
AcDbEntity
  8
BZA45847
  6
Continuous
 62
     1
100
AcDbEllipse
 10
122.8980461768631
 20
141.6642863726898
 30
0.0
 11
1.148203834918675
 21
1.988736677086551
 31
0.0
210
0.0
220
0.0
230
1.0
 40
0.5773509148296689
 41
4.63445822668244
 42
5.996433160073095
  0
ELLIPSE
  5
1D0
330
18
100
AcDbEntity
  8
BZA45847
  6
Continuous
 62
     1
100
AcDbEllipse
 10
129.4971672706131
 20
145.4742991900726
 30
0.0
 11
1.148203834918675
 21
1.988736677086551
 31
0.0
210
0.0
220
0.0
230
1.0
 40
0.5773509148296689
 41
4.634461961600387
 42
5.996433160073095
  0
ELLIPSE
  5
1D1
330
18
100
AcDbEntity
  8
BZA45847
  6
Continuous
 62
     1
100
AcDbEllipse
 10
116.2989250831131
 20
137.854273555307
 30
0.0
 11
1.148203834918675
 21
1.988736677086551
 31
0.0
210
0.0
220
0.0
230
1.0
 40
0.5773509148296689
 41
4.634483437295554
 42
5.996433160073098
  0
ELLIPSE
  5
1D3
330
18
100
AcDbEntity
  8
BZA45847
  6
Continuous
 62
     1
100
AcDbEllipse
 10
122.0796562842849
 20
134.5167644000336
 30
0.0
 11
1.148203834918675
 21
1.988736677086551
 31
0.0
210
0.0
220
0.0
230
1.0
 40
0.5773509148296689
 41
0.0
 42
6.283185307179586
  0
ELLIPSE
  5
1D4
330
18
100
AcDbEntity
  8
BZA45847
  6
Continuous
 62
     1
100
AcDbEllipse
 10
128.6787316016678
 20
138.3267543292328
 30
0.0
 11
1.148203834918675
 21
1.988736677086551
 31
0.0
210
0.0
220
0.0
230
1.0
 40
0.5773509148296689
 41
0.0
 42
6.283185307179586
  0
ELLIPSE
  5
1D5
330
18
100
AcDbEntity
  8
BZA45847
  6
Continuous
 62
     1
100
AcDbEllipse
 10
135.2778069190506
 20
142.136744258432
 30
0.0
 11
1.148203834918675
 21
1.988736677086551
 31
0.0
210
0.0
220
0.0
230
1.0
 40
0.5773509148296689
 41
0.0
 42
6.283185307179586
  0
ELLIPSE
  5
1D6
330
18
100
AcDbEntity
  8
BZA45847
  6
Continuous
 62
     1
100
AcDbEllipse
 10
115.4805351905349
 20
130.7067515826508
 30
0.0
 11
1.148203834918675
 21
1.988736677086551
 31
0.0
210
0.0
220
0.0
230
1.0
 40
0.5773509148296689
 41
4.128350532251614
 42
6.867227796545541
  0
LINE
  5
1D7
330
18
100
AcDbEntity
  8
BZA45847
  6
Continuous
 62
     1
100
AcDbLine
 10
115.8052727393631
 20
127.1442515826508
 30
0.0
 11
115.8052727393631
 21
129.0571315264984
 31
0.0
  0
LINE
  5
1D8
330
18
100
AcDbEntity
  8
BZA45847
  6
Continuous
 62
     1
100
AcDbLine
 10
115.8052727393631
 20
132.7313716388031
 30
0.0
 11
115.8052727393631
 21
134.6442515826508
 31
0.0
  0
LINE
  5
1D9
330
18
100
AcDbEntity
  8
BZA45847
  6
Continuous
 62
     1
100
AcDbLine
 10
138.5604302100662
 20
147.7819545245453
 30
0.0
 11
115.8052727393631
 21
134.6442515826508
 31
0.0
  0
LINE
  5
1DA
330
18
100
AcDbEntity
  8
BZA45847
  6
Continuous
 62
     7
100
AcDbLine
 10
141.4183403663162
 20
141.9319636798187
 30
0.0
 11
115.8052727393631
 21
127.1442515826508
 31
0.0
  0
LINE
  5
1DC
330
18
100
AcDbEntity
  8
BZA45847
  6
Continuous
 62
     7
100
AcDbLine
 10
114.5062309913162
 20
127.8942515826507
 30
0.0
 11
114.5062309913162
 21
129.8071315264984
 31
0.0
  0
LINE
  5
1DD
330
18
100
AcDbEntity
  8
BZA45847
  6
Continuous
 62
     7
100
AcDbLine
 10
114.5062309913162
 20
133.4813716388031
 30
0.0
 11
114.5062309913162
 21
135.3942515826508
 31
0.0
  0
ELLIPSE
  5
1DE
330
18
100
AcDbEntity
  8
BZA45847
  6
Continuous
 62
     1
100
AcDbEllipse
 10
120.7806145362381
 20
135.2667644000336
 30
0.0
 11
1.148203834918675
 21
1.988736677086551
 31
0.0
210
0.0
220
0.0
230
1.0
 40
0.5773509148296689
 41
3.74285386474558
 42
5.681919741607076
  0
ELLIPSE
  5
1DF
330
18
100
AcDbEntity
  8
BZA45847
  6
Continuous
 62
     1
100
AcDbEllipse
 10
127.3796898536209
 20
139.0767543292328
 30
0.0
 11
1.148203834918675
 21
1.988736677086551
 31
0.0
210
0.0
220
0.0
230
1.0
 40
0.5773509148296689
 41
3.74285386474558
 42
5.681919741607076
  0
ELLIPSE
  5
1E0
330
18
100
AcDbEntity
  8
BZA45847
  6
Continuous
 62
     1
100
AcDbEllipse
 10
133.9787651710037
 20
142.886744258432
 30
0.0
 11
1.148203834918675
 21
1.988736677086551
 31
0.0
210
0.0
220
0.0
230
1.0
 40
0.5773509148296689
 41
3.74285386474558
 42
5.681919741607076
  0
ELLIPSE
  5
1E1
330
18
100
AcDbEntity
  8
BZA45847
  6
Continuous
 62
     7
100
AcDbEllipse
 10
114.1814934424881
 20
131.4567515826507
 30
0.0
 11
1.148203834918675
 21
1.988736677086551
 31
0.0
210
0.0
220
0.0
230
1.0
 40
0.5773509148296689
 41
4.128350532251614
 42
5.699143921138706
  0
LINE
  5
1E2
330
18
100
AcDbEntity
  8
BZA45847
  6
Continuous
 62
     7
100
AcDbLine
 10
137.2613884620193
 20
148.5319545245453
 30
0.0
 11
114.5062309913162
 21
135.3942515826508
 31
0.0
  0
ELLIPSE
  5
1E4
330
18
100
AcDbEntity
  8
BZA45847
  6
Continuous
 62
     1
100
AcDbEllipse
 10
121.4300896338943
 20
134.8917644000336
 30
0.0
 11
1.148203834918675
 21
1.988736677086551
 31
0.0
210
0.0
220
0.0
230
1.0
 40
0.5773509148296689
 41
3.428354407464355
 42
5.996433160073098
  0
ELLIPSE
  5
1E5
330
18
100
AcDbEntity
  8
BZA45847
  6
Continuous
 62
     1
100
AcDbEllipse
 10
128.0292107276443
 20
138.7017543292328
 30
0.0
 11
1.148203834918675
 21
1.988736677086551
 31
0.0
210
0.0
220
0.0
230
1.0
 40
0.5773509148296689
 41
3.428354407464355
 42
5.996433160073098
  0
ELLIPSE
  5
1E6
330
18
100
AcDbEntity
  8
BZA45847
  6
Continuous
 62
     1
100
AcDbEllipse
 10
134.6283318213943
 20
142.511744258432
 30
0.0
 11
1.148203834918675
 21
1.988736677086551
 31
0.0
210
0.0
220
0.0
230
1.0
 40
0.5773509148296689
 41
3.428354407464355
 42
5.996433160073098
  0
ELLIPSE
  5
1E9
330
18
100
AcDbEntity
  8
31
  6
Continuous
 62
     7
100
AcDbEllipse
 10
129.5970589332107
 20
152.5326716876312
 30
0.0
 11
-0.1837063139263644
 21
0.3182011942928017
 31
0.0
210
0.0
220
0.0
230
1.0
 40
0.5773445361492701
 41
3.927015462759491
 42
4.712406816098142
  0
ELLIPSE
  5
1EA
330
18
100
AcDbEntity
  8
31
  6
Continuous
 62
     7
100
AcDbEllipse
 10
131.0483528785232
 20
151.5940272784515
 30
0.0
 11
-0.1837278019748721
 21
0.3182140471329204
 31
0.0
210
0.0
220
0.0
230
0.9999999999999998
 40
0.577355544705266
 41
4.712414811910507
 42
5.497817544115223
  0
ELLIPSE
  5
1EB
330
18
100
AcDbEntity
  8
31
  6
Continuous
 62
     1
100
AcDbEllipse
 10
131.4157540015701
 20
155.2819087481781
 30
0.0
 11
-0.1837069843601216
 21
0.3181992242577984
 31
0.0
210
0.0
220
0.0
230
1.0
 40
0.5773460008565423
 41
5.497798208129546
 42
7.068583169367982
  0
ELLIPSE
  5
1EC
330
18
100
AcDbEntity
  8
31
  6
Continuous
 62
     1
100
AcDbEllipse
 10
130.8961006812576
 20
155.1319453692719
 30
0.0
 11
-0.1837069843601216
 21
0.3181992242577984
 31
0.0
210
0.0
220
0.0
230
1.0
 40
0.5773460008565423
 41
2.356205862059694
 42
3.927009581624627
  0
ELLIPSE
  5
1ED
330
18
100
AcDbEntity
  8
31
  6
Continuous
 62
     1
100
AcDbEllipse
 10
130.7662331275467
 20
155.206927058725
 30
0.0
 11
-0.1837069843601216
 21
0.3181992242577984
 31
0.0
210
0.0
220
0.0
230
1.0
 40
0.5773460008565423
 41
0.7853978621883959
 42
2.356205862059694
  0
ELLIPSE
  5
1EE
330
18
100
AcDbEntity
  8
31
  6
Continuous
 62
     1
100
AcDbEllipse
 10
130.2466255836014
 20
155.6569545245453
 30
0.0
 11
-0.1837069843601216
 21
0.3181992242577984
 31
0.0
210
0.0
220
0.0
230
1.0
 40
0.5773460008565423
 41
3.927009581624627
 42
5.497798208129546
  0
ELLIPSE
  5
1EF
330
18
100
AcDbEntity
  8
31
  6
Continuous
 62
     7
100
AcDbEllipse
 10
130.1167122535232
 20
155.7319362139984
 30
0.0
 11
-0.1837069843601216
 21
0.3181992242577984
 31
0.0
210
0.0
220
0.0
230
1.0
 40
0.5773460008565423
 41
5.497798208129546
 42
7.068583169367982
  0
ELLIPSE
  5
1F0
330
18
100
AcDbEntity
  8
31
  6
Continuous
 62
     7
100
AcDbEllipse
 10
130.1167122535232
 20
151.981844661264
 30
0.0
 11
-0.1837069843601216
 21
0.3181992242577984
 31
0.0
210
0.0
220
0.0
230
1.0
 40
0.5773460008565423
 41
0.7853978621883959
 42
2.356205862059694
  0
ELLIPSE
  5
1F1
330
18
100
AcDbEntity
  8
31
  6
Continuous
 62
     7
100
AcDbEllipse
 10
130.2466255836014
 20
151.906893489389
 30
0.0
 11
-0.1837307828049
 21
0.3182424029045903
 31
0.0
210
0.0
220
0.0
230
0.9999999999999998
 40
0.5773452766008661
 41
2.356164028001447
 42
3.926983762581786
  0
ELLIPSE
  5
1F2
330
18
100
AcDbEntity
  8
31
  6
Continuous
 62
     7
100
AcDbEllipse
 10
130.7662331275467
 20
151.7569301104828
 30
0.0
 11
-0.1837109643109274
 21
0.3181874285117217
 31
0.0
210
0.0
220
0.0
230
1.0
 40
0.5773545054315398
 41
5.497776051833716
 42
7.068562427128916
  0
LINE
  5
1F3
330
18
100
AcDbEntity
  8
31
  6
Continuous
 62
     7
100
AcDbLine
 10
129.856885593367
 20
155.6312282061859
 30
0.0
 11
129.856885593367
 21
155.88197588685
 31
0.0
  0
LINE
  5
1F4
330
18
100
AcDbEntity
  8
31
  6
Continuous
 62
     7
100
AcDbLine
 10
129.7269722632888
 20
152.7319514727875
 30
0.0
 11
129.7269722632888
 21
155.4319484210297
 31
0.0
  0
LINE
  5
1F5
330
18
100
AcDbEntity
  8
31
  6
Continuous
 62
     7
100
AcDbLine
 10
129.7808052711014
 20
152.6387660479828
 30
0.0
 11
129.7269722632888
 21
152.7319896197601
 31
0.0
  0
LINE
  5
1F6
330
18
100
AcDbEntity
  8
31
  6
Continuous
 62
     7
100
AcDbLine
 10
129.856885593367
 20
152.1318767047211
 30
0.0
 11
129.856885593367
 21
152.3826854205414
 31
0.0
  0
LINE
  5
1F7
330
18
100
AcDbEntity
  8
31
  6
Continuous
 62
     1
100
AcDbLine
 10
131.4157540015701
 20
155.581927058725
 30
0.0
 11
133.0395332984451
 21
154.644427058725
 31
0.0
  0
LINE
  5
1F8
330
18
100
AcDbEntity
  8
31
  6
Continuous
 62
     1
100
AcDbLine
 10
131.1559273414139
 20
154.9819362139984
 30
0.0
 11
131.1559273414139
 21
155.4319331622406
 31
0.0
  0
LINE
  5
1F9
330
18
100
AcDbEntity
  8
31
  6
Continuous
 62
     1
100
AcDbLine
 10
130.7662331275467
 20
154.9069545245453
 30
0.0
 11
130.8961464576248
 21
154.8319575763031
 31
0.0
  0
LINE
  5
1FA
330
18
100
AcDbEntity
  8
31
  6
Continuous
 62
     1
100
AcDbLine
 10
130.5064064673904
 20
155.5069453692718
 30
0.0
 11
130.5064064673904
 21
155.3569362139984
 31
0.0
  0
LINE
  5
1FB
330
18
100
AcDbEntity
  8
31
  6
Continuous
 62
     1
100
AcDbLine
 10
130.1167122535232
 20
156.0319545245453
 30
0.0
 11
130.2466255836014
 21
155.9569575763031
 31
0.0
  0
LINE
  5
1FC
330
18
100
AcDbEntity
  8
31
  6
Continuous
 62
     7
100
AcDbLine
 10
130.2466255836014
 20
151.6068751788422
 30
0.0
 11
130.1167580298904
 21
151.6818568682953
 31
0.0
  0
LINE
  5
1FD
330
18
100
AcDbEntity
  8
31
  6
Continuous
 62
     7
100
AcDbLine
 10
130.5064064673904
 20
151.9069545245453
 30
0.0
 11
130.5064064673904
 21
151.7569148516937
 31
0.0
  0
LINE
  5
1FE
330
18
100
AcDbEntity
  8
31
  6
Continuous
 62
     7
100
AcDbLine
 10
131.0482613257889
 20
151.8940913653656
 30
0.0
 11
130.7661873511795
 21
152.0569407916351
 31
0.0
  0
ELLIPSE
  5
1FF
330
18
100
AcDbEntity
  8
31
  6
Continuous
 62
     7
100
AcDbEllipse
 10
129.5970589332107
 20
155.7811915850922
 30
0.0
 11
-0.1837063139263644
 21
0.3182011942928017
 31
0.0
210
0.0
220
0.0
230
1.0
 40
0.5773445361492701
 41
3.14162540430143
 42
3.927015462759491
  0
LINE
  5
200
330
18
100
AcDbEntity
  8
31
  6
Continuous
 62
     7
100
AcDbLine
 10
129.7269722632888
 20
155.4319331622406
 30
0.0
 11
129.7807594947341
 21
155.4630153155609
 31
0.0
  0
ELLIPSE
  5
201
330
18
100
AcDbEntity
  8
31
  6
Continuous
 62
     7
100
AcDbEllipse
 10
141.8729073218826
 20
134.8444697833343
 30
0.0
 11
-0.1837069843601216
 21
0.3181992242577984
 31
0.0
210
0.0
220
0.0
230
1.0
 40
0.5773460008565423
 41
2.356205862059694
 42
3.926999433719354
  0
ELLIPSE
  5
202
330
18
100
AcDbEntity
  8
31
  6
Continuous
 62
     1
100
AcDbEllipse
 10
140.3791329078201
 20
144.2569301104828
 30
0.0
 11
-0.7348421760710466
 21
1.272793769571401
 31
0.0
210
0.0
220
0.0
230
1.0
 40
0.5773488509756561
 41
3.9269908151359
 42
5.497789605762366
  0
ELLIPSE
  5
203
330
18
100
AcDbEntity
  8
31
  6
Continuous
 62
     1
100
AcDbEllipse
 10
140.3791329078201
 20
141.331942317514
 30
0.0
 11
-0.7348421760710466
 21
1.272793769571401
 31
0.0
210
0.0
220
0.0
230
1.0
 40
0.5773488509756561
 41
2.356197259689109
 42
3.926988970039802
  0
ELLIPSE
  5
204
330
18
100
AcDbEntity
  8
31
  6
Continuous
 62
     1
100
AcDbEllipse
 10
139.5347420386795
 20
149.8444240069671
 30
0.0
 11
-0.1837069843601216
 21
0.3181992242577984
 31
0.0
210
0.0
220
0.0
230
1.0
 40
0.5773460008565423
 41
2.356205862059694
 42
3.927034489682783
  0
ELLIPSE
  5
205
330
18
100
AcDbEntity
  8
31
  6
Continuous
 62
     1
100
AcDbEllipse
 10
138.7552620582107
 20
150.2944514727875
 30
0.0
 11
-0.1837063139263644
 21
0.3182011942928017
 31
0.0
210
0.0
220
0.0
230
1.0
 40
0.5773445361492701
 41
1.038099380282732
 42
2.356209437026546
  0
ELLIPSE
  5
206
330
18
100
AcDbEntity
  8
31
  6
Continuous
 62
     1
100
AcDbEllipse
 10
138.2521797828201
 20
150.4348628497406
 30
0.0
 11
-0.1837063139263644
 21
0.3182011942928017
 31
0.0
210
0.0
220
0.0
230
1.0
 40
0.5773445361492701
 41
4.17969209214056
 42
5.497801859975257
  0
ELLIPSE
  5
207
330
18
100
AcDbEntity
  8
31
  6
Continuous
 62
     1
100
AcDbEllipse
 10
134.5819222144607
 20
152.5539119220062
 30
0.0
 11
-0.1837063139263644
 21
0.3182011942928017
 31
0.0
210
0.0
220
0.0
230
1.0
 40
0.5773445361492701
 41
5.497801859975257
 42
6.815888761360203
  0
ELLIPSE
  5
208
330
18
100
AcDbEntity
  8
31
  6
Continuous
 62
     1
100
AcDbEllipse
 10
134.0787483863357
 20
152.9944179034515
 30
0.0
 11
-0.1837063139263644
 21
0.3182011942928017
 31
0.0
210
0.0
220
0.0
230
1.0
 40
0.5773445361492701
 41
2.356209513906919
 42
3.674328001060785
  0
ELLIPSE
  5
209
330
18
100
AcDbEntity
  8
31
  6
Continuous
 62
     1
100
AcDbEllipse
 10
133.2993599586014
 20
153.4444148516937
 30
0.0
 11
-0.1837069843601216
 21
0.3181992242577984
 31
0.0
210
0.0
220
0.0
230
1.0
 40
0.5773460008565423
 41
0.7854198878211414
 42
2.356205900499694
  0
LINE
  5
20A
330
18
100
AcDbEntity
  8
31
  6
Continuous
 62
     7
100
AcDbLine
 10
144.0381294898513
 20
135.2444255328461
 30
0.0
 11
142.1328255347732
 21
136.3444545245453
 31
0.0
  0
LINE
  5
20B
330
18
100
AcDbEntity
  8
31
  6
Continuous
 62
     1
100
AcDbLine
 10
142.1327339820388
 20
136.3444774127289
 30
0.0
 11
142.1327339820388
 21
134.6944682574555
 31
0.0
  0
LINE
  5
20C
330
18
100
AcDbEntity
  8
31
  6
Continuous
 62
     1
100
AcDbLine
 10
140.3791329078201
 20
145.4569499469086
 30
0.0
 11
139.3398720435623
 21
146.0569636798187
 31
0.0
  0
LINE
  5
20D
330
18
100
AcDbEntity
  8
31
  6
Continuous
 62
     1
100
AcDbLine
 10
141.4183479957107
 20
140.731959102182
 30
0.0
 11
141.4183479957107
 21
143.6569697833343
 31
0.0
  0
LINE
  5
20E
330
18
100
AcDbEntity
  8
31
  6
Continuous
 62
     1
100
AcDbLine
 10
139.3399178199295
 20
140.7319362139984
 30
0.0
 11
140.3791329078201
 21
140.1319453692718
 31
0.0
  0
LINE
  5
20F
330
18
100
AcDbEntity
  8
31
  6
Continuous
 62
     1
100
AcDbLine
 10
139.3399178199295
 20
139.4569499469086
 30
0.0
 11
139.3399178199295
 21
140.7319362139984
 31
0.0
  0
LINE
  5
210
330
18
100
AcDbEntity
  8
31
  6
Continuous
 62
     1
100
AcDbLine
 10
139.7944771461014
 20
150.7444484210297
 30
0.0
 11
141.1584755591873
 21
149.9569346881195
 31
0.0
  0
LINE
  5
211
330
18
100
AcDbEntity
  8
31
  6
Continuous
 62
     1
100
AcDbLine
 10
139.7944771461014
 20
149.69447588685
 30
0.0
 11
139.7944771461014
 21
150.7444941973969
 31
0.0
  0
LINE
  5
212
330
18
100
AcDbEntity
  8
31
  6
Continuous
 62
     1
100
AcDbLine
 10
138.7552620582107
 20
149.9944484210297
 30
0.0
 11
139.5346962623123
 21
149.544443843393
 31
0.0
  0
LINE
  5
213
330
18
100
AcDbEntity
  8
31
  6
Continuous
 62
     1
100
AcDbLine
 10
134.5819222144607
 20
152.8539531207367
 30
0.0
 11
138.2522255591873
 21
150.7349116778656
 31
0.0
  0
LINE
  5
214
330
18
100
AcDbEntity
  8
31
  6
Continuous
 62
     1
100
AcDbLine
 10
133.2993599586014
 20
153.1444499469086
 30
0.0
 11
134.0787941627029
 21
152.6944453692719
 31
0.0
  0
LINE
  5
215
330
18
100
AcDbEntity
  8
31
  6
Continuous
 62
     1
100
AcDbLine
 10
133.0395332984451
 20
154.644427058725
 30
0.0
 11
133.0395332984451
 21
153.5944392657562
 31
0.0
  0
LINE
  5
216
330
18
100
AcDbEntity
  8
31
  6
Continuous
 62
     1
100
AcDbLine
 10
133.8838783912185
 20
150.4819667315765
 30
0.0
 11
132.3250557593826
 21
151.38197588685
 31
0.0
  0
LINE
  5
217
330
18
100
AcDbEntity
  8
31
  6
Continuous
 62
     1
100
AcDbLine
 10
133.8838783912185
 20
149.2069575763031
 30
0.0
 11
133.8838783912185
 21
150.4819514727875
 31
0.0
  0
LINE
  5
218
330
18
100
AcDbEntity
  8
31
  6
Continuous
 62
     1
100
AcDbLine
 10
139.3399178199295
 20
147.3319499469086
 30
0.0
 11
136.4820076636795
 21
148.981959102182
 31
0.0
  0
LINE
  5
219
330
18
100
AcDbEntity
  8
31
  6
Continuous
 62
     1
100
AcDbLine
 10
139.3399178199295
 20
146.0569407916351
 30
0.0
 11
139.3399178199295
 21
147.3319423175141
 31
0.0
  0
ELLIPSE
  5
21A
330
18
100
AcDbEntity
  8
31
  6
Continuous
 62
     1
100
AcDbEllipse
 10
141.4183479957107
 20
147.7069575763031
 30
0.0
 11
-0.1837069843601216
 21
0.3181992242577984
 31
0.0
210
0.0
220
0.0
230
1.0
 40
0.5773460008565423
 41
0.7854418360929908
 42
2.356205862059694
  0
LINE
  5
21B
330
18
100
AcDbEntity
  8
31
  6
Continuous
 62
     1
100
AcDbLine
 10
141.4183479957107
 20
147.4069697833344
 30
0.0
 11
142.9772164039138
 21
146.5069606280609
 31
0.0
  0
LINE
  5
21C
330
18
100
AcDbEntity
  8
31
  6
Continuous
 62
     1
100
AcDbLine
 10
141.1585213355545
 20
149.9569117999359
 30
0.0
 11
141.1585213355545
 21
147.8569209552093
 31
0.0
  0
ELLIPSE
  5
21D
330
18
100
AcDbEntity
  8
31
  6
Continuous
 62
     1
100
AcDbEllipse
 10
142.9771248511795
 20
146.8069484210297
 30
0.0
 11
-0.1837069843601216
 21
0.3181992242577984
 31
0.0
210
0.0
220
0.0
230
1.0
 40
0.5773460008565423
 41
2.356205862059694
 42
3.927034489682783
  0
LINE
  5
21E
330
18
100
AcDbEntity
  8
31
  6
Continuous
 62
     1
100
AcDbLine
 10
143.2369515113357
 20
148.7569301104828
 30
0.0
 11
148.3032128028396
 21
145.8319346881195
 31
0.0
  0
LINE
  5
21F
330
18
100
AcDbEntity
  8
31
  6
Continuous
 62
     1
100
AcDbLine
 10
143.2369515113357
 20
146.6569392657562
 30
0.0
 11
143.2369515113357
 21
148.7569301104828
 31
0.0
  0
ELLIPSE
  5
220
330
18
100
AcDbEntity
  8
31
  6
Continuous
 62
     1
100
AcDbEllipse
 10
145.5427147559646
 20
143.2257106280609
 30
0.0
 11
-0.4592779991503009
 21
0.7955045715173393
 31
0.0
210
0.0
220
0.0
230
1.0
 40
0.5773481159508125
 41
5.497792659414889
 42
6.417640209911827
  0
ELLIPSE
  5
221
330
18
100
AcDbEntity
  8
31
  6
Continuous
 62
     1
100
AcDbEllipse
 10
147.0366722754959
 20
142.363192317514
 30
0.0
 11
-0.4592800010873747
 21
0.7954982538058384
 31
0.0
210
0.0
220
0.0
230
1.0
 40
0.5773502768298922
 41
4.578060185490197
 42
5.497788380460977
  0
ELLIPSE
  5
222
330
18
100
AcDbEntity
  8
31
  6
Continuous
 62
     1
100
AcDbEllipse
 10
144.0381294898513
 20
135.5444362139984
 30
0.0
 11
-0.1837183924039734
 21
0.3182037187497142
 31
0.0
210
0.0
220
0.0
230
1.0
 40
0.5773527811992607
 41
2.356187747746255
 42
3.403406346607468
  0
ELLIPSE
  5
223
330
18
100
AcDbEntity
  8
31
  6
Continuous
 62
     1
100
AcDbEllipse
 10
150.9013878516678
 20
139.9819209552094
 30
0.0
 11
-0.7348421760710466
 21
1.272793769571401
 31
0.0
210
0.0
220
0.0
230
1.0
 40
0.5773488509756561
 41
5.497789605762365
 42
7.068592540398661
  0
ELLIPSE
  5
224
330
18
100
AcDbEntity
  8
31
  6
Continuous
 62
     7
100
AcDbEllipse
 10
160.2543236426834
 20
134.5819575763031
 30
0.0
 11
-0.7348421760710466
 21
1.272793769571401
 31
0.0
210
0.0
220
0.0
230
1.0
 40
0.5773488509756561
 41
0.7853962395709316
 42
2.356197182809966
  0
ELLIPSE
  5
225
330
18
100
AcDbEntity
  8
31
  6
Continuous
 62
     7
100
AcDbEllipse
 10
162.5926720313553
 20
132.3319117999359
 30
0.0
 11
-0.1837069843601216
 21
0.3181992242577984
 31
0.0
210
0.0
220
0.0
230
1.0
 40
0.5773460008565423
 41
2.356205862059694
 42
3.926999433719354
  0
ELLIPSE
  5
226
330
18
100
AcDbEntity
  8
31
  6
Continuous
 62
     1
100
AcDbEllipse
 10
162.5926720313553
 20
132.9319026446625
 30
0.0
 11
-0.1837069843601216
 21
0.3181992242577984
 31
0.0
210
0.0
220
0.0
230
1.0
 40
0.5773460008565423
 41
3.926999433719354
 42
5.497798208129546
  0
ELLIPSE
  5
227
330
18
100
AcDbEntity
  8
31
  6
Continuous
 62
     1
100
AcDbEllipse
 10
162.5926720313553
 20
135.7819240069672
 30
0.0
 11
-0.1837069843601216
 21
0.3181992242577984
 31
0.0
210
0.0
220
0.0
230
1.0
 40
0.5773460008565423
 41
2.356205862059694
 42
3.926999433719354
  0
ELLIPSE
  5
228
330
18
100
AcDbEntity
  8
31
  6
Continuous
 62
     1
100
AcDbEllipse
 10
162.5926720313553
 20
136.3819148516937
 30
0.0
 11
-0.1837069843601216
 21
0.3181992242577984
 31
0.0
210
0.0
220
0.0
230
1.0
 40
0.5773460008565423
 41
3.926999433719354
 42
5.497798208129546
  0
ELLIPSE
  5
229
330
18
100
AcDbEntity
  8
31
  6
Continuous
 62
     1
100
AcDbEllipse
 10
146.2896935157303
 20
139.7944514727875
 30
0.0
 11
-1.148203702510519
 21
1.988736753532841
 31
0.0
210
0.0
220
0.0
230
1.0
 40
0.5773509667410835
 41
3.1892558513357
 42
4.664716621863247
  0
ELLIPSE
  5
22A
330
18
100
AcDbEntity
  8
31
  6
Continuous
 62
     7
100
AcDbEllipse
 10
148.7662865333084
 20
132.3645808673187
 30
0.0
 11
-0.1837096934290811
 21
0.318191293846498
 31
0.0
210
0.0
220
0.0
230
1.0
 40
0.5773517038428579
 41
1.308988854562583
 42
2.356190812403378
  0
ELLIPSE
  5
22B
330
18
100
AcDbEntity
  8
31
  6
Continuous
 62
     7
100
AcDbEllipse
 10
149.6023461036209
 20
131.8819148516937
 30
0.0
 11
-0.1837069843601216
 21
0.3181992242577984
 31
0.0
210
0.0
220
0.0
230
1.0
 40
0.5773460008565423
 41
2.356205862059694
 42
3.926999433719354
  0
LINE
  5
22C
330
18
100
AcDbEntity
  8
31
  6
Continuous
 62
     7
100
AcDbLine
 10
159.2151085547927
 20
135.1819636798187
 30
0.0
 11
159.2151085547927
 21
136.3819682574554
 31
0.0
  0
LINE
  5
22D
330
18
100
AcDbEntity
  8
31
  6
Continuous
 62
     7
100
AcDbLine
 10
162.5926720313553
 20
132.0319316363617
 30
0.0
 11
160.2544151954178
 21
133.3819224810883
 31
0.0
  0
LINE
  5
22E
330
18
100
AcDbEntity
  8
31
  6
Continuous
 62
     1
100
AcDbLine
 10
162.8524071387771
 20
132.7819697833344
 30
0.0
 11
162.8524071387771
 21
132.1819636798187
 31
0.0
  0
LINE
  5
22F
330
18
100
AcDbEntity
  8
31
  6
Continuous
 62
     1
100
AcDbLine
 10
160.2543236426834
 20
134.5819728350922
 30
0.0
 11
162.5926262549881
 21
133.231959102182
 31
0.0
  0
LINE
  5
230
330
18
100
AcDbEntity
  8
31
  6
Continuous
 62
     1
100
AcDbLine
 10
160.2543236426834
 20
136.8319575763031
 30
0.0
 11
160.2543236426834
 21
134.5819575763031
 31
0.0
  0
LINE
  5
231
330
18
100
AcDbEntity
  8
31
  6
Continuous
 62
     1
100
AcDbLine
 10
162.5926720313553
 20
135.4819209552093
 30
0.0
 11
160.2544151954178
 21
136.8319117999359
 31
0.0
  0
LINE
  5
232
330
18
100
AcDbEntity
  8
31
  6
Continuous
 62
     1
100
AcDbLine
 10
162.8524071387771
 20
136.2319667315765
 30
0.0
 11
162.8524071387771
 21
135.6319529986664
 31
0.0
  0
LINE
  5
233
330
18
100
AcDbEntity
  8
31
  6
Continuous
 62
     7
100
AcDbLine
 10
159.2151085547927
 20
136.3819606280609
 30
0.0
 11
150.9012962989334
 21
141.1819560504242
 31
0.0
  0
LINE
  5
234
330
18
100
AcDbEntity
  8
31
  6
Continuous
 62
     1
100
AcDbLine
 10
145.0881478003982
 20
137.0043666339203
 30
0.0
 11
145.0881478003982
 21
136.4381587481781
 31
0.0
  0
LINE
  5
235
330
18
100
AcDbEntity
  8
31
  6
Continuous
 62
     1
100
AcDbLine
 10
145.0881478003982
 20
138.5299785113617
 30
0.0
 11
145.0881478003982
 21
139.2270839190765
 31
0.0
  0
LINE
  5
236
330
18
100
AcDbEntity
  8
31
  6
Continuous
 62
     1
100
AcDbLine
 10
145.0881478003982
 20
137.0043666339203
 30
0.0
 11
145.0881478003982
 21
138.5299785113617
 31
0.0
  0
LINE
  5
237
330
18
100
AcDbEntity
  8
31
  6
Continuous
 62
     1
100
AcDbLine
 10
145.0881478003982
 20
142.446444270639
 30
0.0
 11
145.0881478003982
 21
142.9526164508148
 31
0.0
  0
LINE
  5
238
330
18
100
AcDbEntity
  8
31
  6
Continuous
 62
     1
100
AcDbLine
 10
145.0881478003982
 20
141.7493388629242
 30
0.0
 11
145.0881478003982
 21
142.4464213824554
 31
0.0
  0
LINE
  5
239
330
18
100
AcDbEntity
  8
31
  6
Continuous
 62
     1
100
AcDbLine
 10
147.0366722754959
 20
143.1131999469086
 30
0.0
 11
145.542806308699
 21
143.9756953692719
 31
0.0
  0
LINE
  5
23A
330
18
100
AcDbEntity
  8
31
  6
Continuous
 62
     1
100
AcDbLine
 10
147.4913231544021
 20
141.5651118731781
 30
0.0
 11
147.4913231544021
 21
141.0590312457367
 31
0.0
  0
LINE
  5
23B
330
18
100
AcDbEntity
  8
31
  6
Continuous
 62
     1
100
AcDbLine
 10
147.4913231544021
 20
141.0590388751312
 30
0.0
 11
147.4913231544021
 21
140.3618495440765
 31
0.0
  0
LINE
  5
23C
330
18
100
AcDbEntity
  8
31
  6
Continuous
 62
     7
100
AcDbLine
 10
147.4913231544021
 20
137.1424052691742
 30
0.0
 11
147.4913231544021
 21
135.6168391681
 31
0.0
  0
LINE
  5
23D
330
18
100
AcDbEntity
  8
31
  6
Continuous
 62
     1
100
AcDbLine
 10
147.4913231544021
 20
137.8395793414398
 30
0.0
 11
147.4913231544021
 21
137.1423976397797
 31
0.0
  0
LINE
  5
23E
330
18
100
AcDbEntity
  8
31
  6
Continuous
 62
     7
100
AcDbLine
 10
147.4913231544021
 20
135.0504024005219
 30
0.0
 11
147.4913231544021
 21
135.6168391681
 31
0.0
  0
LINE
  5
23F
330
18
100
AcDbEntity
  8
31
  6
Continuous
 62
     1
100
AcDbLine
 10
145.0881478003982
 20
136.4381358599945
 30
0.0
 11
144.2631661109451
 21
135.2644984698578
 31
0.0
  0
LINE
  5
240
330
18
100
AcDbEntity
  8
31
  6
Continuous
 62
     7
100
AcDbLine
 10
148.541341464949
 20
132.3445155597015
 30
0.0
 11
147.4913231544021
 21
135.0504024005219
 31
0.0
  0
LINE
  5
241
330
18
100
AcDbEntity
  8
31
  6
Continuous
 62
     7
100
AcDbLine
 10
149.6023461036209
 20
131.581927058725
 30
0.0
 11
148.7663780860428
 21
132.06459307435
 31
0.0
  0
LINE
  5
242
330
18
100
AcDbEntity
  8
31
  6
Continuous
 62
     1
100
AcDbLine
 10
149.8620812110428
 20
140.5819728350922
 30
0.0
 11
149.8620812110428
 21
131.7319819903656
 31
0.0
  0
LINE
  5
243
330
18
100
AcDbEntity
  8
31
  6
Continuous
 62
     1
100
AcDbLine
 10
148.303304355574
 20
144.9319331622406
 30
0.0
 11
162.5927635840896
 21
136.6819331622406
 31
0.0
  0
LINE
  5
244
330
18
100
AcDbEntity
  8
31
  6
Continuous
 62
     1
100
AcDbLine
 10
148.303304355574
 20
145.8319117999359
 30
0.0
 11
148.303304355574
 21
144.9319026446625
 31
0.0
  0
ELLIPSE
  5
245
330
18
100
AcDbEntity
  8
31
  6
Continuous
 62
     1
100
AcDbEllipse
 10
146.2896935157303
 20
139.7944514727875
 30
0.0
 11
-1.148203702510519
 21
1.988736753532841
 31
0.0
210
0.0
220
0.0
230
1.0
 40
0.5773509667410835
 41
0.0476659108167366
 42
1.523123951379806
  0
LINE
  5
246
330
18
100
AcDbEntity
  8
31
  6
Continuous
 62
     7
100
AcDbLine
 10
141.8729073218826
 20
134.5445048785492
 30
0.0
 11
135.2478768043045
 21
138.3694484210297
 31
0.0
  0
LINE
  5
247
330
18
100
AcDbEntity
  8
31
  6
Continuous
 62
     1
100
AcDbLine
 10
136.1572243384842
 20
147.8944499469086
 30
0.0
 11
133.8838326148513
 21
149.2069728350922
 31
0.0
  0
LINE
  5
248
330
18
100
AcDbEntity
  8
31
  6
Continuous
 62
     1
100
AcDbLine
 10
136.4820076636795
 20
148.981959102182
 30
0.0
 11
136.4820076636795
 21
148.0819575763031
 31
0.0
  0
LINE
  5
249
330
18
100
AcDbEntity
  8
31
  6
Continuous
 62
     1
100
AcDbLine
 10
138.2357002906326
 20
140.0944545245453
 30
0.0
 11
139.3398262671951
 21
139.4569728350922
 31
0.0
  0
LINE
  5
24A
330
18
100
AcDbEntity
  8
31
  6
Continuous
 62
     7
100
AcDbLine
 10
131.8703591041092
 20
150.5944697833343
 30
0.0
 11
131.2320076636795
 21
151.7001521563812
 31
0.0
  0
LINE
  5
24B
330
18
100
AcDbEntity
  8
31
  6
Continuous
 62
     1
100
AcDbLine
 10
132.3250557593826
 20
151.3819606280609
 30
0.0
 11
132.3250557593826
 21
150.8569819903656
 31
0.0
  0
LINE
  5
24D
330
18
100
AcDbEntity
  8
31
  6
Continuous
 62
     1
100
AcDbLine
 10
145.0881478003982
 20
142.9525935626312
 30
0.0
 11
145.0626045875076
 21
142.9979350543304
 31
0.0
  0
ELLIPSE
  5
24E
330
18
100
AcDbEntity
  8
31
  6
Continuous
 62
     1
100
AcDbEllipse
 10
145.547933261824
 20
143.2280147052094
 30
0.0
 11
-0.4641271148410901
 21
0.8038952050130628
 31
0.0
210
0.0
220
0.0
230
1.0
 40
0.5773495637352819
 41
1.468163202478578
 42
1.524040159695023
  0
ELLIPSE
  5
24F
330
18
100
AcDbEntity
  8
31
  6
Continuous
 62
     1
100
AcDbEllipse
 10
145.545003574324
 20
143.2258021807953
 30
0.0
 11
-0.4610280402027653
 21
0.798525708256585
 31
0.0
210
0.0
220
0.0
230
1.0
 40
0.5773502657703429
 41
1.410651197631985
 42
1.466972451573606
  0
ELLIPSE
  5
250
330
18
100
AcDbEntity
  8
31
  6
Continuous
 62
     1
100
AcDbEllipse
 10
145.5463768653396
 20
143.2270381427094
 30
0.0
 11
-0.462502625628436
 21
0.801072134004001
 31
0.0
210
0.0
220
0.0
230
0.9999999999999998
 40
0.5773513207453068
 41
1.355395992147498
 42
1.411597728005888
  0
ELLIPSE
  5
251
330
18
100
AcDbEntity
  8
31
  6
Continuous
 62
     1
100
AcDbEllipse
 10
145.5482994727615
 20
143.2257106280609
 30
0.0
 11
-0.4636128817853869
 21
0.8029872381054916
 31
0.0
210
0.0
220
0.0
230
1.0
 40
0.5773527831522443
 41
1.297481741422726
 42
1.353577099233995
  0
ELLIPSE
  5
252
330
18
100
AcDbEntity
  8
31
  6
Continuous
 62
     1
100
AcDbEllipse
 10
145.5485741309646
 20
143.2268092608734
 30
0.0
 11
-0.4641212218189052
 21
0.8038748625431255
 31
0.0
210
0.0
220
0.0
230
1.0
 40
0.5773513093978532
 41
1.242620796331397
 42
1.298756033201262
  0
ELLIPSE
  5
253
330
18
100
AcDbEntity
  8
31
  6
Continuous
 62
     1
100
AcDbEllipse
 10
145.5493370704177
 20
143.2253444171234
 30
0.0
 11
-0.4643718674376179
 21
0.8043097318944264
 31
0.0
210
0.0
220
0.0
230
0.9999999999999998
 40
0.5773513815740158
 41
1.184657105540461
 42
1.240883169196909
  0
ELLIPSE
  5
254
330
18
100
AcDbEntity
  8
31
  6
Continuous
 62
     1
100
AcDbEllipse
 10
145.5490318946365
 20
143.2256801104828
 30
0.0
 11
-0.4641821299846436
 21
0.8039971699674548
 31
0.0
210
0.0
220
0.0
230
0.9999999999999998
 40
0.5773488709683114
 41
1.128652272795581
 42
1.185060883136602
  0
ELLIPSE
  5
255
330
18
100
AcDbEntity
  8
31
  6
Continuous
 62
     1
100
AcDbEllipse
 10
145.5470482520584
 20
143.2243983722015
 30
0.0
 11
-0.4623803086988369
 21
0.8008642168602074
 31
0.0
210
0.0
220
0.0
230
0.9999999999999998
 40
0.5773505821508125
 41
1.069786557071805
 42
1.126629211924073
  0
ELLIPSE
  5
256
330
18
100
AcDbEntity
  8
31
  6
Continuous
 62
     1
100
AcDbEllipse
 10
145.5482994727615
 20
143.2251613116546
 30
0.0
 11
-0.4634619708185645
 21
0.8027505425541924
 31
0.0
210
0.0
220
0.0
230
1.0
 40
0.5773481819372594
 41
1.014169943393663
 42
1.071120882794178
  0
ELLIPSE
  5
257
330
18
100
AcDbEntity
  8
31
  6
Continuous
 62
     1
100
AcDbEllipse
 10
145.5520531348709
 20
143.2225062823578
 30
0.0
 11
-0.4659824182442711
 21
0.8070985225488957
 31
0.0
210
0.0
220
0.0
230
0.9999999999999998
 40
0.5773512987412506
 41
0.9553359768336481
 42
1.012264738249658
  0
ELLIPSE
  5
258
330
18
100
AcDbEntity
  8
31
  6
Continuous
 62
     1
100
AcDbEllipse
 10
145.546468418074
 20
143.2242610431
 30
0.0
 11
-0.4619402744664467
 21
0.8001170659440701
 31
0.0
210
0.0
220
0.0
230
1.0
 40
0.5773474673092507
 41
0.8970317990571418
 42
0.9548667622525908
  0
ELLIPSE
  5
259
330
18
100
AcDbEntity
  8
31
  6
Continuous
 62
     1
100
AcDbEllipse
 10
145.5309960059646
 20
143.229647395639
 30
0.0
 11
-0.4508404287993998
 21
0.7808787689188925
 31
0.0
210
0.0
220
0.0
230
1.0
 40
0.5773503014140024
 41
0.8351234731978131
 42
0.8949278196116877
  0
ELLIPSE
  5
25A
330
18
100
AcDbEntity
  8
31
  6
Continuous
 62
     1
100
AcDbEllipse
 10
145.553548496199
 20
143.2206752276703
 30
0.0
 11
-0.4668814484879252
 21
0.8086507022423621
 31
0.0
210
0.0
220
0.0
230
1.0
 40
0.5773524598723893
 41
0.7807304012900817
 42
0.8387221178970293
  0
ELLIPSE
  5
25B
330
18
100
AcDbEntity
  8
31
  6
Continuous
 62
     1
100
AcDbEllipse
 10
145.6108299903396
 20
143.1868617511078
 30
0.0
 11
-0.5073643944730803
 21
0.8787811794174784
 31
0.0
210
0.0
220
0.0
230
1.0
 40
0.5773502484209656
 41
0.7266313495839876
 42
0.7802078911383063
  0
ELLIPSE
  5
25C
330
18
100
AcDbEntity
  8
31
  6
Continuous
 62
     1
100
AcDbEllipse
 10
145.5429283790115
 20
143.2222316241547
 30
0.0
 11
-0.4596537492332072
 21
0.7961394855290259
 31
0.0
210
0.0
220
0.0
230
1.0
 40
0.5773509144570315
 41
0.6545877186814449
 42
0.7154415453293811
  0
ELLIPSE
  5
25D
330
18
100
AcDbEntity
  8
31
  6
Continuous
 62
     1
100
AcDbEllipse
 10
145.4366966895584
 20
143.2976253009125
 30
0.0
 11
-0.3840291048343615
 21
0.6651687622433439
 31
0.0
210
0.0
220
0.0
230
1.0
 40
0.5773474092420665
 41
0.575410110508138
 42
0.6513023757743384
  0
ELLIPSE
  5
25E
330
18
100
AcDbEntity
  8
31
  6
Continuous
 62
     1
100
AcDbEllipse
 10
145.602620761824
 20
143.188143489389
 30
0.0
 11
-0.5008116930017509
 21
0.867422494672002
 31
0.0
210
0.0
220
0.0
230
1.0
 40
0.5773516982890832
 41
0.5524009015843241
 42
0.6078620732961929
  0
LINE
  5
25F
330
18
100
AcDbEntity
  8
31
  6
Continuous
 62
     1
100
AcDbLine
 10
144.9135567359451
 20
143.7748286700531
 30
0.0
 11
144.9220253638748
 21
143.8104197955414
 31
0.0
  0
ELLIPSE
  5
260
330
18
100
AcDbEntity
  8
31
  6
Continuous
 62
     1
100
AcDbEllipse
 10
145.4503380469803
 20
143.2958400225922
 30
0.0
 11
-0.3949935926654085
 21
0.6841613841220522
 31
0.0
210
0.0
220
0.0
230
1.0
 40
0.5773473766267396
 41
0.3694102783539366
 42
0.4545431298227156
  0
ELLIPSE
  5
261
330
18
100
AcDbEntity
  8
31
  6
Continuous
 62
     1
100
AcDbEllipse
 10
145.3905541114334
 20
143.3645961261078
 30
0.0
 11
-0.3478806088680741
 21
0.6025596749079675
 31
0.0
210
0.0
220
0.0
230
0.9999999999999998
 40
0.577347473966262
 41
0.2218297922695233
 42
0.375490377663
  0
ELLIPSE
  5
262
330
18
100
AcDbEntity
  8
31
  6
Continuous
 62
     1
100
AcDbEllipse
 10
146.209310214949
 20
142.4158961749359
 30
0.0
 11
-0.9949940115726796
 21
1.723371171886236
 31
0.0
210
0.0
220
0.0
230
1.0
 40
0.5773509443745955
 41
0.2134696743248695
 42
0.285043615891315
  0
LINE
  5
264
330
18
100
AcDbEntity
  8
31
  6
Continuous
 62
     1
100
AcDbLine
 10
147.553304355574
 20
142.5194575763031
 30
0.0
 11
147.5750023536209
 21
142.4719188189789
 31
0.0
  0
ELLIPSE
  5
265
330
18
100
AcDbEntity
  8
31
  6
Continuous
 62
     1
100
AcDbEllipse
 10
147.0382744483474
 20
142.3645656085296
 30
0.0
 11
-0.4575104254775874
 21
0.7924225293399373
 31
0.0
210
0.0
220
0.0
230
0.9999999999999998
 40
0.5773517355937173
 41
4.461909350123008
 42
4.519480677256181
  0
ELLIPSE
  5
266
330
18
100
AcDbEntity
  8
31
  6
Continuous
 62
     1
100
AcDbEllipse
 10
147.0396019629959
 20
142.3658473468109
 30
0.0
 11
-0.4560338102935944
 21
0.7898822309068546
 31
0.0
210
0.0
220
0.0
230
1.0
 40
0.5773488687386858
 41
4.402699567170094
 42
4.460613043084555
  0
ELLIPSE
  5
267
330
18
100
AcDbEntity
  8
31
  6
Continuous
 62
     1
100
AcDbEllipse
 10
147.034749668074
 20
142.3644740557953
 30
0.0
 11
-0.4602784339691331
 21
0.797214110908886
 31
0.0
210
0.0
220
0.0
230
1.0
 40
0.5773523987688853
 41
4.346655207790881
 42
4.404187358981298
  0
ELLIPSE
  5
268
330
18
100
AcDbEntity
  8
31
  6
Continuous
 62
     1
100
AcDbEllipse
 10
147.028890293074
 20
142.365633723764
 30
0.0
 11
-0.4646071091795203
 21
0.8047149523831858
 31
0.0
210
0.0
220
0.0
230
1.0
 40
0.5773517305772748
 41
4.288594840510745
 42
4.345713230008161
  0
ELLIPSE
  5
269
330
18
100
AcDbEntity
  8
31
  6
Continuous
 62
     1
100
AcDbEllipse
 10
147.0258690528396
 20
142.3657710528656
 30
0.0
 11
-0.4669290698648248
 21
0.8087389037346065
 31
0.0
210
0.0
220
0.0
230
1.0
 40
0.5773513410252451
 41
4.232018416099938
 42
4.288969497396342
  0
ELLIPSE
  5
26A
330
18
100
AcDbEntity
  8
31
  6
Continuous
 62
     1
100
AcDbEllipse
 10
147.0232140235427
 20
142.3674495196625
 30
0.0
 11
-0.4687245640037034
 21
0.811853760979689
 31
0.0
210
0.0
220
0.0
230
1.0
 40
0.5773502438870554
 41
4.173743631281333
 42
4.230640770625585
  0
ELLIPSE
  5
26B
330
18
100
AcDbEntity
  8
31
  6
Continuous
 62
     1
100
AcDbEllipse
 10
147.0222527198318
 20
142.3670070147797
 30
0.0
 11
-0.4695602294708151
 21
0.8132904199479661
 31
0.0
210
0.0
220
0.0
230
0.9999999999999998
 40
0.5773524123654387
 41
4.117637245148197
 42
4.174621105501
  0
ELLIPSE
  5
26C
330
18
100
AcDbEntity
  8
31
  6
Continuous
 62
     1
100
AcDbEllipse
 10
147.0239922217849
 20
142.3680140948578
 30
0.0
 11
-0.4680997971475711
 21
0.8107791141620142
 31
0.0
210
0.0
220
0.0
230
1.0
 40
0.5773488839343838
 41
4.058210585654419
 42
4.115567919717785
  0
ELLIPSE
  5
26D
330
18
100
AcDbEntity
  8
31
  6
Continuous
 62
     1
100
AcDbEllipse
 10
147.0231224708084
 20
142.3678615069672
 30
0.0
 11
-0.4687621671840749
 21
0.8119301271168612
 31
0.0
210
0.0
220
0.0
230
1.0
 40
0.5773489263310772
 41
4.001373344792519
 42
4.058891131234538
  0
ELLIPSE
  5
26E
330
18
100
AcDbEntity
  8
31
  6
Continuous
 62
     1
100
AcDbEllipse
 10
147.0214745215896
 20
142.3698756671234
 30
0.0
 11
-0.4698978093799726
 21
0.8138848779534225
 31
0.0
210
0.0
220
0.0
230
1.0
 40
0.5773505949879894
 41
3.942192381344208
 42
3.999817729987622
  0
ELLIPSE
  5
26F
330
18
100
AcDbEntity
  8
31
  6
Continuous
 62
     1
100
AcDbEllipse
 10
147.0283409766677
 20
142.3666408038422
 30
0.0
 11
-0.4650335672270161
 21
0.8054637472007277
 31
0.0
210
0.0
220
0.0
230
1.0
 40
0.5773502710785195
 41
3.882768243045647
 42
3.941358586849829
  0
ELLIPSE
  5
270
330
18
100
AcDbEntity
  8
31
  6
Continuous
 62
     1
100
AcDbEllipse
 10
147.0443627051834
 20
142.3581721759125
 30
0.0
 11
-0.4537382630690187
 21
0.7858936165042051
 31
0.0
210
0.0
220
0.0
230
1.0
 40
0.5773510052959401
 41
3.820079227856055
 42
3.88061340934993
  0
ELLIPSE
  5
271
330
18
100
AcDbEntity
  8
31
  6
Continuous
 62
     1
100
AcDbEllipse
 10
147.0279747657303
 20
142.367098567514
 30
0.0
 11
-0.465226071648443
 21
0.8058048571690909
 31
0.0
210
0.0
220
0.0
230
1.0
 40
0.5773489406546361
 41
3.764231996240669
 42
3.823466099238526
  0
ELLIPSE
  5
272
330
18
100
AcDbEntity
  8
31
  6
Continuous
 62
     1
100
AcDbEllipse
 10
146.9855400733474
 20
142.4010188556
 30
0.0
 11
-0.4957419848952251
 21
0.8586595470435291
 31
0.0
210
0.0
220
0.0
230
1.0
 40
0.5773488493024277
 41
3.706759571504512
 42
3.762534489735306
  0
ELLIPSE
  5
273
330
18
100
AcDbEntity
  8
31
  6
Continuous
 62
     1
100
AcDbEllipse
 10
147.0435845069412
 20
142.3594996905609
 30
0.0
 11
-0.4546656673268681
 21
0.7875142074883498
 31
0.0
210
0.0
220
0.0
230
0.9999999999999998
 40
0.5773489013906218
 41
3.635227481133994
 42
3.697565232589302
  0
ELLIPSE
  5
274
330
18
100
AcDbEntity
  8
31
  6
Continuous
 62
     1
100
AcDbEllipse
 10
147.1338097266678
 20
142.2782924151703
 30
0.0
 11
-0.388418979518969
 21
0.67275313184875
 31
0.0
210
0.0
220
0.0
230
1.0
 40
0.5773520688697925
 41
3.556322792486598
 42
3.631904498598807
  0
ELLIPSE
  5
275
330
18
100
AcDbEntity
  8
31
  6
Continuous
 62
     1
100
AcDbEllipse
 10
146.9935967139725
 20
142.3969905352875
 30
0.0
 11
-0.489416310197023
 21
0.8476918298868229
 31
0.0
210
0.0
220
0.0
230
1.0
 40
0.57735060701291
 41
3.528660819120884
 42
3.585734541221869
  0
LINE
  5
276
330
18
100
AcDbEntity
  8
31
  6
Continuous
 62
     1
100
AcDbLine
 10
147.6315819434646
 20
141.7186686969086
 30
0.0
 11
147.6172997169021
 21
141.6885478472992
 31
0.0
  0
ELLIPSE
  5
277
330
18
100
AcDbEntity
  8
31
  6
Continuous
 62
     1
100
AcDbEllipse
 10
147.1173302344802
 20
142.2861049151703
 30
0.0
 11
-0.4009710994318891
 21
0.6944888618603408
 31
0.0
210
0.0
220
0.0
230
1.0
 40
0.5773531268614129
 41
3.354056567541709
 42
3.435715199219324
  0
ELLIPSE
  5
278
330
18
100
AcDbEntity
  8
31
  6
Continuous
 62
     1
100
AcDbEllipse
 10
147.1711632422928
 20
142.2118556475922
 30
0.0
 11
-0.3546430141631166
 21
0.6142478189121972
 31
0.0
210
0.0
220
0.0
230
1.0
 40
0.5773531404899228
 41
3.215753588896371
 42
3.358396908987194
  0
ELLIPSE
  5
279
330
18
100
AcDbEntity
  8
31
  6
Continuous
 62
     1
100
AcDbEllipse
 10
146.4796196631912
 20
143.1811397052094
 30
0.0
 11
-0.9545228894631126
 21
1.653281633128035
 31
0.0
210
0.0
220
0.0
230
1.0
 40
0.577350223391904
 41
3.203456683157281
 42
3.2731857314948
  0
LINE
  5
27B
102
{ACAD_REACTORS
330
280
102
}
330
18
100
AcDbEntity
  8
BGA45757
  6
Continuous
 62
     7
100
AcDbLine
 10
89.636670749617
 20
167.125399348764
 30
0.0
 11
83.21461264414825
 21
163.4176509356781
 31
0.0
  0
ELLIPSE
  5
27C
102
{ACAD_REACTORS
330
280
102
}
330
18
100
AcDbEntity
  8
BGA45757
  6
Continuous
 62
     7
100
AcDbEllipse
 10
86.42564169688261
 20
162.721575496225
 30
0.0
 11
2.755690093451553
 21
4.77296663039917
 31
0.0
210
0.0
220
0.0
230
1.0
 40
0.5773510034045241
 41
1.753745990329131
 42
2.466584941200447
  0
ELLIPSE
  5
27D
102
{ACAD_REACTORS
330
280
102
}
330
18
100
AcDbEntity
  8
BGA45757
  6
Continuous
 62
     7
100
AcDbEllipse
 10
86.42564169688261
 20
162.721575496225
 30
0.0
 11
2.755690093451553
 21
4.77296663039917
 31
0.0
210
0.0
220
0.0
230
1.0
 40
0.5773510034045241
 41
5.052226204656455
 42
6.100240769033741
  0
LINE
  5
27E
102
{ACAD_REACTORS
330
280
102
}
330
18
100
AcDbEntity
  8
BGA45757
  6
Continuous
 62
     7
100
AcDbLine
 10
86.79697958750763
 20
160.3859126544281
 30
0.0
 11
84.33128134532012
 21
158.9623897052093
 31
0.0
  0
INSERT
  5
428
102
{ACAD_REACTORS
330
433
102
}
330
18
100
AcDbEntity
  8
0
  6
Continuous
 62
     7
370
    50
100
AcDbBlockReference
  2
PH_GRPBLK
 10
20.0
 20
4.999999999999886
 30
0.0
1001
PHOENIX7010
1002
{
1070
    41
1040
1.0
1002
}
  0
LINE
  5
429
102
{ACAD_REACTORS
330
433
102
}
330
18
100
AcDbEntity
  8
0
  6
Continuous
 62
     1
370
    50
100
AcDbLine
 10
1.0
 20
295.9999999999999
 30
0.0
 11
1.0
 21
0.9999999999998863
 31
0.0
1001
PHOENIX7010
1002
{
1070
    62
1070
     1
1070
    41
1040
1.0
1002
}
  0
LINE
  5
42A
102
{ACAD_REACTORS
330
433
102
}
330
18
100
AcDbEntity
  8
0
  6
Continuous
 62
     1
370
    50
100
AcDbLine
 10
209.0
 20
295.9999999999999
 30
0.0
 11
1.0
 21
295.9999999999999
 31
0.0
1001
PHOENIX7010
1002
{
1070
    62
1070
     1
1070
    41
1040
1.0
1002
}
  0
LINE
  5
42B
102
{ACAD_REACTORS
330
433
102
}
330
18
100
AcDbEntity
  8
0
  6
Continuous
 62
     1
370
    50
100
AcDbLine
 10
209.0
 20
0.9999999999998863
 30
0.0
 11
209.0
 21
295.9999999999999
 31
0.0
1001
PHOENIX7010
1002
{
1070
    62
1070
     1
1070
    41
1040
1.0
1002
}
  0
LINE
  5
42C
102
{ACAD_REACTORS
330
433
102
}
330
18
100
AcDbEntity
  8
0
  6
Continuous
 62
     1
370
    50
100
AcDbLine
 10
1.0
 20
0.9999999999998863
 30
0.0
 11
209.0
 21
0.9999999999998863
 31
0.0
1001
PHOENIX7010
1002
{
1070
    62
1070
     1
1070
    41
1040
1.0
1002
}
  0
LINE
  5
42D
102
{ACAD_REACTORS
330
433
102
}
330
18
100
AcDbEntity
  8
0
  6
Continuous
 62
     3
370
    50
100
AcDbLine
 10
20.0
 20
291.9999999999999
 30
0.0
 11
20.0
 21
4.999999999999886
 31
0.0
1001
PHOENIX7010
1002
{
1070
    62
1070
     3
1070
    41
1040
1.0
1002
}
  0
LINE
  5
42E
102
{ACAD_REACTORS
330
433
102
}
330
18
100
AcDbEntity
  8
0
  6
Continuous
 62
     3
370
    50
100
AcDbLine
 10
205.0
 20
291.9999999999999
 30
0.0
 11
20.0
 21
291.9999999999999
 31
0.0
1001
PHOENIX7010
1002
{
1070
    62
1070
     3
1070
    41
1040
1.0
1002
}
  0
LINE
  5
42F
102
{ACAD_REACTORS
330
433
102
}
330
18
100
AcDbEntity
  8
0
  6
Continuous
 62
     3
370
    50
100
AcDbLine
 10
205.0
 20
4.999999999999886
 30
0.0
 11
205.0
 21
291.9999999999999
 31
0.0
1001
PHOENIX7010
1002
{
1070
    62
1070
     3
1070
    41
1040
1.0
1002
}
  0
LINE
  5
430
102
{ACAD_REACTORS
330
433
102
}
330
18
100
AcDbEntity
  8
0
  6
Continuous
 62
     3
370
    50
100
AcDbLine
 10
20.0
 20
4.999999999999886
 30
0.0
 11
205.0
 21
4.999999999999886
 31
0.0
1001
PHOENIX7010
1002
{
1070
    62
1070
     3
1070
    41
1040
1.0
1002
}
  0
MTEXT
  5
431
102
{ACAD_REACTORS
330
433
102
}
330
18
100
AcDbEntity
  8
0
  6
Continuous
 62
     7
370
    50
100
AcDbMText
 10
19.70248718641096
 20
55.39351207913319
 30
0.0
 40
2.0
 41
0.0
 71
     7
 72
     5
  1
{\T1.1;\C1;"Schutzvermerk nach DIN ISO 16016 beachten" \Q20;"Please pay attention to copyright note DIN ISO 16016"}
 11
0.0000000000000002
 21
1.0
 31
0.0
 73
     1
 44
1.0
1001
PHOENIX7010
1002
{
1070
    41
1040
1.0
1002
}
1001
ACAD
1000
MTEXTBEGIN
1070
    73
1070
     1
1070
    44
1040
1.0
1070
    74
1070
     0
1000
MTEXTEND
  0
HATCH
  5
445
102
{ACAD_REACTORS
330
499
102
}
330
18
100
AcDbEntity
  8
0
  6
Continuous
 62
     1
370
    25
100
AcDbHatch
 10
0.0
 20
0.0
 30
0.0
210
0.0
220
0.0
230
1.0
  2
_U
 70
     0
 71
     1
 91
        1
 92
        0
 93
        5
 72
     1
 10
197.4334749940256
 20
35.16453811398026
 11
190.7334749940256
 21
27.36453811398019
 72
     1
 10
190.7334749940255
 20
27.36453811398019
 11
202.7334749940255
 21
27.36453811398019
 72
     1
 10
202.7334749940255
 20
27.36453811398019
 11
202.7334749940256
 21
35.1645381139802
 72
     1
 10
202.7334749940255
 20
35.16453811398014
 11
197.4334749940255
 21
28.26453811398025
 72
     1
 10
197.4334749940256
 20
28.26453811398028
 11
197.4334749940255
 21
35.16453811398026
 97
        1
330
489
 75
     0
 76
     0
 52
45.0
 41
0.1
 77
     0
 78
     1
 53
45.0
 43
-210.0
 44
-32.08885297207075
 45
-0.0707106781186548
 46
0.0707106781186548
 79
     0
 98
        1
 10
-210.0
 20
-32.08885297207075
1001
PHOENIX7010
1002
{
1070
    41
1040
1.0
1002
}
  0
HATCH
  5
446
102
{ACAD_REACTORS
330
499
102
}
330
18
100
AcDbEntity
  8
0
  6
Continuous
 62
     1
370
    25
100
AcDbHatch
 10
0.0
 20
0.0
 30
0.0
210
0.0
220
0.0
230
1.0
  2
_U
 70
     0
 71
     1
 91
        1
 92
        0
 93
        3
 72
     1
 10
189.8834749940255
 20
27.36453811398019
 11
189.8834749940255
 21
31.51453811398019
 72
     1
 10
189.8834749940255
 20
31.51453811398017
 11
194.0334749940254
 21
31.51453811398017
 72
     2
 10
189.8834749940255
 20
31.51453811398017
 40
4.149999999999977
 50
0.0000000000001962
 51
270.0
 73
     1
 97
        1
330
48A
 75
     0
 76
     0
 52
45.0
 41
0.65
 77
     0
 78
     1
 53
45.0
 43
-210.0
 44
-32.08885297207075
 45
-0.4596194077712559
 46
0.459619407771256
 79
     0
 98
        1
 10
-210.0
 20
-32.08885297207075
1001
PHOENIX7010
1002
{
1070
    41
1040
1.0
1002
}
  0
LINE
  5
447
102
{ACAD_REACTORS
330
499
102
}
330
18
100
AcDbEntity
  8
0
  6
Continuous
 62
     7
370
    50
100
AcDbLine
 10
190.7334749940255
 20
27.36453811398019
 30
0.0
 11
202.7334749940255
 21
27.36453811398019
 31
0.0
1001
PHOENIX7010
1002
{
1070
    41
1040
1.0
1002
}
  0
LINE
  5
448
102
{ACAD_REACTORS
330
499
102
}
330
18
100
AcDbEntity
  8
0
  6
Continuous
 62
     7
370
    50
100
AcDbLine
 10
202.7334749940255
 20
27.36453811398019
 30
0.0
 11
202.7334749940255
 21
35.16453811398014
 31
0.0
1001
PHOENIX7010
1002
{
1070
    41
1040
1.0
1002
}
  0
LINE
  5
449
102
{ACAD_REACTORS
330
499
102
}
330
18
100
AcDbEntity
  8
0
  6
Continuous
 62
     7
370
    50
100
AcDbLine
 10
197.4334749940256
 20
28.26453811398017
 30
0.0
 11
197.4334749940256
 21
35.16453811398014
 31
0.0
1001
PHOENIX7010
1002
{
1070
    41
1040
1.0
1002
}
  0
LINE
  5
44A
102
{ACAD_REACTORS
330
499
102
}
330
18
100
AcDbEntity
  8
0
  6
Continuous
 62
     7
370
    50
100
AcDbLine
 10
197.4334749940256
 20
35.16453811398014
 30
0.0
 11
190.7334749940255
 21
27.36453811398019
 31
0.0
1001
PHOENIX7010
1002
{
1070
    41
1040
1.0
1002
}
  0
LINE
  5
44B
102
{ACAD_REACTORS
330
499
102
}
330
18
100
AcDbEntity
  8
0
  6
Continuous
 62
     7
370
    50
100
AcDbLine
 10
202.7334749940255
 20
35.16453811398014
 30
0.0
 11
197.4334749940256
 21
28.26453811398017
 31
0.0
1001
PHOENIX7010
1002
{
1070
    41
1040
1.0
1002
}
  0
INSERT
  5
44C
102
{ACAD_REACTORS
330
499
102
}
330
18
100
AcDbEntity
  8
0
  6
Continuous
 62
     1
370
    25
100
AcDbBlockReference
  2
PH_GRPBLK
 10
190.7334749940255
 20
27.36453811398019
 30
0.0
1001
PHOENIX7010
1002
{
1070
    41
1040
1.0
1002
}
  0
MTEXT
  5
44D
102
{ACAD_REACTORS
330
49A
102
}
330
18
100
AcDbEntity
  8
0
  6
Continuous
 62
     7
370
    50
100
AcDbMText
 10
171.0842366554657
 20
17.8834606000313
 30
0.0
 40
1.6
 41
0.0
 71
     7
 72
     5
  1
{\fArial|b0|i0|c0|p34;\W1.1;\C1;A Phoenix Mecano Company}
 73
     1
 44
1.0
1001
PHOENIX7010
1002
{
1070
    41
1040
1.0
1002
}
1001
ACAD
1000
MTEXTBEGIN
1070
    73
1070
     1
1070
    44
1040
1.0
1070
    74
1070
     0
1000
MTEXTEND
  0
MTEXT
  5
44E
102
{ACAD_XDICTIONARY
360
4EF
102
}
102
{ACAD_REACTORS
330
49A
102
}
330
18
100
AcDbEntity
  8
0
  6
Continuous
 62
     7
370
    50
100
AcDbMText
 10
183.5658807175857
 20
21.46517927327716
 30
0.0
 40
3.7
 41
0.0
 71
     7
 72
     5
  1
{\fArial|b1|i0|c0|p34;\W1.1;BOPLA}
 73
     1
 44
1.135135135135135
1001
PHOENIX7010
1002
{
1070
    41
1040
1.0
1002
}
1001
ACAD
1000
MTEXTBEGIN
1070
    73
1070
     1
1070
    44
1040
1.135135135135135
1070
    74
1070
     0
1000
MTEXTEND
  0
INSERT
  5
44F
102
{ACAD_REACTORS
330
49A
102
}
330
18
100
AcDbEntity
  8
0
  6
Continuous
 62
     7
370
    50
100
AcDbBlockReference
  2
PH_GRPBLK
 10
190.7334749940255
 20
27.36453811398019
 30
0.0
1001
PHOENIX7010
1002
{
1070
    41
1040
1.0
1002
}
  0
MTEXT
  5
450
102
{ACAD_REACTORS
330
49B
102
}
330
18
100
AcDbEntity
  8
0
  6
Continuous
 62
     5
370
    35
100
AcDbMText
 10
108.9304981780733
 20
52.18090043987103
 30
0.0
 40
3.5
 41
0.0
 71
     7
 72
     5
  1
{\C7;Katalogzeichnung/\Q20;Catalogue drawing}
 73
     1
 44
1.0
1001
PHOENIX7010
1002
{
1070
    41
1040
1.0
1002
}
1001
ACAD
1000
MTEXTBEGIN
1070
    73
1070
     1
1070
    44
1040
1.0
1070
    74
1070
     0
1000
MTEXTEND
  0
MTEXT
  5
451
102
{ACAD_REACTORS
330
49B
102
}
330
18
100
AcDbEntity
  8
0
  6
Continuous
 62
     5
370
    35
100
AcDbMText
 10
108.9304981780733
 20
59.18090043987104
 30
0.0
 40
4.0
 41
0.0
 71
     7
 72
     5
  1
{\C7;LO/M 000 . .}
 73
     1
 44
1.0
1001
PHOENIX7010
1002
{
1070
    41
1040
1.0
1002
}
1001
ACAD
1000
MTEXTBEGIN
1070
    73
1070
     1
1070
    44
1040
1.0
1070
    74
1070
     0
1000
MTEXTEND
  0
MTEXT
  5
452
102
{ACAD_REACTORS
330
49B
102
}
330
18
100
AcDbEntity
  8
0
  6
Continuous
 62
     5
370
    35
100
AcDbMText
 10
108.9304981780733
 20
66.18090043987104
 30
0.0
 40
4.0
 41
0.0
 71
     7
 72
     5
  1
{\C7;Interzoll Modul}
 73
     1
 44
1.0
1001
PHOENIX7010
1002
{
1070
    41
1040
1.0
1002
}
1001
ACAD
1000
MTEXTBEGIN
1070
    73
1070
     1
1070
    44
1040
1.0
1070
    74
1070
     0
1000
MTEXTEND
  0
MTEXT
  5
453
102
{ACAD_REACTORS
330
49B
102
}
330
18
100
AcDbEntity
  8
0
  6
Continuous
 62
     5
370
    35
100
AcDbMText
 10
130.3074630969179
 20
95.19875800682347
 30
0.0
 40
4.0
 41
0.0
 71
     7
 72
     5
  1
{\C7;-}
 73
     1
 44
1.0
1001
PHOENIX7010
1002
{
1070
    41
1040
1.0
1002
}
1001
ACAD
1000
MTEXTBEGIN
1070
    73
1070
     1
1070
    44
1040
1.0
1070
    74
1070
     0
1000
MTEXTEND
  0
MTEXT
  5
454
102
{ACAD_REACTORS
330
49B
102
}
330
18
100
AcDbEntity
  8
0
  6
Continuous
 62
     5
370
    35
100
AcDbMText
 10
109.2942762589885
 20
94.24669079255091
 30
0.0
 40
2.5
 41
0.0
 71
     7
 72
     5
  1
{\C1;Maßstab/\P\Q20;Scale:}
 73
     1
 44
1.0
1001
PHOENIX7010
1002
{
1070
    41
1040
1.0
1002
}
1001
ACAD
1000
MTEXTBEGIN
1070
    73
1070
     1
1070
    44
1040
1.0
1070
    74
1070
     0
1000
MTEXTEND
  0
MTEXT
  5
455
102
{ACAD_REACTORS
330
49B
102
}
330
18
100
AcDbEntity
  8
0
  6
Continuous
 62
     5
370
    35
100
AcDbMText
 10
109.5702130763932
 20
86.57846179300577
 30
0.0
 40
3.0
 41
0.0
 71
     7
 72
     5
  1
Zeichnungs-Nr. / {\Q20;Drawing-No.:}
 73
     1
 44
1.0
1001
PHOENIX7010
1002
{
1070
    41
1040
1.0
1002
}
1001
ACAD
1000
MTEXTBEGIN
1070
    73
1070
     1
1070
    44
1040
1.0
1070
    74
1070
     0
1000
MTEXTEND
  0
MTEXT
  5
456
102
{ACAD_REACTORS
330
49B
102
}
330
18
100
AcDbEntity
  8
0
  6
Continuous
 62
     5
370
    35
100
AcDbMText
 10
130.6810942169352
 20
80.43630467405547
 30
0.0
 40
4.0
 41
0.0
 71
     7
 72
     5
  1
{\C7;4K 5315.012.01}
 73
     1
 44
1.0
1001
PHOENIX7010
1002
{
1070
    41
1040
1.0
1002
}
1001
ACAD
1000
MTEXTBEGIN
1070
    73
1070
     1
1070
    44
1040
1.0
1070
    74
1070
     0
1000
MTEXTEND
  0
MTEXT
  5
457
102
{ACAD_REACTORS
330
49B
102
}
330
18
100
AcDbEntity
  8
0
  6
Continuous
 62
     5
370
    35
100
AcDbMText
 10
108.8800602381664
 20
72.4289616716369
 30
0.0
 40
4.0
 41
0.0
 71
     7
 72
     5
  1
{\C7;Artikel / \Q20;Article:}
 73
     1
 44
1.0
1001
PHOENIX7010
1002
{
1070
    41
1040
1.0
1002
}
1001
ACAD
1000
MTEXTBEGIN
1070
    73
1070
     1
1070
    44
1040
1.0
1070
    74
1070
     0
1000
MTEXTEND
  0
MTEXT
  5
458
102
{ACAD_REACTORS
330
49B
102
}
330
18
100
AcDbEntity
  8
0
  6
Continuous
 62
     5
370
    35
100
AcDbMText
 10
119.5918340418986
 20
15.32304279191066
 30
0.0
 40
2.0
 41
0.0
 71
     7
 72
     5
  1
{\C1;Datum/\P\Q20;Date:}
 73
     1
 44
1.0
1001
PHOENIX7010
1002
{
1070
    41
1040
1.0
1002
}
1001
ACAD
1000
MTEXTBEGIN
1070
    73
1070
     1
1070
    44
1040
1.0
1070
    74
1070
     0
1000
MTEXTEND
  0
MTEXT
  5
459
102
{ACAD_REACTORS
330
49B
102
}
330
18
100
AcDbEntity
  8
0
  6
Continuous
 62
     5
370
    35
100
AcDbMText
 10
106.167758256943
 20
15.32303913053602
 30
0.0
 40
2.0
 41
0.0
 71
     7
 72
     5
  1
{\C1;Ä.Nr/\P\Q20;Alt-No.:}
 73
     1
 44
1.0
1001
PHOENIX7010
1002
{
1070
    41
1040
1.0
1002
}
1001
ACAD
1000
MTEXTBEGIN
1070
    73
1070
     1
1070
    44
1040
1.0
1070
    74
1070
     0
1000
MTEXTEND
  0
MTEXT
  5
45A
102
{ACAD_REACTORS
330
49B
102
}
330
18
100
AcDbEntity
  8
0
  6
Continuous
 62
     5
370
    35
100
AcDbMText
 10
132.2178658257173
 20
10.60592166613912
 30
0.0
 40
2.5
 41
0.0
 71
     7
 72
     5
  1
2 901 822
 73
     1
 44
1.0
1001
PHOENIX7010
1002
{
1070
    41
1040
1.0
1002
}
1001
ACAD
1000
MTEXTBEGIN
1070
    73
1070
     1
1070
    44
1040
1.0
1070
    74
1070
     0
1000
MTEXTEND
  0
MTEXT
  5
45B
102
{ACAD_REACTORS
330
49B
102
}
330
18
100
AcDbEntity
  8
0
  6
Continuous
 62
     5
370
    35
100
AcDbMText
 10
106.5289912646938
 20
10.49475527098093
 30
0.0
 40
2.5
 41
0.0
 71
     7
 72
     5
  1
DISK:
 73
     1
 44
1.0
1001
PHOENIX7010
1002
{
1070
    41
1040
1.0
1002
}
1001
ACAD
1000
MTEXTBEGIN
1070
    73
1070
     1
1070
    44
1040
1.0
1070
    74
1070
     0
1000
MTEXTEND
  0
MTEXT
  5
45C
102
{ACAD_REACTORS
330
49B
102
}
330
18
100
AcDbEntity
  8
0
  6
Continuous
 62
     5
370
    35
100
AcDbMText
 10
132.2178658257173
 20
6.248887523187477
 30
0.0
 40
2.5
 41
0.0
 71
     7
 72
     5
  1
18.06.99 HR
 73
     1
 44
1.0
1001
PHOENIX7010
1002
{
1070
    41
1040
1.0
1002
}
1001
ACAD
1000
MTEXTBEGIN
1070
    73
1070
     1
1070
    44
1040
1.0
1070
    74
1070
     0
1000
MTEXTEND
  0
MTEXT
  5
45D
102
{ACAD_REACTORS
330
49B
102
}
330
18
100
AcDbEntity
  8
0
  6
Continuous
 62
     5
370
    35
100
AcDbMText
 10
106.5289912646938
 20
6.248887523187477
 30
0.0
 40
2.5
 41
0.0
 71
     7
 72
     5
  1
Datum/{\Q20;Date:}
 73
     1
 44
1.0
1001
PHOENIX7010
1002
{
1070
    41
1040
1.0
1002
}
1001
ACAD
1000
MTEXTBEGIN
1070
    73
1070
     1
1070
    44
1040
1.0
1070
    74
1070
     0
1000
MTEXTEND
  0
LINE
  5
45E
102
{ACAD_REACTORS
330
49B
102
}
330
18
100
AcDbEntity
  8
0
  6
Continuous
 62
     5
370
    35
100
AcDbLine
 10
104.9999999999998
 20
14.5
 30
0.0
 11
205.0
 21
14.5
 31
0.0
1001
PHOENIX7010
1002
{
1070
    41
1040
1.0
1002
}
  0
LINE
  5
45F
102
{ACAD_REACTORS
330
49B
102
}
330
18
100
AcDbEntity
  8
0
  6
Continuous
 62
     5
100
AcDbLine
 10
195.4999999999998
 20
92.49999999999989
 30
0.0
 11
195.4999999999998
 21
99.49999999999988
 31
0.0
1001
PHOENIX7010
1002
{
1070
    62
1070
     5
1070
    41
1040
1.0
1002
}
  0
LINE
  5
460
102
{ACAD_REACTORS
330
49B
102
}
330
18
100
AcDbEntity
  8
0
  6
ACAD_ISO04W100
 62
     1
 48
0.1451612903225806
100
AcDbLine
 10
200.4999999999998
 20
91.49999999999989
 30
0.0
 11
200.4999999999998
 21
100.4999999999999
 31
0.0
1001
PHOENIX7010
1002
{
1070
    62
1070
     1
1070
    41
1040
1.0
1002
}
  0
CIRCLE
  5
461
102
{ACAD_REACTORS
330
49B
102
}
330
18
100
AcDbEntity
  8
0
  6
Continuous
 62
     5
100
AcDbCircle
 10
200.4999999999998
 20
95.99999999999988
 30
0.0
 40
1.75
1001
PHOENIX7010
1002
{
1070
    62
1070
     5
1070
    41
1040
1.0
1002
}
  0
CIRCLE
  5
462
102
{ACAD_REACTORS
330
49B
102
}
330
18
100
AcDbEntity
  8
0
  6
Continuous
 62
     5
100
AcDbCircle
 10
200.4999999999998
 20
95.99999999999988
 30
0.0
 40
3.5
1001
PHOENIX7010
1002
{
1070
    62
1070
     5
1070
    41
1040
1.0
1002
}
  0
LINE
  5
463
102
{ACAD_REACTORS
330
49B
102
}
330
18
100
AcDbEntity
  8
0
  6
Continuous
 62
     5
100
AcDbLine
 10
188.4999999999998
 20
94.24999999999988
 30
0.0
 11
188.4999999999998
 21
97.74999999999989
 31
0.0
1001
PHOENIX7010
1002
{
1070
    62
1070
     5
1070
    41
1040
1.0
1002
}
  0
LINE
  5
464
102
{ACAD_REACTORS
330
49B
102
}
330
18
100
AcDbEntity
  8
0
  6
ACAD_ISO04W100
 62
     1
 48
0.282258064516129
100
AcDbLine
 10
204.9999999999998
 20
95.99999999999988
 30
0.0
 11
187.4999999999998
 21
95.99999999999988
 31
0.0
1001
PHOENIX7010
1002
{
1070
    62
1070
     1
1070
    41
1040
1.0
1002
}
  0
LINE
  5
465
102
{ACAD_REACTORS
330
49B
102
}
330
18
100
AcDbEntity
  8
0
  6
Continuous
 62
     5
100
AcDbLine
 10
195.4999999999998
 20
92.49999999999989
 30
0.0
 11
188.4999999999998
 21
94.24999999999988
 31
0.0
1001
PHOENIX7010
1002
{
1070
    62
1070
     5
1070
    41
1040
1.0
1002
}
  0
LINE
  5
466
102
{ACAD_REACTORS
330
49B
102
}
330
18
100
AcDbEntity
  8
0
  6
Continuous
 62
     5
100
AcDbLine
 10
195.4999999999998
 20
99.49999999999988
 30
0.0
 11
188.4999999999998
 21
97.74999999999989
 31
0.0
1001
PHOENIX7010
1002
{
1070
    62
1070
     5
1070
    41
1040
1.0
1002
}
  0
ARC
  5
467
102
{ACAD_REACTORS
330
49B
102
}
330
18
100
AcDbEntity
  8
0
  6
Continuous
 62
     5
100
AcDbCircle
 10
107.4999999999997
 20
88.99999999999989
 30
0.0
 40
2.5
100
AcDbArc
 50
90.0
 51
180.0
1001
PHOENIX7010
1002
{
1070
    62
1070
     5
1070
    41
1040
1.0
1002
}
  0
ARC
  5
468
102
{ACAD_REACTORS
330
49B
102
}
330
18
100
AcDbEntity
  8
0
  6
Continuous
 62
     5
100
AcDbCircle
 10
107.4999999999997
 20
99.99999999999989
 30
0.0
 40
2.5
100
AcDbArc
 50
90.0
 51
180.0
1001
PHOENIX7010
1002
{
1070
    62
1070
     5
1070
    41
1040
1.0
1002
}
  0
LINE
  5
469
102
{ACAD_REACTORS
330
49B
102
}
330
18
100
AcDbEntity
  8
0
  6
Continuous
 62
     5
100
AcDbLine
 10
205.0
 20
91.49999999999989
 30
0.0
 11
107.4999999999997
 21
91.49999999999989
 31
0.0
1001
PHOENIX7010
1002
{
1070
    62
1070
     5
1070
    41
1040
1.0
1002
}
  0
LINE
  5
46A
102
{ACAD_REACTORS
330
49B
102
}
330
18
100
AcDbEntity
  8
0
  6
Continuous
 62
     5
100
AcDbLine
 10
205.0
 20
102.4999999999999
 30
0.0
 11
107.4999999999997
 21
102.4999999999999
 31
0.0
1001
PHOENIX7010
1002
{
1070
    62
1070
     5
1070
    41
1040
1.0
1002
}
  0
LINE
  5
46B
102
{ACAD_REACTORS
330
49B
102
}
330
18
100
AcDbEntity
  8
0
  6
Continuous
 62
     5
100
AcDbLine
 10
140.0
 20
48.0
 30
0.0
 11
140.0
 21
14.5
 31
0.0
1001
PHOENIX7010
1002
{
1070
    62
1070
     5
1070
    41
1040
1.0
1002
}
  0
TEXT
  5
46C
102
{ACAD_REACTORS
330
49B
102
}
330
18
100
AcDbEntity
  8
0
  6
Continuous
 62
     1
100
AcDbText
 10
118.9999996997324
 20
42.74999981501344
 30
0.0
 40
2.0
  1
-
 41
1.5
100
AcDbText
1001
PHOENIX7010
1002
{
1070
    62
1070
     1
1070
    41
1040
1.0
1002
}
  0
TEXT
  5
46D
102
{ACAD_REACTORS
330
49B
102
}
330
18
100
AcDbEntity
  8
0
  6
Continuous
 62
     1
100
AcDbText
 10
118.9999996997324
 20
40.24999981501344
 30
0.0
 40
2.0
  1
-
 41
1.5
100
AcDbText
1001
PHOENIX7010
1002
{
1070
    62
1070
     1
1070
    41
1040
1.0
1002
}
  0
TEXT
  5
46E
102
{ACAD_REACTORS
330
49B
102
}
330
18
100
AcDbEntity
  8
0
  6
Continuous
 62
     1
100
AcDbText
 10
118.9999996997324
 20
45.24999981501344
 30
0.0
 40
2.0
  1
-
 41
1.5
100
AcDbText
1001
PHOENIX7010
1002
{
1070
    62
1070
     1
1070
    41
1040
1.0
1002
}
  0
TEXT
  5
46F
102
{ACAD_REACTORS
330
49B
102
}
330
18
100
AcDbEntity
  8
0
  6
Continuous
 62
     1
100
AcDbText
 10
105.9999996997323
 20
42.74999981501344
 30
0.0
 40
2.0
  1
-
 41
1.5
100
AcDbText
1001
PHOENIX7010
1002
{
1070
    62
1070
     1
1070
    41
1040
1.0
1002
}
  0
TEXT
  5
470
102
{ACAD_REACTORS
330
49B
102
}
330
18
100
AcDbEntity
  8
0
  6
Continuous
 62
     1
100
AcDbText
 10
105.9999996997323
 20
40.24999981501344
 30
0.0
 40
2.0
  1
-
 41
1.5
100
AcDbText
1001
PHOENIX7010
1002
{
1070
    62
1070
     1
1070
    41
1040
1.0
1002
}
  0
TEXT
  5
471
102
{ACAD_REACTORS
330
49B
102
}
330
18
100
AcDbEntity
  8
0
  6
Continuous
 62
     1
100
AcDbText
 10
105.9999996997323
 20
45.24999981501344
 30
0.0
 40
2.0
  1
-
 41
1.5
100
AcDbText
1001
PHOENIX7010
1002
{
1070
    62
1070
     1
1070
    41
1040
1.0
1002
}
  0
ARC
  5
472
102
{ACAD_REACTORS
330
49B
102
}
330
18
100
AcDbEntity
  8
0
  6
Continuous
 62
     5
100
AcDbCircle
 10
107.4999999999997
 20
45.49999999999999
 30
0.0
 40
2.5
100
AcDbArc
 50
90.0
 51
180.0
1001
PHOENIX7010
1002
{
1070
    62
1070
     5
1070
    41
1040
1.0
1002
}
  0
ARC
  5
473
102
{ACAD_REACTORS
330
49B
102
}
330
18
100
AcDbEntity
  8
0
  6
Continuous
 62
     5
100
AcDbCircle
 10
107.4999999999997
 20
76.0
 30
0.0
 40
2.5
100
AcDbArc
 50
90.0
 51
180.0
1001
PHOENIX7010
1002
{
1070
    62
1070
     5
1070
    41
1040
1.0
1002
}
  0
TEXT
  5
474
102
{ACAD_REACTORS
330
49B
102
}
330
18
100
AcDbEntity
  8
0
  6
Continuous
 62
     1
100
AcDbText
 10
118.9999996997324
 20
25.24999981501344
 30
0.0
 40
2.0
  1
-
 41
1.5
100
AcDbText
1001
PHOENIX7010
1002
{
1070
    62
1070
     1
1070
    41
1040
1.0
1002
}
  0
TEXT
  5
475
102
{ACAD_REACTORS
330
49B
102
}
330
18
100
AcDbEntity
  8
0
  6
Continuous
 62
     1
100
AcDbText
 10
118.9999996997324
 20
22.74999981501344
 30
0.0
 40
2.0
  1
-
 41
1.5
100
AcDbText
1001
PHOENIX7010
1002
{
1070
    62
1070
     1
1070
    41
1040
1.0
1002
}
  0
TEXT
  5
476
102
{ACAD_REACTORS
330
49B
102
}
330
18
100
AcDbEntity
  8
0
  6
Continuous
 62
     1
100
AcDbText
 10
118.9999996997324
 20
30.24999981501344
 30
0.0
 40
2.0
  1
-
 41
1.5
100
AcDbText
1001
PHOENIX7010
1002
{
1070
    62
1070
     1
1070
    41
1040
1.0
1002
}
  0
TEXT
  5
477
102
{ACAD_REACTORS
330
49B
102
}
330
18
100
AcDbEntity
  8
0
  6
Continuous
 62
     1
100
AcDbText
 10
118.9999996997324
 20
27.74999981501344
 30
0.0
 40
2.0
  1
-
 41
1.5
100
AcDbText
1001
PHOENIX7010
1002
{
1070
    62
1070
     1
1070
    41
1040
1.0
1002
}
  0
TEXT
  5
478
102
{ACAD_REACTORS
330
49B
102
}
330
18
100
AcDbEntity
  8
0
  6
Continuous
 62
     1
100
AcDbText
 10
118.9999996997324
 20
32.74999981501344
 30
0.0
 40
2.0
  1
-
 41
1.5
100
AcDbText
1001
PHOENIX7010
1002
{
1070
    62
1070
     1
1070
    41
1040
1.0
1002
}
  0
TEXT
  5
479
102
{ACAD_REACTORS
330
49B
102
}
330
18
100
AcDbEntity
  8
0
  6
Continuous
 62
     1
100
AcDbText
 10
118.9999996997324
 20
35.24999981501344
 30
0.0
 40
2.0
  1
-
 41
1.5
100
AcDbText
1001
PHOENIX7010
1002
{
1070
    62
1070
     1
1070
    41
1040
1.0
1002
}
  0
TEXT
  5
47A
102
{ACAD_REACTORS
330
49B
102
}
330
18
100
AcDbEntity
  8
0
  6
Continuous
 62
     1
100
AcDbText
 10
118.9999996997324
 20
37.74999981501344
 30
0.0
 40
2.0
  1
-
 41
1.5
100
AcDbText
1001
PHOENIX7010
1002
{
1070
    62
1070
     1
1070
    41
1040
1.0
1002
}
  0
TEXT
  5
47B
102
{ACAD_REACTORS
330
49B
102
}
330
18
100
AcDbEntity
  8
0
  6
Continuous
 62
     1
100
AcDbText
 10
105.9999996997323
 20
25.24999981501344
 30
0.0
 40
2.0
  1
-
 41
1.5
100
AcDbText
1001
PHOENIX7010
1002
{
1070
    62
1070
     1
1070
    41
1040
1.0
1002
}
  0
TEXT
  5
47C
102
{ACAD_REACTORS
330
49B
102
}
330
18
100
AcDbEntity
  8
0
  6
Continuous
 62
     1
100
AcDbText
 10
105.9999996997323
 20
22.74999981501344
 30
0.0
 40
2.0
  1
-
 41
1.5
100
AcDbText
1001
PHOENIX7010
1002
{
1070
    62
1070
     1
1070
    41
1040
1.0
1002
}
  0
TEXT
  5
47D
102
{ACAD_REACTORS
330
49B
102
}
330
18
100
AcDbEntity
  8
0
  6
Continuous
 62
     1
100
AcDbText
 10
105.9999996997323
 20
30.24999981501344
 30
0.0
 40
2.0
  1
-
 41
1.5
100
AcDbText
1001
PHOENIX7010
1002
{
1070
    62
1070
     1
1070
    41
1040
1.0
1002
}
  0
TEXT
  5
47E
102
{ACAD_REACTORS
330
49B
102
}
330
18
100
AcDbEntity
  8
0
  6
Continuous
 62
     1
100
AcDbText
 10
105.9999996997323
 20
27.74999981501344
 30
0.0
 40
2.0
  1
-
 41
1.5
100
AcDbText
1001
PHOENIX7010
1002
{
1070
    62
1070
     1
1070
    41
1040
1.0
1002
}
  0
TEXT
  5
47F
102
{ACAD_REACTORS
330
49B
102
}
330
18
100
AcDbEntity
  8
0
  6
Continuous
 62
     1
100
AcDbText
 10
105.9999996997323
 20
32.74999981501344
 30
0.0
 40
2.0
  1
-
 41
1.5
100
AcDbText
1001
PHOENIX7010
1002
{
1070
    62
1070
     1
1070
    41
1040
1.0
1002
}
  0
TEXT
  5
480
102
{ACAD_REACTORS
330
49B
102
}
330
18
100
AcDbEntity
  8
0
  6
Continuous
 62
     1
100
AcDbText
 10
105.9999996997323
 20
35.24999981501344
 30
0.0
 40
2.0
  1
-
 41
1.5
100
AcDbText
1001
PHOENIX7010
1002
{
1070
    62
1070
     1
1070
    41
1040
1.0
1002
}
  0
TEXT
  5
481
102
{ACAD_REACTORS
330
49B
102
}
330
18
100
AcDbEntity
  8
0
  6
Continuous
 62
     1
100
AcDbText
 10
105.9999996997323
 20
37.74999981501344
 30
0.0
 40
2.0
  1
-
 41
1.5
100
AcDbText
1001
PHOENIX7010
1002
{
1070
    62
1070
     1
1070
    41
1040
1.0
1002
}
  0
LINE
  5
482
102
{ACAD_REACTORS
330
49B
102
}
330
18
100
AcDbEntity
  8
0
  6
Continuous
 62
     1
100
AcDbLine
 10
117.9999999999997
 20
48.0
 30
0.0
 11
117.9999999999997
 21
14.5
 31
0.0
1001
PHOENIX7010
1002
{
1070
    62
1070
     1
1070
    41
1040
1.0
1002
}
  0
LINE
  5
483
102
{ACAD_REACTORS
330
49B
102
}
330
18
100
AcDbEntity
  8
0
  6
Continuous
 62
     1
100
AcDbLine
 10
104.9999999999998
 20
21.5
 30
0.0
 11
140.0
 21
21.5
 31
0.0
1001
PHOENIX7010
1002
{
1070
    62
1070
     1
1070
    41
1040
1.0
1002
}
  0
LINE
  5
484
102
{ACAD_REACTORS
330
49B
102
}
330
18
100
AcDbEntity
  8
0
  6
Continuous
 62
     5
100
AcDbLine
 10
205.0
 20
78.5
 30
0.0
 11
107.4999999999997
 21
78.5
 31
0.0
1001
PHOENIX7010
1002
{
1070
    62
1070
     5
1070
    41
1040
1.0
1002
}
  0
LINE
  5
485
102
{ACAD_REACTORS
330
49B
102
}
330
18
100
AcDbEntity
  8
0
  6
Continuous
 62
     5
100
AcDbLine
 10
205.0
 20
48.0
 30
0.0
 11
107.4999999999997
 21
48.0
 31
0.0
1001
PHOENIX7010
1002
{
1070
    62
1070
     5
1070
    41
1040
1.0
1002
}
  0
LINE
  5
486
102
{ACAD_REACTORS
330
49B
102
}
330
18
100
AcDbEntity
  8
0
  6
Continuous
 62
     5
100
AcDbLine
 10
104.9999999999998
 20
99.99999999999989
 30
0.0
 11
104.9999999999998
 21
5.0
 31
0.0
1001
PHOENIX7010
1002
{
1070
    62
1070
     5
1070
    41
1040
1.0
1002
}
  0
INSERT
  5
487
102
{ACAD_REACTORS
330
49B
102
}
330
18
100
AcDbEntity
  8
0
  6
Continuous
 62
     5
370
    35
100
AcDbBlockReference
  2
PH_GRPBLK
 10
104.9999999999998
 20
14.5
 30
0.0
1001
PHOENIX7010
1002
{
1070
    41
1040
1.0
1002
}
  0
LWPOLYLINE
  5
489
102
{ACAD_REACTORS
330
445
102
}
330
18
100
AcDbEntity
  8
0
  6
Continuous
 62
     7
 60
     1
370
    50
100
AcDbPolyline
 90
        5
 70
     1
 43
0.0
 10
197.4334749940256
 20
35.16453811398026
 10
190.7334749940255
 20
27.36453811398019
 10
202.7334749940255
 20
27.36453811398019
 10
202.7334749940255
 20
35.16453811398014
 10
197.4334749940256
 20
28.26453811398028
1001
PHOENIX7010
1002
{
1070
    41
1040
1.0
1002
}
  0
LWPOLYLINE
  5
48A
102
{ACAD_REACTORS
330
446
102
}
330
18
100
AcDbEntity
  8
0
  6
Continuous
 62
     7
 60
     1
370
    50
100
AcDbPolyline
 90
        3
 70
     1
 43
0.0
 10
189.8834749940255
 20
27.36453811398019
 10
189.8834749940255
 20
31.51453811398017
 10
194.0334749940254
 20
31.51453811398017
 42
2.414213562373094
1001
PHOENIX7010
1002
{
1070
    41
1040
1.0
1002
}
  0
ENDSEC
  0
SECTION
  2
OBJECTS
  0
DICTIONARY
  5
C
330
0
100
AcDbDictionary
281
     1
  3
ACAD_COLOR
350
40A
  3
ACAD_GROUP
350
D
  3
ACAD_LAYOUT
350
421
  3
ACAD_MATERIAL
350
3DD
  3
ACAD_MLEADERSTYLE
350
41F
  3
ACAD_MLINESTYLE
350
1B
  3
ACAD_PLOTSETTINGS
350
422
  3
ACAD_PLOTSTYLENAME
350
3DB
  3
ACAD_SCALELIST
350
40D
  3
ACAD_TABLESTYLE
350
40B
  3
ACAD_VISUALSTYLE
350
3F6
  3
ACDB_RECOMPOSE_DATA
350
4F1
  3
AcDbVariableDictionary
350
4D1
  3
DWGPROPS
350
4F2
  3
PH_OBJREACTOR_DICT
350
29B
  3
PH_ROOTGROUP_DICT
350
291
  3
PH_VARS
350
290
  0
DICTIONARY
  5
435
330
2
100
AcDbDictionary
280
     1
281
     1
  3
ACAD_LAYERSTATES
360
436
  0
DICTIONARY
  5
4A3
330
E
100
AcDbDictionary
280
     1
281
     1
  3
ADSK_XREC_LAYER_RECONCILED
360
4A4
  0
DICTIONARY
  5
4A5
330
21
100
AcDbDictionary
280
     1
281
     1
  3
ADSK_XREC_LAYER_RECONCILED
360
4A6
  0
DICTIONARY
  5
4A7
330
2C
100
AcDbDictionary
280
     1
281
     1
  3
ADSK_XREC_LAYER_RECONCILED
360
4A8
  0
DICTIONARY
  5
4A9
330
11D
100
AcDbDictionary
280
     1
281
     1
  3
ADSK_XREC_LAYER_RECONCILED
360
4AA
  0
DICTIONARY
  5
4AB
330
198
100
AcDbDictionary
280
     1
281
     1
  3
ADSK_XREC_LAYER_RECONCILED
360
4AC
  0
DICTIONARY
  5
4AD
330
1C3
100
AcDbDictionary
280
     1
281
     1
  3
ADSK_XREC_LAYER_RECONCILED
360
4AE
  0
DICTIONARY
  5
4AF
330
1E8
100
AcDbDictionary
280
     1
281
     1
  3
ADSK_XREC_LAYER_RECONCILED
360
4B0
  0
DICTIONARY
  5
4B1
330
2A9
100
AcDbDictionary
280
     1
281
     1
  3
ADSK_XREC_LAYER_RECONCILED
360
4B2
  0
DICTIONARY
  5
4EF
330
44E
100
AcDbDictionary
280
     1
281
     1
  3
ACAD_MTEXT_2008_RT
360
4F0
  0
DICTIONARY
  5
40A
102
{ACAD_REACTORS
330
C
102
}
330
C
100
AcDbDictionary
281
     1
  0
DICTIONARY
  5
D
102
{ACAD_REACTORS
330
C
102
}
330
C
100
AcDbDictionary
281
     1
  3
$$$$$$$$_BGA45757
350
280
  3
$$$$$$$$_BLA43397
350
117
  3
$$$$$$$$_RAHMEN
350
12A
  3
_GF_XXXX_2KOPF
350
1C2
  3
_GF_XXXX_BLA43397
350
33
  3
_GF_XXXX_BZA45776
350
24C
  3
_GF_XXXX_BZA45847
350
1E7
  3
_GF_XXXX_RAHMEN
350
16B
  3
_ZU_XXXX_BLA43397
350
11C
  3
_ZU_XXXX_RAHMEN
350
197
  3
DINA4H_BLA43397
350
20
  3
POLYLINE_31
350
27A
  0
DICTIONARY
  5
421
102
{ACAD_REACTORS
330
C
102
}
330
C
100
AcDbDictionary
281
     1
  3
Layout1
350
424
  3
Model
350
423
  0
DICTIONARY
  5
3DD
102
{ACAD_REACTORS
330
C
102
}
330
C
100
AcDbDictionary
281
     1
  3
ByBlock
350
3E6
  3
ByLayer
350
3DE
  3
Global
350
3EE
  0
DICTIONARY
  5
41F
102
{ACAD_REACTORS
330
C
102
}
330
C
100
AcDbDictionary
281
     1
  3
Standard
350
420
  0
DICTIONARY
  5
1B
102
{ACAD_REACTORS
330
C
102
}
330
C
100
AcDbDictionary
281
     1
  3
STANDARD
350
1C
  0
DICTIONARY
  5
422
102
{ACAD_REACTORS
330
C
102
}
330
C
100
AcDbDictionary
281
     1
  0
ACDBDICTIONARYWDFLT
  5
3DB
102
{ACAD_REACTORS
330
C
102
}
330
C
100
AcDbDictionary
281
     1
  3
Normal
350
3DC
100
AcDbDictionaryWithDefault
340
3DC
  0
DICTIONARY
  5
40D
102
{ACAD_REACTORS
330
C
102
}
330
C
100
AcDbDictionary
281
     1
  3
A0
350
40E
  3
A1
350
40F
  3
A2
350
410
  3
A3
350
411
  3
A4
350
412
  3
A5
350
413
  3
A6
350
414
  3
A7
350
415
  3
A8
350
416
  3
A9
350
417
  3
B0
350
418
  3
B1
350
419
  3
B2
350
41A
  3
B3
350
41B
  3
B4
350
41C
  3
B5
350
41D
  3
B6
350
41E
  0
DICTIONARY
  5
40B
102
{ACAD_REACTORS
330
C
102
}
330
C
100
AcDbDictionary
281
     1
  3
Standard
350
40C
  0
DICTIONARY
  5
3F6
102
{ACAD_REACTORS
330
C
102
}
330
C
100
AcDbDictionary
281
     1
  3
2dWireframe
350
3FC
  3
3D Hidden
350
3FE
  3
3dWireframe
350
3FD
  3
Basic
350
3FB
  3
Brighten
350
402
  3
ColorChange
350
406
  3
Conceptual
350
3FF
  3
Dim
350
401
  3
EdgeColorOff
350
409
  3
Facepattern
350
405
  3
Flat
350
3F7
  3
FlatWithEdges
350
3F8
  3
Gouraud
350
3F9
  3
GouraudWithEdges
350
3FA
  3
JitterOff
350
407
  3
Linepattern
350
404
  3
OverhangOff
350
408
  3
Realistic
350
400
  3
Thicken
350
403
  0
XRECORD
  5
4F1
102
{ACAD_REACTORS
330
C
102
}
330
C
100
AcDbXrecord
280
     1
 90
        1
330
40C
330
44E
  0
DICTIONARY
  5
4D1
102
{ACAD_REACTORS
330
C
102
}
330
C
100
AcDbDictionary
281
     1
  3
CANNOSCALE
350
4D5
  3
CMLEADERSTYLE
350
4D3
  3
CTABLESTYLE
350
4D2
  3
DIMASSOC
350
4EB
  3
INDEXCTL
350
4EA
  3
LAYEREVAL
350
4D7
  3
LAYERNOTIFY
350
4D8
  3
LIGHTINGUNITS
350
4D6
  3
MSLTSCALE
350
4D4
  3
SORTENTS
350
4E9
  3
XCLIPFRAME
350
4EC
  0
XRECORD
  5
4F2
102
{ACAD_REACTORS
330
C
102
}
330
C
100
AcDbXrecord
280
     1
  1
DWGPROPS COOKIE
  2

  3

  4

  6

  7

  8
kleemann
  9

300
=
301
=
302
=
303
=
304
=
305
=
306
=
307
=
308
=
309
=
 40
0.0082376736111111
 41
2451306.585777014
 42
2457045.422100949
  1

 90
        0
  0
DICTIONARY
  5
29B
102
{ACAD_REACTORS
330
C
102
}
330
C
100
AcDbDictionary
281
     1
  0
DICTIONARY
  5
291
102
{ACAD_REACTORS
330
C
102
}
330
C
100
AcDbDictionary
281
     1
  3
$PH$AAAC4V
350
432
  3
$PH$AAAF
350
496
  3
PH_GRPMEMBERS
350
4A0
  0
PH_VARS
  5
290
102
{ACAD_REACTORS
330
C
102
}
330
C
  0
DICTIONARY
  5
436
102
{ACAD_REACTORS
330
435
102
}
330
435
100
AcDbDictionary
281
     1
  0
XRECORD
  5
4A4
102
{ACAD_REACTORS
330
4A3
102
}
330
4A3
100
AcDbXrecord
280
     1
290
     1
  0
XRECORD
  5
4A6
102
{ACAD_REACTORS
330
4A5
102
}
330
4A5
100
AcDbXrecord
280
     1
290
     1
  0
XRECORD
  5
4A8
102
{ACAD_REACTORS
330
4A7
102
}
330
4A7
100
AcDbXrecord
280
     1
290
     1
  0
XRECORD
  5
4AA
102
{ACAD_REACTORS
330
4A9
102
}
330
4A9
100
AcDbXrecord
280
     1
290
     1
  0
XRECORD
  5
4AC
102
{ACAD_REACTORS
330
4AB
102
}
330
4AB
100
AcDbXrecord
280
     1
290
     1
  0
XRECORD
  5
4AE
102
{ACAD_REACTORS
330
4AD
102
}
330
4AD
100
AcDbXrecord
280
     1
290
     1
  0
XRECORD
  5
4B0
102
{ACAD_REACTORS
330
4AF
102
}
330
4AF
100
AcDbXrecord
280
     1
290
     1
  0
XRECORD
  5
4B2
102
{ACAD_REACTORS
330
4B1
102
}
330
4B1
100
AcDbXrecord
280
     1
290
     1
  0
XRECORD
  5
4F0
102
{ACAD_REACTORS
330
4EF
102
}
330
4EF
100
AcDbXrecord
280
     1
 40
46997.0
  1
\pxql;{\fArial|b1|i0|c0|p34;\W1.1;BOPLA}
  0
GROUP
  5
280
102
{ACAD_REACTORS
330
D
102
}
330
D
100
AcDbGroup
300
V11:17503:********
 70
     0
 71
     1
340
27B
340
27C
340
27D
340
27E
  0
GROUP
  5
117
102
{ACAD_REACTORS
330
D
102
}
330
D
100
AcDbGroup
300
V11:17470:********
 70
     0
 71
     1
  0
GROUP
  5
12A
102
{ACAD_REACTORS
330
D
102
}
330
D
100
AcDbGroup
300
V11:17478:********
 70
     0
 71
     1
  0
GROUP
  5
1C2
102
{ACAD_REACTORS
330
D
102
}
330
D
100
AcDbGroup
300
V11:17491:_GF_XXXX
 70
     0
 71
     1
  0
GROUP
  5
33
102
{ACAD_REACTORS
330
D
102
}
330
D
100
AcDbGroup
300
V11:17379:_GF_XXXX
 70
     0
 71
     1
  0
GROUP
  5
24C
102
{ACAD_REACTORS
330
D
102
}
330
D
100
AcDbGroup
300
V11:17500:_GF_XXXX
 70
     0
 71
     1
  0
GROUP
  5
1E7
102
{ACAD_REACTORS
330
D
102
}
330
D
100
AcDbGroup
300
V11:17496:_GF_XXXX
 70
     0
 71
     1
  0
GROUP
  5
16B
102
{ACAD_REACTORS
330
D
102
}
330
D
100
AcDbGroup
300
V11:17484:_GF_XXXX
 70
     0
 71
     1
  0
GROUP
  5
11C
102
{ACAD_REACTORS
330
D
102
}
330
D
100
AcDbGroup
300
V11:17471:_ZU_XXXX
 70
     0
 71
     1
  0
GROUP
  5
197
102
{ACAD_REACTORS
330
D
102
}
330
D
100
AcDbGroup
300
V11:17488:_ZU_XXXX
 70
     0
 71
     1
  0
GROUP
  5
20
102
{ACAD_REACTORS
330
D
102
}
330
D
100
AcDbGroup
300
V11:17363:DINA4H
 70
     0
 71
     1
  0
GROUP
  5
27A
102
{ACAD_REACTORS
330
D
102
}
330
D
100
AcDbGroup
300
V11:17502:POLYLINE
 70
     0
 71
     1
  0
LAYOUT
  5
424
102
{ACAD_XDICTIONARY
360
51F
102
}
102
{ACAD_REACTORS
330
421
102
}
330
421
100
AcDbPlotSettings
  1

  2
\\boplaprint3\dev_konstuktion
  4

  6

 40
0.0
 41
0.0
 42
0.0
 43
0.0
 44
0.0
 45
0.0
 46
0.0
 47
0.0
 48
0.0
 49
0.0
140
0.0
141
0.0
142
1.0
143
1.0
 70
   688
 72
     0
 73
     0
 74
     5
  7

 75
    16
147
1.0
148
0.0
149
0.0
100
AcDbLayout
  1
Layout1
 70
     1
 71
     1
 10
0.0
 20
0.0
 11
420.0
 21
297.0
 12
0.0
 22
0.0
 32
0.0
 14
1.000000000000000E+20
 24
1.000000000000000E+20
 34
1.000000000000000E+20
 15
-1.000000000000000E+20
 25
-1.000000000000000E+20
 35
-1.000000000000000E+20
146
0.0
 13
0.0
 23
0.0
 33
0.0
 16
1.0
 26
0.0
 36
0.0
 17
0.0
 27
1.0
 37
0.0
 76
     0
330
15
  0
LAYOUT
  5
423
102
{ACAD_XDICTIONARY
360
4BA
102
}
102
{ACAD_REACTORS
330
421
102
}
330
421
100
AcDbPlotSettings
  1

  2
\\boplaprint3\dev_konstuktion
  4
A4
  6

 40
5.027082920074462
 41
5.027099609375
 42
5.027069091796875
 43
5.027069091796875
 44
209.8886566162109
 45
297.0530090332031
 46
0.0
 47
0.0
 48
0.0
 49
0.0
140
0.0
141
0.0
142
1.0
143
1.973689883305628
 70
 11952
 72
     1
 73
     1
 74
     0
  7

 75
     0
147
0.5066652104053718
148
175.3815188498324
149
0.0712102507930013
100
AcDbLayout
  1
Model
 70
     1
 71
     0
 10
0.0
 20
0.0
 11
12.0
 21
9.0
 12
0.0
 22
0.0
 32
0.0
 14
0.0
 24
0.0
 34
0.0
 15
0.0
 25
0.0
 35
0.0
146
0.0
 13
0.0
 23
0.0
 33
0.0
 16
1.0
 26
0.0
 36
0.0
 17
0.0
 27
1.0
 37
0.0
 76
     0
330
18
331
3D9
1001
ACAD_PSEXT
1000
\\boplaprint3\dev_konstuktion
1000
Generic 35C-4 Series PS
1000
Flur Konstruktion
1000
F-Ineo
1070
     0
  0
MATERIAL
  5
3E6
102
{ACAD_XDICTIONARY
360
3E7
102
}
102
{ACAD_REACTORS
330
3DD
102
}
330
3DD
100
AcDbMaterial
  1
ByBlock
 72
     0
 43
0.0208333333333333
 43
0.0
 43
0.0
 43
0.0
 43
0.0
 43
0.0208333333333333
 43
0.0
 43
0.0
 43
0.0
 43
0.0
 43
1.0
 43
0.0
 43
0.0
 43
0.0
 43
0.0
 43
1.0
 77
     0
 47
0.0208333333333333
 47
0.0
 47
0.0
 47
0.0
 47
0.0
 47
0.0208333333333333
 47
0.0
 47
0.0
 47
0.0
 47
0.0
 47
1.0
 47
0.0
 47
0.0
 47
0.0
 47
0.0
 47
1.0
171
     0
 49
0.0208333333333333
 49
0.0
 49
0.0
 49
0.0
 49
0.0
 49
0.0208333333333333
 49
0.0
 49
0.0
 49
0.0
 49
0.0
 49
1.0
 49
0.0
 49
0.0
 49
0.0
 49
0.0
 49
1.0
175
     0
142
0.0208333333333333
142
0.0
142
0.0
142
0.0
142
0.0
142
0.0208333333333333
142
0.0
142
0.0
142
0.0
142
0.0
142
1.0
142
0.0
142
0.0
142
0.0
142
0.0
142
1.0
179
     0
144
0.0208333333333333
144
0.0
144
0.0
144
0.0
144
0.0
144
0.0208333333333333
144
0.0
144
0.0
144
0.0
144
0.0
144
1.0
144
0.0
144
0.0
144
0.0
144
0.0
144
1.0
147
0.0208333333333333
147
0.0
147
0.0
147
0.0
147
0.0
147
0.0208333333333333
147
0.0
147
0.0
147
0.0
147
0.0
147
1.0
147
0.0
147
0.0
147
0.0
147
0.0
147
1.0
  0
MATERIAL
  5
3DE
102
{ACAD_XDICTIONARY
360
3DF
102
}
102
{ACAD_REACTORS
330
3DD
102
}
330
3DD
100
AcDbMaterial
  1
ByLayer
 72
     0
 43
0.0208333333333333
 43
0.0
 43
0.0
 43
0.0
 43
0.0
 43
0.0208333333333333
 43
0.0
 43
0.0
 43
0.0
 43
0.0
 43
1.0
 43
0.0
 43
0.0
 43
0.0
 43
0.0
 43
1.0
 77
     0
 47
0.0208333333333333
 47
0.0
 47
0.0
 47
0.0
 47
0.0
 47
0.0208333333333333
 47
0.0
 47
0.0
 47
0.0
 47
0.0
 47
1.0
 47
0.0
 47
0.0
 47
0.0
 47
0.0
 47
1.0
171
     0
 49
0.0208333333333333
 49
0.0
 49
0.0
 49
0.0
 49
0.0
 49
0.0208333333333333
 49
0.0
 49
0.0
 49
0.0
 49
0.0
 49
1.0
 49
0.0
 49
0.0
 49
0.0
 49
0.0
 49
1.0
175
     0
142
0.0208333333333333
142
0.0
142
0.0
142
0.0
142
0.0
142
0.0208333333333333
142
0.0
142
0.0
142
0.0
142
0.0
142
1.0
142
0.0
142
0.0
142
0.0
142
0.0
142
1.0
179
     0
144
0.0208333333333333
144
0.0
144
0.0
144
0.0
144
0.0
144
0.0208333333333333
144
0.0
144
0.0
144
0.0
144
0.0
144
1.0
144
0.0
144
0.0
144
0.0
144
0.0
144
1.0
147
0.0208333333333333
147
0.0
147
0.0
147
0.0
147
0.0
147
0.0208333333333333
147
0.0
147
0.0
147
0.0
147
0.0
147
1.0
147
0.0
147
0.0
147
0.0
147
0.0
147
1.0
  0
MATERIAL
  5
3EE
102
{ACAD_XDICTIONARY
360
3EF
102
}
102
{ACAD_REACTORS
330
3DD
102
}
330
3DD
100
AcDbMaterial
  1
Global
 72
     0
 43
0.0208333333333333
 43
0.0
 43
0.0
 43
0.0
 43
0.0
 43
0.0208333333333333
 43
0.0
 43
0.0
 43
0.0
 43
0.0
 43
1.0
 43
0.0
 43
0.0
 43
0.0
 43
0.0
 43
1.0
 77
     0
 47
0.0208333333333333
 47
0.0
 47
0.0
 47
0.0
 47
0.0
 47
0.0208333333333333
 47
0.0
 47
0.0
 47
0.0
 47
0.0
 47
1.0
 47
0.0
 47
0.0
 47
0.0
 47
0.0
 47
1.0
171
     0
 49
0.0208333333333333
 49
0.0
 49
0.0
 49
0.0
 49
0.0
 49
0.0208333333333333
 49
0.0
 49
0.0
 49
0.0
 49
0.0
 49
1.0
 49
0.0
 49
0.0
 49
0.0
 49
0.0
 49
1.0
175
     0
142
0.0208333333333333
142
0.0
142
0.0
142
0.0
142
0.0
142
0.0208333333333333
142
0.0
142
0.0
142
0.0
142
0.0
142
1.0
142
0.0
142
0.0
142
0.0
142
0.0
142
1.0
179
     0
144
0.0208333333333333
144
0.0
144
0.0
144
0.0
144
0.0
144
0.0208333333333333
144
0.0
144
0.0
144
0.0
144
0.0
144
1.0
144
0.0
144
0.0
144
0.0
144
0.0
144
1.0
147
0.0208333333333333
147
0.0
147
0.0
147
0.0
147
0.0
147
0.0208333333333333
147
0.0
147
0.0
147
0.0
147
0.0
147
1.0
147
0.0
147
0.0
147
0.0
147
0.0
147
1.0
  0
MLEADERSTYLE
  5
420
102
{ACAD_REACTORS
330
41F
102
}
330
41F
100
AcDbMLeaderStyle
170
     2
171
     1
172
     0
 90
        2
 40
0.0
 41
0.0
173
     1
 91
-1056964608
340
12
 92
       -2
290
     1
 42
2.0
291
     1
 43
0.36
  3
Standard
 44
4.0
300

342
F
174
     1
178
     6
175
     1
176
     0
 93
-1056964608
 45
4.0
292
     0
297
     0
 46
4.0
 94
-1056964608
 47
1.0
 49
1.0
140
1.0
293
     1
141
0.0
294
     1
177
     0
142
1.0
295
     0
296
     0
143
0.125
1001
ACAD_MLEADERVER
1070
     2
  0
MLINESTYLE
  5
1C
102
{ACAD_REACTORS
330
1B
102
}
330
1B
100
AcDbMlineStyle
  2
STANDARD
 70
     0
  3

 62
   256
 51
90.0
 52
90.0
 71
     2
 49
0.5
 62
   256
  6
BYLAYER
 49
-0.5
 62
   256
  6
BYLAYER
  0
ACDBPLACEHOLDER
  5
3DC
102
{ACAD_REACTORS
330
3DB
102
}
330
3DB
  0
SCALE
  5
40E
102
{ACAD_REACTORS
330
40D
102
}
330
40D
100
AcDbScale
 70
     0
300
1:1
140
1.0
141
1.0
290
     1
  0
SCALE
  5
40F
102
{ACAD_REACTORS
330
40D
102
}
330
40D
100
AcDbScale
 70
     0
300
1:2
140
1.0
141
2.0
290
     0
  0
SCALE
  5
410
102
{ACAD_REACTORS
330
40D
102
}
330
40D
100
AcDbScale
 70
     0
300
1:4
140
1.0
141
4.0
290
     0
  0
SCALE
  5
411
102
{ACAD_REACTORS
330
40D
102
}
330
40D
100
AcDbScale
 70
     0
300
1:5
140
1.0
141
5.0
290
     0
  0
SCALE
  5
412
102
{ACAD_REACTORS
330
40D
102
}
330
40D
100
AcDbScale
 70
     0
300
1:8
140
1.0
141
8.0
290
     0
  0
SCALE
  5
413
102
{ACAD_REACTORS
330
40D
102
}
330
40D
100
AcDbScale
 70
     0
300
1:10
140
1.0
141
10.0
290
     0
  0
SCALE
  5
414
102
{ACAD_REACTORS
330
40D
102
}
330
40D
100
AcDbScale
 70
     0
300
1:16
140
1.0
141
16.0
290
     0
  0
SCALE
  5
415
102
{ACAD_REACTORS
330
40D
102
}
330
40D
100
AcDbScale
 70
     0
300
1:20
140
1.0
141
20.0
290
     0
  0
SCALE
  5
416
102
{ACAD_REACTORS
330
40D
102
}
330
40D
100
AcDbScale
 70
     0
300
1:30
140
1.0
141
30.0
290
     0
  0
SCALE
  5
417
102
{ACAD_REACTORS
330
40D
102
}
330
40D
100
AcDbScale
 70
     0
300
1:40
140
1.0
141
40.0
290
     0
  0
SCALE
  5
418
102
{ACAD_REACTORS
330
40D
102
}
330
40D
100
AcDbScale
 70
     0
300
1:50
140
1.0
141
50.0
290
     0
  0
SCALE
  5
419
102
{ACAD_REACTORS
330
40D
102
}
330
40D
100
AcDbScale
 70
     0
300
1:100
140
1.0
141
100.0
290
     0
  0
SCALE
  5
41A
102
{ACAD_REACTORS
330
40D
102
}
330
40D
100
AcDbScale
 70
     0
300
2:1
140
2.0
141
1.0
290
     0
  0
SCALE
  5
41B
102
{ACAD_REACTORS
330
40D
102
}
330
40D
100
AcDbScale
 70
     0
300
4:1
140
4.0
141
1.0
290
     0
  0
SCALE
  5
41C
102
{ACAD_REACTORS
330
40D
102
}
330
40D
100
AcDbScale
 70
     0
300
8:1
140
8.0
141
1.0
290
     0
  0
SCALE
  5
41D
102
{ACAD_REACTORS
330
40D
102
}
330
40D
100
AcDbScale
 70
     0
300
10:1
140
10.0
141
1.0
290
     0
  0
SCALE
  5
41E
102
{ACAD_REACTORS
330
40D
102
}
330
40D
100
AcDbScale
 70
     0
300
100:1
140
100.0
141
1.0
290
     0
  0
TABLESTYLE
  5
40C
102
{ACAD_XDICTIONARY
360
4ED
102
}
102
{ACAD_REACTORS
330
40B
102
}
330
40B
100
AcDbTableStyle
  3
Standard
 70
     0
 71
     0
 40
1.5
 41
1.5
280
     0
281
     0
  7
STANDARD
140
4.5
170
     2
 62
     0
 63
     7
283
     0
274
    -2
284
     1
 64
     0
275
    -2
285
     1
 65
     0
276
    -2
286
     1
 66
     0
277
    -2
287
     1
 67
     0
278
    -2
288
     1
 68
     0
279
    -2
289
     1
 69
     0
  7
STANDARD
140
6.0
170
     5
 62
     0
 63
     7
283
     0
274
    -2
284
     1
 64
     0
275
    -2
285
     1
 65
     0
276
    -2
286
     1
 66
     0
277
    -2
287
     1
 67
     0
278
    -2
288
     1
 68
     0
279
    -2
289
     1
 69
     0
  7
STANDARD
140
4.5
170
     5
 62
     0
 63
     7
283
     0
274
    -2
284
     1
 64
     0
275
    -2
285
     1
 65
     0
276
    -2
286
     1
 66
     0
277
    -2
287
     1
 67
     0
278
    -2
288
     1
 68
     0
279
    -2
289
     1
 69
     0
  0
VISUALSTYLE
  5
3FC
102
{ACAD_XDICTIONARY
360
500
102
}
102
{ACAD_REACTORS
330
3F6
102
}
330
3F6
100
AcDbVisualStyle
  2
2dWireframe
 70
     4
 71
     0
 72
     2
 73
     0
 90
        0
 40
-0.6
 41
-30.0
 62
     5
 63
     7
 74
     1
 91
        4
 64
     7
 65
   257
 75
     1
175
     1
 42
1.0
 92
        0
 66
   257
 43
1.0
 76
     1
 77
     6
 78
     2
 67
     7
 79
     5
170
     0
171
     0
290
     0
174
     0
 93
        1
 44
0.0
173
     0
291
     0
 45
0.0
1001
ACAD
1000
AcDbSavedByObjectVersion
1070
     0
  0
VISUALSTYLE
  5
3FE
102
{ACAD_XDICTIONARY
360
504
102
}
102
{ACAD_REACTORS
330
3F6
102
}
330
3F6
100
AcDbVisualStyle
  2
3D Hidden
 70
     6
 71
     1
 72
     2
 73
     2
 90
        0
 40
-0.6
 41
-30.0
 62
     5
 63
     7
 74
     2
 91
        2
 64
     7
 65
   257
 75
     2
175
     1
 42
179.0
 92
        0
 66
   257
 43
1.0
 76
     1
 77
     6
 78
     2
 67
     7
 79
     3
170
     0
171
     0
290
     0
174
     0
 93
        1
 44
0.0
173
     0
291
     0
 45
0.0
1001
ACAD
1000
AcDbSavedByObjectVersion
1070
     0
  0
VISUALSTYLE
  5
3FD
102
{ACAD_XDICTIONARY
360
502
102
}
102
{ACAD_REACTORS
330
3F6
102
}
330
3F6
100
AcDbVisualStyle
  2
3dWireframe
 70
     5
 71
     0
 72
     2
 73
     0
 90
        0
 40
-0.6
 41
-30.0
 62
     5
 63
     7
 74
     1
 91
        4
 64
     7
 65
   257
 75
     1
175
     1
 42
1.0
 92
        0
 66
   257
 43
1.0
 76
     1
 77
     6
 78
     2
 67
     7
 79
     5
170
     0
171
     0
290
     0
174
     0
 93
        1
 44
0.0
173
     0
291
     0
 45
0.0
1001
ACAD
1000
AcDbSavedByObjectVersion
1070
     0
  0
VISUALSTYLE
  5
3FB
102
{ACAD_XDICTIONARY
360
4FE
102
}
102
{ACAD_REACTORS
330
3F6
102
}
330
3F6
100
AcDbVisualStyle
  2
Basic
 70
     7
 71
     1
 72
     0
 73
     1
 90
        0
 40
-0.6
 41
-30.0
 62
     5
 63
     7
 74
     0
 91
        4
 64
     7
 65
   257
 75
     1
175
     1
 42
1.0
 92
        8
 66
     7
 43
1.0
 76
     1
 77
     6
 78
     2
 67
     7
 79
     5
170
     0
171
     0
290
     0
174
     0
 93
        1
 44
0.0
173
     0
291
     1
 45
0.0
1001
ACAD
1000
AcDbSavedByObjectVersion
1070
     0
  0
VISUALSTYLE
  5
402
102
{ACAD_XDICTIONARY
360
50C
102
}
102
{ACAD_REACTORS
330
3F6
102
}
330
3F6
100
AcDbVisualStyle
  2
Brighten
 70
    12
 71
     2
 72
     2
 73
     0
 90
        0
 40
-0.6
 41
-30.0
 62
     5
 63
     7
 74
     1
 91
        4
 64
     7
 65
   257
 75
     1
175
     1
 42
1.0
 92
        8
 66
     7
 43
1.0
 76
     1
 77
     6
 78
     2
 67
     7
 79
     5
170
     0
171
     0
290
     0
174
     0
 93
        1
 44
50.0
173
     0
291
     1
 45
0.0
1001
ACAD
1000
AcDbSavedByObjectVersion
1070
     0
  0
VISUALSTYLE
  5
406
102
{ACAD_XDICTIONARY
360
514
102
}
102
{ACAD_REACTORS
330
3F6
102
}
330
3F6
100
AcDbVisualStyle
  2
ColorChange
 70
    16
 71
     2
 72
     2
 73
     3
 90
        0
 40
-0.6
 41
-30.0
 62
     5
 63
     8
 74
     1
 91
        4
 64
     7
 65
   257
 75
     1
175
     1
 42
1.0
 92
        8
 66
     8
 43
1.0
 76
     1
 77
     6
 78
     2
 67
     7
 79
     5
170
     0
171
     0
290
     0
174
     0
 93
        1
 44
0.0
173
     0
291
     1
 45
0.0
1001
ACAD
1000
AcDbSavedByObjectVersion
1070
     0
  0
VISUALSTYLE
  5
3FF
102
{ACAD_XDICTIONARY
360
506
102
}
102
{ACAD_REACTORS
330
3F6
102
}
330
3F6
100
AcDbVisualStyle
  2
Conceptual
 70
     9
 71
     3
 72
     2
 73
     0
 90
        0
 40
-0.6
 41
-30.0
 62
     5
 63
     7
 74
     2
 91
        2
 64
     7
 65
   257
 75
     1
175
     1
 42
179.0
 92
        8
 66
     7
 43
1.0
 76
     1
 77
     6
 78
     2
 67
     7
 79
     3
170
     0
171
     0
290
     0
174
     0
 93
        1
 44
0.0
173
     0
291
     0
 45
0.0
1001
ACAD
1000
AcDbSavedByObjectVersion
1070
     0
  0
VISUALSTYLE
  5
401
102
{ACAD_XDICTIONARY
360
50A
102
}
102
{ACAD_REACTORS
330
3F6
102
}
330
3F6
100
AcDbVisualStyle
  2
Dim
 70
    11
 71
     2
 72
     2
 73
     0
 90
        0
 40
-0.6
 41
-30.0
 62
     5
 63
     7
 74
     1
 91
        4
 64
     7
 65
   257
 75
     1
175
     1
 42
1.0
 92
        8
 66
     7
 43
1.0
 76
     1
 77
     6
 78
     2
 67
     7
 79
     5
170
     0
171
     0
290
     0
174
     0
 93
        1
 44
-50.0
173
     0
291
     1
 45
0.0
1001
ACAD
1000
AcDbSavedByObjectVersion
1070
     0
  0
VISUALSTYLE
  5
409
102
{ACAD_XDICTIONARY
360
51A
102
}
102
{ACAD_REACTORS
330
3F6
102
}
330
3F6
100
AcDbVisualStyle
  2
EdgeColorOff
 70
    22
 71
     2
 72
     2
 73
     0
 90
        0
 40
-0.6
 41
-30.0
 62
     5
 63
     7
 74
     1
 91
        4
 64
     7
 65
   257
 75
     1
175
     1
 42
1.0
 92
        8
 66
     7
 43
1.0
 76
     1
 77
     6
 78
     2
 67
     7
 79
     5
170
     0
171
     0
290
     0
174
     0
 93
        1
 44
0.0
173
     0
291
     1
 45
0.0
1001
ACAD
1000
AcDbSavedByObjectVersion
1070
     0
  0
VISUALSTYLE
  5
405
102
{ACAD_XDICTIONARY
360
512
102
}
102
{ACAD_REACTORS
330
3F6
102
}
330
3F6
100
AcDbVisualStyle
  2
Facepattern
 70
    15
 71
     2
 72
     2
 73
     0
 90
        0
 40
-0.6
 41
-30.0
 62
     5
 63
     7
 74
     1
 91
        4
 64
     7
 65
   257
 75
     1
175
     1
 42
1.0
 92
        8
 66
     7
 43
1.0
 76
     1
 77
     6
 78
     2
 67
     7
 79
     5
170
     0
171
     0
290
     0
174
     0
 93
        1
 44
0.0
173
     0
291
     1
 45
0.0
1001
ACAD
1000
AcDbSavedByObjectVersion
1070
     0
  0
VISUALSTYLE
  5
3F7
102
{ACAD_XDICTIONARY
360
4F6
102
}
102
{ACAD_REACTORS
330
3F6
102
}
330
3F6
100
AcDbVisualStyle
  2
Flat
 70
     0
 71
     2
 72
     1
 73
     1
 90
        2
 40
-0.6
 41
30.0
 62
     5
 63
     7
 74
     0
 91
        4
 64
     7
 65
   257
 75
     1
175
     1
 42
1.0
 92
        8
 66
     7
 43
1.0
 76
     1
 77
     6
 78
     2
 67
     7
 79
     5
170
     0
171
     0
290
     0
174
     0
 93
       13
 44
0.0
173
     0
291
     1
 45
0.0
1001
ACAD
1000
AcDbSavedByObjectVersion
1070
     0
  0
VISUALSTYLE
  5
3F8
102
{ACAD_XDICTIONARY
360
4F8
102
}
102
{ACAD_REACTORS
330
3F6
102
}
330
3F6
100
AcDbVisualStyle
  2
FlatWithEdges
 70
     1
 71
     2
 72
     1
 73
     1
 90
        2
 40
-0.6
 41
30.0
 62
     5
 63
     7
 74
     1
 91
        4
 64
     7
 65
   257
 75
     1
175
     1
 42
1.0
 92
        0
 66
   257
 43
1.0
 76
     1
 77
     6
 78
     2
 67
     7
 79
     5
170
     0
171
     0
290
     0
174
     0
 93
       13
 44
0.0
173
     0
291
     1
 45
0.0
1001
ACAD
1000
AcDbSavedByObjectVersion
1070
     0
  0
VISUALSTYLE
  5
3F9
102
{ACAD_XDICTIONARY
360
4FA
102
}
102
{ACAD_REACTORS
330
3F6
102
}
330
3F6
100
AcDbVisualStyle
  2
Gouraud
 70
     2
 71
     2
 72
     2
 73
     1
 90
        2
 40
-0.6
 41
30.0
 62
     5
 63
     7
 74
     0
 91
        4
 64
     7
 65
   257
 75
     1
175
     1
 42
1.0
 92
        0
 66
     7
 43
1.0
 76
     1
 77
     6
 78
     2
 67
     7
 79
     5
170
     0
171
     0
290
     0
174
     0
 93
       13
 44
0.0
173
     0
291
     1
 45
0.0
1001
ACAD
1000
AcDbSavedByObjectVersion
1070
     0
  0
VISUALSTYLE
  5
3FA
102
{ACAD_XDICTIONARY
360
4FC
102
}
102
{ACAD_REACTORS
330
3F6
102
}
330
3F6
100
AcDbVisualStyle
  2
GouraudWithEdges
 70
     3
 71
     2
 72
     2
 73
     1
 90
        2
 40
-0.6
 41
30.0
 62
     5
 63
     7
 74
     1
 91
        4
 64
     7
 65
   257
 75
     1
175
     1
 42
1.0
 92
        0
 66
   257
 43
1.0
 76
     1
 77
     6
 78
     2
 67
     7
 79
     5
170
     0
171
     0
290
     0
174
     0
 93
       13
 44
0.0
173
     0
291
     1
 45
0.0
1001
ACAD
1000
AcDbSavedByObjectVersion
1070
     0
  0
VISUALSTYLE
  5
407
102
{ACAD_XDICTIONARY
360
516
102
}
102
{ACAD_REACTORS
330
3F6
102
}
330
3F6
100
AcDbVisualStyle
  2
JitterOff
 70
    20
 71
     2
 72
     2
 73
     0
 90
        0
 40
-0.6
 41
-30.0
 62
     5
 63
     7
 74
     1
 91
        4
 64
     7
 65
   257
 75
     1
175
     1
 42
1.0
 92
       10
 66
     7
 43
1.0
 76
     1
 77
     6
 78
     2
 67
     7
 79
     5
170
     0
171
     0
290
     0
174
     0
 93
        1
 44
0.0
173
     0
291
     1
 45
0.0
1001
ACAD
1000
AcDbSavedByObjectVersion
1070
     0
  0
VISUALSTYLE
  5
404
102
{ACAD_XDICTIONARY
360
510
102
}
102
{ACAD_REACTORS
330
3F6
102
}
330
3F6
100
AcDbVisualStyle
  2
Linepattern
 70
    14
 71
     2
 72
     2
 73
     0
 90
        0
 40
-0.6
 41
-30.0
 62
     5
 63
     7
 74
     1
 91
        4
 64
     7
 65
   257
 75
     7
175
     7
 42
1.0
 92
        8
 66
     7
 43
1.0
 76
     1
 77
     6
 78
     2
 67
     7
 79
     5
170
     0
171
     0
290
     0
174
     0
 93
        1
 44
0.0
173
     0
291
     1
 45
0.0
1001
ACAD
1000
AcDbSavedByObjectVersion
1070
     0
  0
VISUALSTYLE
  5
408
102
{ACAD_XDICTIONARY
360
518
102
}
102
{ACAD_REACTORS
330
3F6
102
}
330
3F6
100
AcDbVisualStyle
  2
OverhangOff
 70
    21
 71
     2
 72
     2
 73
     0
 90
        0
 40
-0.6
 41
-30.0
 62
     5
 63
     7
 74
     1
 91
        4
 64
     7
 65
   257
 75
     1
175
     1
 42
1.0
 92
        9
 66
     7
 43
1.0
 76
     1
 77
     6
 78
     2
 67
     7
 79
     5
170
     0
171
     0
290
     0
174
     0
 93
        1
 44
0.0
173
     0
291
     1
 45
0.0
1001
ACAD
1000
AcDbSavedByObjectVersion
1070
     0
  0
VISUALSTYLE
  5
400
102
{ACAD_XDICTIONARY
360
508
102
}
102
{ACAD_REACTORS
330
3F6
102
}
330
3F6
100
AcDbVisualStyle
  2
Realistic
 70
     8
 71
     2
 72
     2
 73
     0
 90
        0
 40
-0.6
 41
-30.0
 62
     5
 63
     7
 74
     1
 91
        0
 64
     7
 65
   257
 75
     1
175
     1
 42
1.0
 92
        8
 66
     8
 43
1.0
 76
     1
 77
     6
 78
     2
 67
     7
 79
     5
170
     0
171
     0
290
     0
174
     0
 93
       13
 44
0.0
173
     0
291
     0
 45
0.0
1001
ACAD
1000
AcDbSavedByObjectVersion
1070
     0
  0
VISUALSTYLE
  5
403
102
{ACAD_XDICTIONARY
360
50E
102
}
102
{ACAD_REACTORS
330
3F6
102
}
330
3F6
100
AcDbVisualStyle
  2
Thicken
 70
    13
 71
     2
 72
     2
 73
     0
 90
        0
 40
-0.6
 41
-30.0
 62
     5
 63
     7
 74
     1
 91
        4
 64
     7
 65
   257
 75
     1
175
     1
 42
1.0
 92
       12
 66
     7
 43
1.0
 76
     1
 77
     6
 78
     2
 67
     7
 79
     5
170
     0
171
     0
290
     0
174
     0
 93
        1
 44
0.0
173
     0
291
     1
 45
0.0
1001
ACAD
1000
AcDbSavedByObjectVersion
1070
     0
  0
DICTIONARYVAR
  5
4D5
102
{ACAD_REACTORS
330
4D1
102
}
330
4D1
100
DictionaryVariables
280
     0
  1
1:1
  0
DICTIONARYVAR
  5
4D3
102
{ACAD_REACTORS
330
4D1
102
}
330
4D1
100
DictionaryVariables
280
     0
  1
STANDARD
  0
DICTIONARYVAR
  5
4D2
102
{ACAD_REACTORS
330
4D1
102
}
330
4D1
100
DictionaryVariables
280
     0
  1
STANDARD
  0
DICTIONARYVAR
  5
4EB
102
{ACAD_REACTORS
330
4D1
102
}
330
4D1
100
DictionaryVariables
280
     0
  1
1
  0
DICTIONARYVAR
  5
4EA
102
{ACAD_REACTORS
330
4D1
102
}
330
4D1
100
DictionaryVariables
280
     0
  1
0
  0
DICTIONARYVAR
  5
4D7
102
{ACAD_REACTORS
330
4D1
102
}
330
4D1
100
DictionaryVariables
280
     0
  1
1
  0
DICTIONARYVAR
  5
4D8
102
{ACAD_REACTORS
330
4D1
102
}
330
4D1
100
DictionaryVariables
280
     0
  1
15
  0
DICTIONARYVAR
  5
4D6
102
{ACAD_REACTORS
330
4D1
102
}
330
4D1
100
DictionaryVariables
280
     0
  1
0
  0
DICTIONARYVAR
  5
4D4
102
{ACAD_REACTORS
330
4D1
102
}
330
4D1
100
DictionaryVariables
280
     0
  1
0
  0
DICTIONARYVAR
  5
4E9
102
{ACAD_REACTORS
330
4D1
102
}
330
4D1
100
DictionaryVariables
280
     0
  1
127
  0
DICTIONARYVAR
  5
4EC
102
{ACAD_REACTORS
330
4D1
102
}
330
4D1
100
DictionaryVariables
280
     0
  1
2
  0
DICTIONARY
  5
432
102
{ACAD_REACTORS
330
291
102
}
330
291
100
AcDbDictionary
280
     1
281
     1
  3
PH_GRPMEMBERS
360
433
  0
DICTIONARY
  5
496
102
{ACAD_REACTORS
330
291
102
}
330
291
100
AcDbDictionary
280
     1
281
     1
  3
$PH$AAAA
360
497
  3
PH_GRPMEMBERS
360
49B
  0
PH_GROUP
  5
4A0
102
{ACAD_REACTORS
330
291
102
}
330
291
  0
DICTIONARY
  5
51F
330
424
100
AcDbDictionary
280
     1
281
     1
  3
ACAD_XREC_ROUNDTRIP
360
520
  0
DICTIONARY
  5
4BA
330
423
100
AcDbDictionary
280
     1
281
     1
  3
ACAD_XREC_ROUNDTRIP
360
51E
  3
ADSK_XREC_LAYOUTTHUMBNAIL
360
4BB
  0
DICTIONARY
  5
3E7
330
3E6
100
AcDbDictionary
280
     1
281
     1
  3
ACAD_XREC_ROUNDTRIP
360
4F4
  3
BUMPTILE
360
3E9
  3
DIFFUSETILE
360
3E8
  3
OPACITYTILE
360
3EC
  3
REFLECTIONTILE
360
3EB
  3
REFRACTIONTILE
360
3ED
  3
SPECULARTILE
360
3EA
  0
DICTIONARY
  5
3DF
330
3DE
100
AcDbDictionary
280
     1
281
     1
  3
ACAD_XREC_ROUNDTRIP
360
4F3
  3
BUMPTILE
360
3E1
  3
DIFFUSETILE
360
3E0
  3
OPACITYTILE
360
3E4
  3
REFLECTIONTILE
360
3E3
  3
REFRACTIONTILE
360
3E5
  3
SPECULARTILE
360
3E2
  0
DICTIONARY
  5
3EF
330
3EE
100
AcDbDictionary
280
     1
281
     1
  3
ACAD_XREC_ROUNDTRIP
360
4F5
  3
BUMPTILE
360
3F1
  3
DIFFUSETILE
360
3F0
  3
OPACITYTILE
360
3F4
  3
REFLECTIONTILE
360
3F3
  3
REFRACTIONTILE
360
3F5
  3
SPECULARTILE
360
3F2
  0
DICTIONARY
  5
4ED
330
40C
100
AcDbDictionary
280
     1
281
     1
  3
ACAD_ROUNDTRIP_2008_TABLESTYLE_CELLSTYLEMAP
360
4EE
  3
ACAD_XREC_ROUNDTRIP
360
51C
  0
DICTIONARY
  5
500
330
3FC
100
AcDbDictionary
280
     1
281
     1
  3
ACAD_XREC_ROUNDTRIP
360
501
  0
DICTIONARY
  5
504
330
3FE
100
AcDbDictionary
280
     1
281
     1
  3
ACAD_XREC_ROUNDTRIP
360
505
  0
DICTIONARY
  5
502
330
3FD
100
AcDbDictionary
280
     1
281
     1
  3
ACAD_XREC_ROUNDTRIP
360
503
  0
DICTIONARY
  5
4FE
330
3FB
100
AcDbDictionary
280
     1
281
     1
  3
ACAD_XREC_ROUNDTRIP
360
4FF
  0
DICTIONARY
  5
50C
330
402
100
AcDbDictionary
280
     1
281
     1
  3
ACAD_XREC_ROUNDTRIP
360
50D
  0
DICTIONARY
  5
514
330
406
100
AcDbDictionary
280
     1
281
     1
  3
ACAD_XREC_ROUNDTRIP
360
515
  0
DICTIONARY
  5
506
330
3FF
100
AcDbDictionary
280
     1
281
     1
  3
ACAD_XREC_ROUNDTRIP
360
507
  0
DICTIONARY
  5
50A
330
401
100
AcDbDictionary
280
     1
281
     1
  3
ACAD_XREC_ROUNDTRIP
360
50B
  0
DICTIONARY
  5
51A
330
409
100
AcDbDictionary
280
     1
281
     1
  3
ACAD_XREC_ROUNDTRIP
360
51B
  0
DICTIONARY
  5
512
330
405
100
AcDbDictionary
280
     1
281
     1
  3
ACAD_XREC_ROUNDTRIP
360
513
  0
DICTIONARY
  5
4F6
330
3F7
100
AcDbDictionary
280
     1
281
     1
  3
ACAD_XREC_ROUNDTRIP
360
4F7
  0
DICTIONARY
  5
4F8
330
3F8
100
AcDbDictionary
280
     1
281
     1
  3
ACAD_XREC_ROUNDTRIP
360
4F9
  0
DICTIONARY
  5
4FA
330
3F9
100
AcDbDictionary
280
     1
281
     1
  3
ACAD_XREC_ROUNDTRIP
360
4FB
  0
DICTIONARY
  5
4FC
330
3FA
100
AcDbDictionary
280
     1
281
     1
  3
ACAD_XREC_ROUNDTRIP
360
4FD
  0
DICTIONARY
  5
516
330
407
100
AcDbDictionary
280
     1
281
     1
  3
ACAD_XREC_ROUNDTRIP
360
517
  0
DICTIONARY
  5
510
330
404
100
AcDbDictionary
280
     1
281
     1
  3
ACAD_XREC_ROUNDTRIP
360
511
  0
DICTIONARY
  5
518
330
408
100
AcDbDictionary
280
     1
281
     1
  3
ACAD_XREC_ROUNDTRIP
360
519
  0
DICTIONARY
  5
508
330
400
100
AcDbDictionary
280
     1
281
     1
  3
ACAD_XREC_ROUNDTRIP
360
509
  0
DICTIONARY
  5
50E
330
403
100
AcDbDictionary
280
     1
281
     1
  3
ACAD_XREC_ROUNDTRIP
360
50F
  0
PH_GROUP
  5
433
102
{ACAD_REACTORS
330
432
102
}
330
432
  0
DICTIONARY
  5
497
102
{ACAD_REACTORS
330
496
102
}
330
496
100
AcDbDictionary
280
     1
281
     1
  3
$PH$AAAA
360
498
  3
PH_GRPMEMBERS
360
49A
  0
PH_GROUP
  5
49B
102
{ACAD_REACTORS
330
496
102
}
330
496
  0
XRECORD
  5
520
102
{ACAD_REACTORS
330
51F
102
}
330
51F
100
AcDbXrecord
280
     1
102
SHADEPLOT
 70
     0
102
SHADEPLOTRESLEVEL
 70
     2
102
SHADEPLOTCUSTOMDPI
 70
   300
  0
XRECORD
  5
51E
102
{ACAD_REACTORS
330
4BA
102
}
330
4BA
100
AcDbXrecord
280
     1
102
SHADEPLOT
 70
     0
102
SHADEPLOTRESLEVEL
 70
     2
102
SHADEPLOTCUSTOMDPI
 70
   300
  0
XRECORD
  5
4BB
102
{ACAD_REACTORS
330
4BA
102
}
330
4BA
100
AcDbXrecord
280
     1
310
28000000000100008700000001000800000000000087000000000000000000000001000000000000F0FCFE0000000000FFFFFF000000000000000000000000000000000000000000000000000000000000000000330000006600000099000000CC000000FF00000000330000333300006633000099330000CC330000FF3300
310
0000660000336600006666000099660000CC660000FF66000000990000339900006699000099990000CC990000FF99000000CC000033CC000066CC000099CC0000CCCC0000FFCC000000FF000033FF000066FF000099FF0000CCFF0000FFFF000000003300330033006600330099003300CC003300FF003300003333003333
310
33006633330099333300CC333300FF33330000663300336633006666330099663300CC663300FF66330000993300339933006699330099993300CC993300FF99330000CC330033CC330066CC330099CC3300CCCC3300FFCC330000FF330033FF330066FF330099FF3300CCFF3300FFFF330000006600330066006600660099
310
006600CC006600FF00660000336600333366006633660099336600CC336600FF33660000666600336666006666660099666600CC666600FF66660000996600339966006699660099996600CC996600FF99660000CC660033CC660066CC660099CC6600CCCC6600FFCC660000FF660033FF660066FF660099FF6600CCFF6600
310
FFFF660000009900330099006600990099009900CC009900FF00990000339900333399006633990099339900CC339900FF33990000669900336699006666990099669900CC669900FF66990000999900339999006699990099999900CC999900FF99990000CC990033CC990066CC990099CC9900CCCC9900FFCC990000FF99
310
0033FF990066FF990099FF9900CCFF9900FFFF99000000CC003300CC006600CC009900CC00CC00CC00FF00CC000033CC003333CC006633CC009933CC00CC33CC00FF33CC000066CC003366CC006666CC009966CC00CC66CC00FF66CC000099CC003399CC006699CC009999CC00CC99CC00FF99CC0000CCCC0033CCCC0066CC
310
CC0099CCCC00CCCCCC00FFCCCC0000FFCC0033FFCC0066FFCC0099FFCC00CCFFCC00FFFFCC000000FF003300FF006600FF009900FF00CC00FF00FF00FF000033FF003333FF006633FF009933FF00CC33FF00FF33FF000066FF003366FF006666FF009966FF00CC66FF00FF66FF000099FF003399FF006699FF009999FF00CC
310
99FF00FF99FF0000CCFF0033CCFF0066CCFF0099CCFF00CCCCFF00FFCCFF0000FFFF0033FFFF0066FFFF0099FFFF00CCFFFF00FFFFFF00000000000D0D0D001A1A1A00282828003535350043434300505050005D5D5D006B6B6B00787878008686860093939300A1A1A100AEAEAE00BBBBBB00C9C9C900D6D6D600E4E4E400
310
F1F1F100FFFFFF0000000000000000000000000000000000000000000000000000000000000000000000000000000000E1E1E1E1E1E1E1E1E1E1E1E1E1E1E1E1E1E1E1E1E1E1E1E1E1E1E1E1E1E1E1E1E1E1E1E1E1E1E1E1E1E1E1E1E1E1E1E1E1E1E1E1E1E1E1E1E1E1E1E1E1E1E1E1E1E1E1E1E1E1E1E1E1E1E1E1E1E1E1
310
E1BEBEBEBEBEBEBEBEBEBEBEBEBEBEBEBEBEBEBEBEBEBEBEBEBEBEBEBEBEBEBEBEBEBEBEBEBEBEBEBEBEBEBEBEBEBEBEBEBEBEBEBEBEBEBEBEBEBEBEBEBEBEBEBEBEBEBEBEBEBEBEBEBEBEBEBEBEBEBEBEBEBEBEBEBEBEBEBEBEBEBEBEBEBEBEBEE1E1E1E1E1E1E1E1E1E1E1E1E1E1E1E1E1E1E1E1E1E1E1E1E1E1E1E1E1E1
310
E1E1E1E1E1E1E1E1E1E1E1E1E1E1E1E1E1E1E1E1E1E1E1E1E1E1E1E1E1E1E1E1E1E1E1E1E1E1E1E1E1E1E1E1E1E1E1E1E1E1E1E1E1E1E1E1E1E1E1E1E1E1E1E1E1E1E1E1E1E1E1E1E1E1E1E1E1E1E1E1E1E1E1E1E1E1E1E1E1E1E1E1E1E1E1E1E1E1E1E1E1E1E1E1E1E1E1E1E1E1E1E1E1E1E1E1E1E1E1E1E1E1E1E1E1E1E1
310
E1E1E1BEE1E1E1E1E1E1E1E1E1E1E1E1E1E1E1E1E1E1E1E1E1E1E1E1E1E1E1E1E1E1E1E1E1E1E1E1E1E1E1E1E1E1E1E1E1E1E1E1E1E1E1E1E1E1E1E1E1E1E1E1E1E1E1E1E1E1E1E1E1E1E1E1E1E1E1E1E1E1E1E1E1E1E1E1E1E1E1E1E1E1E1E1E1E1BEE1E1E1E1E1E1E1E1E1E1E1E1E1E1E1E1E1E1E1E1E1E1E1E1E1E1E1E1
310
E1E1E1E1E1E1E1E1E1E1E1E1E1E1E1E1E1E1E1E1E1E1E1E1E1E1E1E1E1E1E1E1E1E1E1E1E1E1E1E1E1E1E1E1E1E1E1E1E1E1E1E1E1E1E1E1E1E1E1E1E1E1E1E1E1E1E1E1E1E1E1E1E1E1E1E1E1E1E1E1E1E1E1E1E1E1E1E1E1E1E1E1E1E1E1E1E1E1E1E1E1E1E1E1E1E1E1E1E1E1E1E1E1E1E1E1E1E1E1E1E1E1E1E1E1E1E1
310
E1E1E1E1E1BEE1E1E1E1E1E1E1E12828282828282828282828282828282828282828282828282828282828282828282828282828280F282828282828282828282828282828282828282828282828282828282828282828282828282828282828282828E1BEE1E1E1E1E1E1E1E1E1E1E1E1E1E1E1E1E1E1E1E1E1E1E1E1E1E1
310
E1E1E1E1E1E1E1E1E1E1E1E1E1E1E1E1E1E1E1E1E1E1E1E1E1E1E1E1E1E1E1E1E1E1E1E1E1E1E1E1E1E1E1E1E1E1E1E1E1E1E1E1E1E1E1E1E1E1E1E1E1E1E1E1E1E1E1E1E1E1E1E1E1E1E1E1E1E1E1E1E1E1E1E1E1E1E1E1E1E1E1E1E1E1E1E1E1E1E1E1E1E1E1E1E1E1E1E1E1E1E1E1E1E1E1E1E1E1E1E1E1E1E1E1E1E1E1
310
E1E1E1E1E1E1E1BEE1E1E1E1E1E1E1E128E1E1E1E1E1E1E1E1E1E1E1E1E1E1E1E1E1E1E1E1E1E1E1E1E1E1E1E1E1E1E1E1E1E1E1E1E1E10F0F0F0F0F0F0F0F0F0F0FE10F0F0F0F0F0F0F0F0F0FE1E1E1E1E1E1E1E1E1E1E1E1E1E1E1E1E1E1E1E1E1E1E128E1BEE1E1E1E1E1E1E1E1E1E1E1E1E1E1E1E1E1E1E1E1E1E1E1E1
310
E1E1E1E1E1E1E1E1E1E1E1E1E1E1E1E1E1E1E1E1E1E1E1E1E1E1E1E1E1E1E1E1E1E1E1E1E1E1E1E1E1E1E1E1E1E1E1E1E1E1E1E1E1E1E1E1E1E1E1E1E1E1E1E1E1E1E1E1E1E1E1E1E1E1E1E1E1E1E1E1E1E1E1E1E1E1E1E1E1E1E1E1E1E1E1E1E1E1E1E1E1E1E1E1E1E1E1E1E1E1E1E1E1E1E1E1E1E1E1E1E1E1E1E1E1E1E1
310
E1E1E1E1E1E1E1E1E1BEE1E1E1E1E1E1E1E128E1E1E1E1E1E1E1E1E1E1E1E1E1E1E1E1E1E1E1E1E1E1E1E1E1E1E1E1E1E1E1E1E1E1E1E1E1E10F0F0F0F0F0F0F0F0F0F0FE10F0F0F0F0F0F0F0F0F0FE1E1E1E1E1E1E1E1E1E1E1E1E1E1E1E1E1E1E1E1E1E1E128E1BEE1E1E1E1E1E1E1E1E1E1E1E1E1E1E1E1E1E1E1E1E1E1
310
E1E1E1E1E1E1E1E1E1E1E1E1E1E1E1E1E1E1E1E1E1E1E1E1E1E1E1E1E1E1E1E1E1E1E1E1E1E1E1E1E1E1E1E1E1E1E1E1E1E1E1E1E1E1E1E1E1E1E1E1E1E1E1E1E1E1E1E1E1E1E1E1E1E1E1E1E1E1E1E1E1E1E1E1E1E1E1E1E1E1E1E1E1E1E1E1E1E1E1E1E1E1E1E1E1E1E1E1E1E1E1E1E1E1E1E1E1E1E1E1E1E1E1E1E1E1E1
310
E1E1E1E1E1E1E1E1E1E1E1BEE1E1E1E1E1E1E1E128E1E1E1E1E1E1E1E1E1E1E1E1E1E1E1E1E1E1E1E1E1E1E1E1E1E1E1E1E1E1E1E1E1E1E1E1E1E10F0F0F0F0FE1E1E1E1E1E1E10FE10F0F0F0F0F0FE1E1E1E1E1E1E1E1E1E1E1E1E1E1E1E1E1E1E1E1E1E1E1E1E128E1BEE1E1E1E1E1E1E1E1E1E1E1E1E1E1E1E1E1E1E1E1
310
E1E1E1E1E1E1E1E1E1E1E1E1E1E1E1E1E1E1E1E1E1E1E1E1E1E1E1E1E1E1E1E1E1E1E1E1E1E1E1E1E1E1E1E1E1E1E1E1E1E1E1E1E1E1E1E1E1E1E1E1E1E1E1E1E1E1E1E1E1E1E1E1E1E1E1E1E1E1E1E1E1E1E1E1E1E1E1E1E1E1E1E1E1E1E1E1E1E1E1E1E1E1E1E1E1E1E1E1E1E1E1E1E1E1E1E1E1E1E1E1E1E1E1E1E1E1E1
310
E1E1E1E1E1E1E1E1E1E1E1E1E1BEE1E1E1E1E1E1E1E128E1E1E1E1E1E1E1E1E1E1E1E1E1E1E1E1E1E1E1E1E1E1E1E1E1E1E1E1E1E1E1E1E1E1E1E1E1E10F0F0F0FE1E1E1E1E1E1E1E10F0F0F0F0F0F0F0FE1E1E1E1E1E1E1E1E1E1E1E1E1E1E1E1E1E1E1E1E1E1E1E1E128E1BEE1E1E1E1E1E1E1E1E1E1E1E1E1E1E1E1E1E1
310
E1E1E1E1E1E1E1E1E1E1E1E1E1E1E1E1E1E1E1E1E1E1E1E1E1E1E1E1E1E1E1E1E1E1E1E1E1E1E1E1E1E1E1E1E1E1E1E1E1E1E1E1E1E1E1E1E1E1E1E1E1E1E1E1E1E1E1E1E1E1E1E1E1E1E1E1E1E1E1E1E1E1E1E1E1E1E1E1E1E1E1E1E1E1E1E1E1E1E1E1E1E1E1E1E1E1E1E1E1E1E1E1E1E1E1E1E1E1E1E1E1E1E1E1E1E1E1
310
E1E1E1E1E1E1E1E1E1E1E1E1E1E1E1BEE1E1E1E1E1E1E1E128E1E1E1E1E1E1E1E1E1E1E1E1E1E1E1E1E1E1E1E1E1E1E1E1E1E1E1E1E1E1E1E1E1E1E1E1E1E1BEBEBEBEBEBEBEBEBEBE0F0F0F0F0F0F0F0F0F0F0F0F0F0F0F0F0F0F0F0F0F0F0F0F0F0F0F0F0F0F0F0F0F0F0F0FE1BEE1E1E1E1E1E1E1E1E1E1E1E1E1E1E1E1
310
E1E1E1E1E1E1E1E1E1E1E1E1E1E1E1E1E1E1E1E1E1E1E1E1E1E1E1E1E1E1E1E1E1E1E1E1E1E1E1E1E1E1E1E1E1E1E1E1E1E1E1E1E1E1E1E1E1E1E1E1E1E1E1E1E1E1E1E1E1E1E1E1E1E1E1E1E1E1E1E1E1E1E1E1E1E1E1E1E1E1E1E1E1E1E1E1E1E1E1E1E1E1E1E1E1E1E1E1E1E1E1E1E1E1E1E1E1E1E1E1E1E1E1E1E1E1E1
310
E1E1E1E1E1E1E1E1E1E1E1E1E1E1E1E1E1BEE1E1E1E1E1E1E1E128E1E1E1E1E1E1E1E1E1E1E1E1E1E1E1E1E1E1E1E1E1E1E1E1E1E1E1E1E1E1E1E1E1E1E1E1E1E1BEBEBEBEBEBEBEBEBEBEE1E1E1E1E10FE1E1E1E1E1E1E1E1E1E1E1E1E1E1BEBEBEBEBEBEBEBEBEBEBEBEBEBEE128E1BEE1E1E1E1E1E1E1E1E1E1E1E1E1E1
310
E1E1E1E1E1E1E1E1E1E1E1E1E1E1E1E1E1E1E1E1E1E1E1E1E1E1E1E1E1E1E1E1E1E1E1E1E1E1E1E1E1E1E1E1E1E1E1E1E1E1E1E1E1E1E1E1E1E1E1E1E1E1E1E1E1E1E1E1E1E1E1E1E1E1E1E1E1E1E1E1E1E1E1E1E1E1E1E1E1E1E1E1E1E1E1E1E1E1E1E1E1E1E1E1E1E1E1E1E1E1E1E1E1E1E1E1E1E1E1E1E1E1E1E1E1E1E1
310
E1E1E1E1E1E1E1E1E1E1E1E1E1E1E1E1E1E1E1BEE1E1E1E1E1E1E1E128E1E1E1E1E1E1E1E1E1E1E1E1E1E1E1E1E1E1E1E1E1E1E1E1E1E1E1E1E1E1E1E1E1E1E1E1E1E1BEBEBEBEE1BEBEBEBEBEBEBEE1E1E10FE1E1E1E1E1E1E1E1E1E1E1E1E1E1E1E1E1E1E1E2E2E2E2E2E2E2E2E2E128E1BEE1E1E1E1E1E1E1E1E1E1E1E1
310
E1E1E1E1E1E1E1E1E1E1E1E1E1E1E1E1E1E1E1E1E1E1E1E1E1E1E1E1E1E1E1E1E1E1E1E1E1E1E1E1E1E1E1E1E1E1E1E1E1E1E1E1E1E1E1E1E1E1E1E1E1E1E1E1E1E1E1E1E1E1E1E1E1E1E1E1E1E1E1E1E1E1E1E1E1E1E1E1E1E1E1E1E1E1E1E1E1E1E1E1E1E1E1E1E1E1E1E1E1E1E1E1E1E1E1E1E1E1E1E1E1E1E1E1E1E1E1
310
E1E1E1E1E1E1E1E1E1E1E1E1E1E1E1E1E1E1E1E1E1BEE1E1E1E1E1E1E1E128E1E1E1E1E1E1E1E1E1E1E1E1E1E1E1E1E1E1E1E1E1E1E1E1E1E1E1E1E1E1E1E1E1E1E1E1E1E1BEBEBEBEBEBEBEBEBEBEBEBEBEBEBEBEE1E1E1E1E1E1E1E1E1E1E1E1E1E1E1E1E1E1E1E2E2E2E2E2E2E2E2E2E128E1BEE1E1E1E1E1E1E1E1E1E1
310
E1E1E1E1E1E1E1E1E1E1E1E1E1E1E1E1E1E1E1E1E1E1E1E1E1E1E1E1E1E1E1E1E1E1E1E1E1E1E1E1E1E1E1E1E1E1E1E1E1E1E1E1E1E1E1E1E1E1E1E1E1E1E1E1E1E1E1E1E1E1E1E1E1E1E1E1E1E1E1E1E1E1E1E1E1E1E1E1E1E1E1E1E1E1E1E1E1E1E1E1E1E1E1E1E1E1E1E1E1E1E1E1E1E1E1E1E1E1E1E1E1E1E1E1E1E1E1
310
E1E1E1E1E1E1E1E1E1E1E1E1E1E1E1E1E1E1E1E1E1E1E1BEE1E1E1E1E1E1E1E128E1E1E1E1E1E1E1E1E1E1E1E1E1E1E1E1E1E1E1E1E1E1E1E1E1E1E1E1E1E1E1E1E1E1E1E1E1E1BEBEE1E1E1BEBEBEE1E1E1E1E1E1E10FE1E1E1E1E1E1E1E1E1E1E1E1E1E1E1E1E1E1E1E2E2E2E2E2E2E2E2E2E128E1BEE1E1E1E1E1E1E1E1
310
E1E1E1E1E1E1E1E1E1E1E1E1E1E1E1E1E1E1E1E1E1E1E1E1E1E1E1E1E1E1E1E1E1E1E1E1E1E1E1E1E1E1E1E1E1E1E1E1E1E1E1E1E1E1E1E1E1E1E1E1E1E1E1E1E1E1E1E1E1E1E1E1E1E1E1E1E1E1E1E1E1E1E1E1E1E1E1E1E1E1E1E1E1E1E1E1E1E1E1E1E1E1E1E1E1E1E1E1E1E1E1E1E1E1E1E1E1E1E1E1E1E1E1E1E1E1E1
310
E1E1E1E1E1E1E1E1E1E1E1E1E1E1E1E1E1E1E1E1E1E1E1E1E1BEE1E1E1E1E1E1E1E128E1E1E1E1E1E1E1E1E1E1E1E1E1E1E1E1E1E1E1E1E1E1E1E1E1E1E1E1E1E1E1E1E1E1E1E1E1E1BEBEE1E1E1BEBEBEE1E1E1E1E1E1E10FE1E1E1E1E1E1E1E1E1E1E1E1E1E1E1E1E1E1E1E1E1E1BEE2E2E2E2E2E228E1BEE1E1E1E1E1E1
310
E1E1E1E1E1E1E1E1E1E1E1E1E1E1E1E1E1E1E1E1E1E1E1E1E1E1E1E1E1E1E1E1E1E1E1E1E1E1E1E1E1E1E1E1E1E1E1E1E1E1E1E1E1E1E1E1E1E1E1E1E1E1E1E1E1E1E1E1E1E1E1E1E1E1E1E1E1E1E1E1E1E1E1E1E1E1E1E1E1E1E1E1E1E1E1E1E1E1E1E1E1E1E1E1E1E1E1E1E1E1E1E1E1E1E1E1E1E1E1E1E1E1E1E1E1E1E1
310
E1E1E1E1E1E1E1E1E1E1E1E1E1E1E1E1E1E1E1E1E1E1E1E1E1E1E1BEE1E1E1E1E1E1E1E128E1E1E1E1E1E1E1E1E1E1E1E1E1E1E1E1E1E1E1E1E1E1E1E1E1E1E1E1E1E1E1E1E1E1E1E1E1E1BEBEE1E1E1BEBEBEE1E1E1E1E1E1E10FE1E1E1E1E1E1E1E1E1E1E1E1E1E1E1E1E1E1E1E1BEBEBEBEE2BEE2BEE228E1BEE1E1E1E1
310
E1E1E1E1E1E1E1E1E1E1E1E1E1E1E1E1E1E1E1E1E1E1E1E1E1E1E1E1E1E1E1E1E1E1E1E1E1E1E1E1E1E1E1E1E1E1E1E1E1E1E1E1E1E1E1E1E1E1E1E1E1E1E1E1E1E1E1E1E1E1E1E1E1E1E1E1E1E1E1E1E1E1E1E1E1E1E1E1E1E1E1E1E1E1E1E1E1E1E1E1E1E1E1E1E1E1E1E1E1E1E1E1E1E1E1E1E1E1E1E1E1E1E1E1E1E1E1
310
E1E1E1E1E1E1E1E1E1E1E1E1E1E1E1E1E1E1E1E1E1E1E1E1E1E1E1E1E1BEE1E1E1E1E1E1E1E128E1E1E1E1E1E1E1E1E1E1E1E1E1E1E1E1E1E1E1E1E1E1E1E1E1E1E1E1E1E1E1E1E1E1E1E1E1E1BEBEE1E1E1BEBEBEE1E1E1E1E1E1E10FE1E1E1E1E1E1E1E1E1E1E1E1E1E1E1E1E1E1E1E1BEBEBEBEBEE2E2E2E228E1BEE1E1
310
E1E1E1E1E1E1E1E1E1E1E1E1E1E1E1E1E1E1E1E1E1E1E1E1E1E1E1E1E1E1E1E1E1E1E1E1E1E1E1E1E1E1E1E1E1E1E1E1E1E1E1E1E1E1E1E1E1E1E1E1E1E1E1E1E1E1E1E1E1E1E1E1E1E1E1E1E1E1E1E1E1E1E1E1E1E1E1E1E1E1E1E1E1E1E1E1E1E1E1E1E1E1E1E1E1E1E1E1E1E1E1E1E1E1E1E1E1E1E1E1E1E1E1E1E1E1E1
310
E1E1E1E1E1E1E1E1E1E1E1E1E1E1E1E1E1E1E1E1E1E1E1E1E1E1E1E1E1E1E1BEE1E1E1E1E1E1E1E128E1E1E1E1E1E1E1E1E1E1E1E1E1E1E1E1E1E1E1E1E1E1E1E1E1E1E1E1E1E1E1E1E1E1E1E1E1E1BEBEE1E1E1BEBEBEE1E1E1E1E1E1E10FE1E1E1E1E1E1E1E1E1E1E1E1E1E1E1E1E1E1E1E1BEBEBEBEBEE2E2E2E228E1BE
310
E1E1E1E1E1E1E1E1E1E1E1E1E1E1E1E1E1E1E1E1E1E1E1E1E1E1E1E1E1E1E1E1E1E1E1E1E1E1E1E1E1E1E1E1E1E1E1E1E1E1E1E1E1E1E1E1E1E1E1E1E1E1E1E1E1E1E1E1E1E1E1E1E1E1E1E1E1E1E1E1E1E1E1E1E1E1E1E1E1E1E1E1E1E1E1E1E1E1E1E1E1E1E1E1E1E1E1E1E1E1E1E1E1E1E1E1E1E1E1E1E1E1E1E1E1E1E1
310
E1E1E1E1E1E1E1E1E1E1E1E1E1E1E1E1E1E1E1E1E1E1E1E1E1E1E1E1E1E1E1E1E1BEE1E1E1E1E1E1E1E128E1E1E1E1E1E1E1E1E1E1E1E1E1E1E1E1E1E1E1E1E1E1E1E1E1E1E1E1E1E1E1E1E1E1E1E1E1E1BEBEE1E1E1BEBEBEE1E1E1E1E1E1E10FE1E1E1E1E1E1E1E1E1E1E1E1E1E1E1E1E1E1E1E1E1BEBEBEE1BEE2E1E228
310
E1BEE1E1E1E1E1E1E1E1E1E1E1E1E1E1E1E1E1E1E1E1E1E1E1E1E1E1E1E1E1E1E1E1E1E1E1E1E1E1E1E1E1E1E1E1E1E1E1E1E1E1E1E1E1E1E1E1E1E1E1E1E1E1E1E1E1E1E1E1E1E1E1E1E1E1E1E1E1E1E1E1E1E1E1E1E1E1E1E1E1E1E1E1E1E1E1E1E1E1E1E1E1E1E1E1E1E1E1E1E1E1E1E1E1E1E1E1E1E1E1E1E1E1E1E1E1
310
E1E1E1E1E1E1E1E1E1E1E1E1E1E1E1E1E1E1E1E1E1E1E1E1E1E1E1E1E1E1E1E1E1E1E1BEE1E1E1E1E1E1E1E128E1E1E1E1E1E1E1E1E1E1E1E1E1E1E1E1E1E1E1E1E1E1E1E1E1E1E1E1E1E1E1E1E1E1E1E1E1E1BEBEE1E1E1BEBEBEE1E1E1E1E1E1E10FE1E1E1E1E1E1E1E1E1E1E1E1E1E1E1E1E1E1E1E1E1E1E1E1E1E1E1E1
310
E128E1BEE1E1E1E1E1E1E1E1E1E1E1E1E1E1E1E1E1E1E1E1E1E1E1E1E1E1E1E1E1E1E1E1E1E1E1E1E1E1E1E1E1E1E1E1E1E1E1E1E1E1E1E1E1E1E1E1E1E1E1E1E1E1E1E1E1E1E1E1E1E1E1E1E1E1E1E1E1E1E1E1E1E1E1E1E1E1E1E1E1E1E1E1E1E1E1E1E1E1E1E1E1E1E1E1E1E1E1E1E1E1E1E1E1E1E1E1E1E1E1E1E1E1E1
310
E1E1E1E1E1E1E1E1E1E1E1E1E1E1E1E1E1E1E1E1E1E1E1E1E1E1E1E1E1E1E1E1E1E1E1E1E1BEE1E1E1E1E1E1E1E128E1E1E1E1E1E1E1E1E1E1E1E1E1E1E1E1E1E1E1E1E1E1E1E1E1E1E1E1E1E1E1E1E1E1E1E1E1E1BEBEE1E1E1BEBEBEE1E1E1E1E1E1E10FE1E1E1E1E1E1E1E1E1E1E1E1E1E1E1E1E1E1E1E1E1E1E1E1E1E1
310
E1E1E128E1BEE1E1E1E1E1E1E1E1E1E1E1E1E1E1E1E1E1E1E1E1E1E1E1E1E1E1E1E1E1E1E1E1E1E1E1E1E1E1E1E1E1E1E1E1E1E1E1E1E1E1E1E1E1E1E1E1E1E1E1E1E1E1E1E1E1E1E1E1E1E1E1E1E1E1E1E1E1E1E1E1E1E1E1E1E1E1E1E1E1E1E1E1E1E1E1E1E1E1E1E1E1E1E1E1E1E1E1E1E1E1E1E1E1E1E1E1E1E1E1E1E1
310
E1E1E1E1E1E1E1E1E1E1E1E1E1E1E1E1E1E1E1E1E1E1E1E1E1E1E1E1E1E1E1E1E1E1E1E1E1E1E1BEE1E1E1E1E1E1E1E128E1E1E1E1E1E1E1E1E1E1E1E1E1E1E1E1E1E1E1E1E1E1E1E1E1E1E1E1E1E1E1E1E1E1E1E1E1E10FE1E1E1E1BEE1E1E1E1E1E1E1E1E10FE1E1E1E1E1E1E1E1E1E1E1E1E1E1E1E1E1E1E1E1E1E1E1E1
310
E1E1E1E1E128E1BEE1E1E1E1E1E1E1E1E1E1E1E1E1E1E1E1E1E1E1E1E1E1E1E1E1E1E1E1E1E1E1E1E1E1E1E1E1E1E1E1E1E1E1E1E1E1E1E1E1E1E1E1E1E1E1E1E1E1E1E1E1E1E1E1E1E1E1E1E1E1E1E1E1E1E1E1E1E1E1E1E1E1E1E1E1E1E1E1E1E1E1E1E1E1E1E1E1E1E1E1E1E1E1E1E1E1E1E1E1E1E1E1E1E1E1E1E1E1E1
310
E1E1E1E1E1E1E1E1E1E1E1E1E1E1E1E1E1E1E1E1E1E1E1E1E1E1E1E1E1E1E1E1E1E1E1E1E1E1E1E1E1BEE1E1E1E1E1E1E1E128E1E1E1E1E1E1E1E1E1E1E1E1E1E1E1E1E1E1E1E1E1E1E1E1E1E1E1E1E1E1E1E1E1E1E1E1E1E1BEBEE1E1E1BEBEBEE1E1E1E1E1E1E10FE1E1E1E1E1E1E1E1E1E1E1E1E1E1E1E1E1E1E1E1E1E1
310
E1E1E1E1E1E1E128E1BEE1E1E1E1E1E1E1E1E1E1E1E1E1E1E1E1E1E1E1E1E1E1E1E1E1E1E1E1E1E1E1E1E1E1E1E1E1E1E1E1E1E1E1E1E1E1E1E1E1E1E1E1E1E1E1E1E1E1E1E1E1E1E1E1E1E1E1E1E1E1E1E1E1E1E1E1E1E1E1E1E1E1E1E1E1E1E1E1E1E1E1E1E1E1E1E1E1E1E1E1E1E1E1E1E1E1E1E1E1E1E1E1E1E1E1E1E1
310
E1E1E1E1E1E1E1E1E1E1E1E1E1E1E1E1E1E1E1E1E1E1E1E1E1E1E1E1E1E1E1E1E1E1E1E1E1E1E1E1E1E1E1BEE1E1E1E1E1E1E1E128E1E1E1E1E1E1E1E1E1E1E1E1E1E1E1E1E1E1E1E1E1E1E1E1E1E1E1E1E1E1E1E1E1E1E1E1E1E1BEBEE1E1E1BEBEBEE1E1E1E1E1E1E10FE1E1E1E1E1E1E1E1E1E1E1E1E1E1E1E1E1E1E1E1
310
E1E1E1E1E1E1E1E1E128E1BEE1E1E1E1E1E1E1E1E1E1E1E1E1E1E1E1E1E1E1E1E1E1E1E1E1E1E1E1E1E1E1E1E1E1E1E1E1E1E1E1E1E1E1E1E1E1E1E1E1E1E1E1E1E1E1E1E1E1E1E1E1E1E1E1E1E1E1E1E1E1E1E1E1E1E1E1E1E1E1E1E1E1E1E1E1E1E1E1E1E1E1E1E1E1E1E1E1E1E1E1E1E1E1E1E1E1E1E1E1E1E1E1E1E1E1
310
E1E1E1E1E1E1E1E1E1E1E1E1E1E1E1E1E1E1E1E1E1E1E1E1E1E1E1E1E1E1E1E1E1E1E1E1E1E1E1E1E1E1E1E1E1BEE1E1E1E1E1E1E1E128E1E1E1E1E1E1E1E1E1E1E1E1E1E1E1E1E1E1E1E1E1E1E1E1E1E1E1E1E1E1E1E1E1E1E1E1E1E10F0F0F0F0F0F0F0F0F0F0F0F0F0F0F0F0F0F0F0F0F0F0F0F0F0F0F0F0F0F0F0F0F0F
310
0F0F0F0F0F0F0F0F0F0F0F0FE1BEE1E1E1E1E1E1E1E1E1E1E1E1E1E1E1E1E1E1E1E1E1E1E1E1E1E1E1E1E1E1E1E1E1E1E1E1E1E1E1E1E1E1E1E1E1E1E1E1E1E1E1E1E1E1E1E1E1E1E1E1E1E1E1E1E1E1E1E1E1E1E1E1E1E1E1E1E1E1E1E1E1E1E1E1E1E1E1E1E1E1E1E1E1E1E1E1E1E1E1E1E1E1E1E1E1E1E1E1E1E1E1E1E1
310
E1E1E1E1E1E1E1E1E1E1E1E1E1E1E1E1E1E1E1E1E1E1E1E1E1E1E1E1E1E1E1E1E1E1E1E1E1E1E1E1E1E1E1E1E1E1E1BEE1E1E1E1E1E1E1E128E1E1E1E1E1E1E1E1E1E1E1E1E1E1E1E1E1E1E1E1E1E1E1E1E1E1E1E1E1E1E1E1E1E1E1E1E1E10FE1E1E1E1E1E1E1E1E1E1E1E1E1E1E1E1E1E1E1E1E1E1E1E1E1E1E1E1E1E1E1
310
E1E1E1E1E1E1E1E1E1E1E1E1E128E1BEE1E1E1E1E1E1E1E1E1E1E1E1E1E1E1E1E1E1E1E1E1E1E1E1E1E1E1E1E1E1E1E1E1E1E1E1E1E1E1E1E1E1E1E1E1E1E1E1E1E1E1E1E1E1E1E1E1E1E1E1E1E1E1E1E1E1E1E1E1E1E1E1E1E1E1E1E1E1E1E1E1E1E1E1E1E1E1E1E1E1E1E1E1E1E1E1E1E1E1E1E1E1E1E1E1E1E1E1E1E1E1
310
E1E1E1E1E1E1E1E1E1E1E1E1E1E1E1E1E1E1E1E1E1E1E1E1E1E1E1E1E1E1E1E1E1E1E1E1E1E1E1E1E1E1E1E1E1E1E1E1E1BEE1E1E1E1E1E1E1E128E1E1E1E1E1E1E1E1E1E1E1E1E1E1E1E1E1E1E1E1E1E1E1E1E1E1E1E1E1E1E1E1E1E1E1E1E1E10FE2E2E2E2E2E2E2E2E2E2E2E2E2E2E2E2E2E2E2E2E2E1E2E2E2E2E2E2E2
310
E2E2E2E2E1E2E2E2E2E2E2E2E2E2E128E1BEE1E1E1E1E1E1E1E1E1E1E1E1E1E1E1E1E1E1E1E1E1E1E1E1E1E1E1E1E1E1E1E1E1E1E1E1E1E1E1E1E1E1E1E1E1E1E1E1E1E1E1E1E1E1E1E1E1E1E1E1E1E1E1E1E1E1E1E1E1E1E1E1E1E1E1E1E1E1E1E1E1E1E1E1E1E1E1E1E1E1E1E1E1E1E1E1E1E1E1E1E1E1E1E1E1E1E1E1E1
310
E1E1E1E1E1E1E1E1E1E1E1E1E1E1E1E1E1E1E1E1E1E1E1E1E1E1E1E1E1E1E1E1E1E1E1E1E1E1E1E1E1E1E1E1E1E1E1E1E1E1E1BEE1E1E1E1E1E1E1BE28E1E1E1E1E1E1E1E1E1E1E1E1E1E1E1E1E1E1E1E1E1E1E1E1E1E1E1E1E1E1E1E1E1E1E1E1E1E10FE2E2E2E2E2E2E2E2E2E2E2E2E2E2E2E2E2E2E2E2E2E2E2E2E2E2E2
310
E2E2E2E2E2E2E1E2E2E2E2E2E2E2E2E2E128E1BEE1E1E1E1E1E1E1E1E1E1E1E1E1E1E1E1E1E1E1E1E1E1E1E1E1E1E1E1E1E1E1E1E1E1E1E1E1E1E1E1E1E1E1E1E1E1E1E1E1E1E1E1E1E1E1E1E1E1E1E1E1E1E1E1E1E1E1E1E1E1E1E1E1E1E1E1E1E1E1E1E1E1E1E1E1E1E1E1E1E1E1E1E1E1E1E1E1E1E1E1E1E1E1E1E1E1E1
310
E1E1E1E1E1E1E1E1E1E1E1E1E1E1E1E1E1E1E1E1E1E1E1E1E1E1E1E1E1E1E1E1E1E1E1E1E1E1E1E1E1E1E1E1E1E1E1E1E1E1E1E1E1BEE1E1E1E1E1E1E1BE28E1E1E1E1E1E1E1E1E1E1E1E1E1E1E1E1E1E1E1E1E1E1E1E1E1E1E1E1E1E1E1E1E1E1E1E1E1E10FE2E2E1E2E1E1E2E1E1E1E1E1E2E2E1E1E1E1E1E1E1E2E2E2E1
310
E2E1E2E1E1E1E1E1E1E1E2E1E1E1E1E2E1E1E128E1BEE1E1E1E1E1E1E1E1E1E1E1E1E1E1E1E1E1E1E1E1E1E1E1E1E1E1E1E1E1E1E1E1E1E1E1E1E1E1E1E1E1E1E1E1E1E1E1E1E1E1E1E1E1E1E1E1E1E1E1E1E1E1E1E1E1E1E1E1E1E1E1E1E1E1E1E1E1E1E1E1E1E1E1E1E1E1E1E1E1E1E1E1E1E1E1E1E1E1E1E1E1E1E1E1E1
310
E1E1E1E1E1E1E1E1E1E1E1E1E1E1E1E1E1E1E1E1E1E1E1E1E1E1E1E1E1E1E1E1E1E1E1E1E1E1E1E1E1E1E1E1E1E1E1E1E1E1E1E1E1E1E1BEE1E1E1E1E1E1E1BE28E1E1E1E1E1E1E1E1E1E1E1E1E1E1E1E1E1E1E1E1E1E1E1E1E1E1E1E1E1E1E1E1E1E1E1E1E1E10FE2E2E2E2E2E2E2E1E2E2E2E2E2E2E1E2E1E1E1E1E1E1E1
310
E1E1E1E1E1E1E1E1E1E1E1E1E1E1E1E1E1E1E1E1E128E1BEE1E1E1E1E1E1E1E1E1E1E1E1E1E1E1E1E1E1E1E1E1E1E1E1E1E1E1E1E1E1E1E1E1E1E1E1E1E1E1E1E1E1E1E1E1E1E1E1E1E1E1E1E1E1E1E1E1E1E1E1E1E1E1E1E1E1E1E1E1E1E1E1E1E1E1E1E1E1E1E1E1E1E1E1E1E1E1E1E1E1E1E1E1E1E1E1E1E1E1E1E1E1E1
310
E1E1E1E1E1E1E1E1E1E1E1E1E1E1E1E1E1E1E1E1E1E1E1E1E1E1E1E1E1E1E1E1E1E1E1E1E1E1E1E1E1E1E1E1E1E1E1E1E1E1E1E1E1E1E1E1E1BEE1E1E1E1E1E1E1BE28E1E1E1E1E1E1E1E1E1E1E1E1E1E1E1E1E1E1E1E1E1E1E1E1E1E1E1E1E1E1E1E1E1E1E1E1E1E10FE2E1E2E2E2E2E2E1E2E2E2E2E2E1E1E1E1E1E1E1E1
310
E1E1E1E1E1E1E1E1E1E1E1E1E1E1E1E1E1E1E1E1E1E1E128E1BEE1E1E1E1E1E1E1E1E1E1E1E1E1E1E1E1E1E1E1E1E1E1E1E1E1E1E1E1E1E1E1E1E1E1E1E1E1E1E1E1E1E1E1E1E1E1E1E1E1E1E1E1E1E1E1E1E1E1E1E1E1E1E1E1E1E1E1E1E1E1E1E1E1E1E1E1E1E1E1E1E1E1E1E1E1E1E1E1E1E1E1E1E1E1E1E1E1E1E1E1E1
310
E1E1E1E1E1E1E1E1E1E1E1E1E1E1E1E1E1E1E1E1E1E1E1E1E1E1E1E1E1E1E1E1E1E1E1E1E1E1E1E1E1E1E1E1E1E1E1E1E1E1E1E1E1E1E1E1E1E1E1BEE1E1E1E1E1E1E1BE28E1E1E1E1E1E1E1E1E1E1E1E1E1E1E1E1E1E1E1E1E1E1E1E1E1E1E1E1E1E1E1E1E1E1E1E1E1E10FE1E1E1E1E1E1E1E1E1E1E1E1E1E1E1E1E1E1E1
310
E1E1E1E1E1E1E1E1E1E1E1E1E1E1E1E1E1E1E1E1E1E1E1E1E128E1BEE1E1E1E1E1E1E1E1E1E1E1E1E1E1E1E1E1E1E1E1E1E1E1E1E1E1E1E1E1E1E1E1E1E1E1E1E1E1E1E1E1E1E1E1E1E1E1E1E1E1E1E1E1E1E1E1E1E1E1E1E1E1E1E1E1E1E1E1E1E1E1E1E1E1E1E1E1E1E1E1E1E1E1E1E1E1E1E1E1E1E1E1E1E1E1E1E1E1E1
310
E1E1E1E1E1E1E1E1E1E1E1E1E1E1E1E1E1E1E1E1E1E1E1E1E1E1E1E1E1E1E1E1E1E1E1E1E1E1E1E1E1E1E1E1E1E1E1E1E1E1E1E1E1E1E1E1E1E1E1E1E1BEE1E1E1E1E1E1E1BE28E1E1E1E1E1E1E1E1E1E1E1E1E1E1E1E1E1E1E1E1E1E1E1E1E1E1E1E1E1E1E1E1E1E1E1E1E1E10FE2E2E2E2E2E2E1E2E2E2E2E2E2E1E2E2E2
310
E2E2E2E1E1E1E1E1E1E1E1E1E1E1E1E1E1E1E1E1E1E1E1E1E1E1E128E1BEE1E1E1E1E1E1E1E1E1E1E1E1E1E1E1E1E1E1E1E1E1E1E1E1E1E1E1E1E1E1E1E1E1E1E1E1E1E1E1E1E1E1E1E1E1E1E1E1E1E1E1E1E1E1E1E1E1E1E1E1E1E1E1E1E1E1E1E1E1E1E1E1E1E1E1E1E1E1E1E1E1E1E1E1E1E1E1E1E1E1E1E1E1E1E1E1E1
310
E1E1E1E1E1E1E1E1E1E1E1E1E1E1E1E1E1E1E1E1E1E1E1E1E1E1E1E1E1E1E1E1E1E1E1E1E1E1E1E1E1E1E1E1E1E1E1E1E1E1E1E1E1E1E1E1E1E1E1E1E1E1E1BEE1E1E1E1E1E1E1BE28E1E1E1E1E1E1E1E1E1E1E1E1E1E1E1E1E1E1E1E1E1E1E1E1E1E1E1E1E1E1E1E1E1E1E1E1E1E10FE2E2E2E2E2E2E2E2E2E2E2E2E2E2E2
310
E2E2E2E2E2E1E1E1E1E1E1E1E1E1E1E1E1E1E1E1E1E1E1E1E1E1E1E1E128E1BEE1E1E1E1E1E1E1E1E1E1E1E1E1E1E1E1E1E1E1E1E1E1E1E1E1E1E1E1E1E1E1E1E1E1E1E1E1E1E1E1E1E1E1E1E1E1E1E1E1E1E1E1E1E1E1E1E1E1E1E1E1E1E1E1E1E1E1E1E1E1E1E1E1E1E1E1E1E1E1E1E1E1E1E1E1E1E1E1E1E1E1E1E1E1E1
310
E1E1E1E1E1E1E1E1E1E1E1E1E1E1E1E1E1E1E1E1E1E1E1E1E1E1E1E1E1E1E1E1E1E1E1E1E1E1E1E1E1E1E1E1E1E1E1E1E1E1E1E1E1E1E1E1E1E1E1E1E1E1E1E1E1BEE1E1E1E1E1E1E1BE28E1E1E1E1E1E1E1E1E1E1E1E1E1E1E1E1E1E1E1E1E1E1E1E1E1E1E1E1E1E1E1E1E1E1E1E1E1E10FE2E1E1E2E1E1E1E1E1E1E2E2E2
310
E1E2E1E1E2E1E2E1E1E1E1E1E1E1E1E1E1E1E1E1E1E1E1E1E1E1E1E1E1E1E128E1BEE1E1E1E1E1E1E1E1E1E1E1E1E1E1E1E1E1E1E1E1E1E1E1E1E1E1E1E1E1E1E1E1E1E1E1E1E1E1E1E1E1E1E1E1E1E1E1E1E1E1E1E1E1E1E1E1E1E1E1E1E1E1E1E1E1E1E1E1E1E1E1E1E1E1E1E1E1E1E1E1E1E1E1E1E1E1E1E1E1E1E1E1E1
310
E1E1E1E1E1E1E1E1E1E1E1E1E1E1E1E1E1E1E1E1E1E1E1E1E1E1E1E1E1E1E1E1E1E1E1E1E1E1E1E1E1E1E1E1E1E1E1E1E1E1E1E1E1E1E1E1E1E1E1E1E1E1E1E1E1E1E1BEE1E1E1E1E1E1E1BE28E1E1E1E1E1E1E1E1E1E1E1E1E1E1E1E1E1E1E1E1E1E1E1E1E1E1E1E1E1E1E1E1E1E1E1E1E1E10FE2E2E2E1E2E2E2E2E2E2E2
310
E1E1E2E2E2E2E2E2E2E2E2E2E1E1E1E1E1E1E1E1E1E1E1E1E1E1E1E1E1E1E1E1E128E1BEE1E1E1E1E1E1E1E1E1E1E1E1E1E1E1E1E1E1E1E1E1E1E1E1E1E1E1E1E1E1E1E1E1E1E1E1E1E1E1E1E1E1E1E1E1E1E1E1E1E1E1E1E1E1E1E1E1E1E1E1E1E1E1E1E1E1E1E1E1E1E1E1E1E1E1E1E1E1E1E1E1E1E1E1E1E1E1E1E1E1E1
310
E1E1E1E1E1E1E1E1E1E1E1E1E1E1E1E1E1E1E1E1E1E1E1E1E1E1E1E1E1E1E1E1E1E1E1E1E1E1E1E1E1E1E1E1E1E1E1E1E1E1E1E1E1E1E1E1E1E1E1E1E1E1E1E1E1E1E1E1E1BEE1E1E1E1E1E1E1BE28E1E1E1E1E1E1E1E1E1E1E1E1E1E1E1E1E1E1E1E1E1E1E1E1E1E1E1E1E1E1E1E1E1E1E1E1E1E10FE1E2E2E2E2E2E2E2E2
310
E2E1E2E1E1E2E2E2E2E2E2E2E2E2E1E1E1E1E1E1E1E1E1E1E1E1E1E1E1E1E1E1E1E1E128E1BEE1E1E1E1E1E1E1E1E1E1E1E1E1E1E1E1E1E1E1E1E1E1E1E1E1E1E1E1E1E1E1E1E1E1E1E1E1E1E1E1E1E1E1E1E1E1E1E1E1E1E1E1E1E1E1E1E1E1E1E1E1E1E1E1E1E1E1E1E1E1E1E1E1E1E1E1E1E1E1E1E1E1E1E1E1E1E1E1E1
310
E1E1E1E1E1E1E1E1E1E1E1E1E1E1E1E1E1E1E1E1E1E1E1E1E1E1E1E1E1E1E1E1E1E1E1E1E1E1E1E1E1E1E1E1E1E1E1E1E1E1E1E1E1E1E1E1E1E1E1E1E1E1E1E1E1E1E1E1E1E1E1BEE1E1E1E1E1E1E1BE28E1E1E1E1E1E1E1E1E1E1E1E1E1E1E1E1E1E1E1E1E1E1E1E1E1E1E1E1E1E1E1E1E1E1E1E1E1E10F0F0F0F0F0F0F0F
310
0F0F0F0F0F0F0F0F0F0F0F0F0F0F0F0F0F0F0F0F0F0F0F0F0F0F0F0F0F0F0F0F0F0F0F0F0F0FE1BEE1E1E1E1E1E1E1E1E1E1E1E1E1E1E1E1E1E1E1E1E1E1E1E1E1E1E1E1E1E1E1E1E1E1E1E1E1E1E1E1E1E1E1E1E1E1E1E1E1E1E1E1E1E1E1E1E1E1E1E1E1E1E1E1E1E1E1E1E1E1E1E1E1E1E1E1E1E1E1E1E1E1E1E1E1E1E1
310
E1E1E1E1E1E1E1E1E1E1E1E1E1E1E1E1E1E1E1E1E1E1E1E1E1E1E1E1E1E1E1E1E1E1E1E1E1E1E1E1E1E1E1E1E1E1E1E1E1E1E1E1E1E1E1E1E1E1E1E1E1E1E1E1E1E1E1E1E1E1E1E1E1BEE1E1E1E1E1E1E1BE28E1E1E1E1E1E1E1E1E1E1E1E1E1E1E1E1E1E1E1E1E1E1E1E1E1E1E1E1E1E1E1E1E1E1E1E1E1E10FE1E1E1E1E1
310
E1E1E1E1E1E1E2E2E2E1E2E2E2E2E2E2E2E2E2E2E2E2E1E2E1E1E1E1E1E1E1E1E1E1E1E1E1E1E128E1BEE1E1E1E1E1E1E1E1E1E1E1E1E1E1E1E1E1E1E1E1E1E1E1E1E1E1E1E1E1E1E1E1E1E1E1E1E1E1E1E1E1E1E1E1E1E1E1E1E1E1E1E1E1E1E1E1E1E1E1E1E1E1E1E1E1E1E1E1E1E1E1E1E1E1E1E1E1E1E1E1E1E1E1E1E1
310
E1E1E1E1E1E1E1E1E1E1E1E1E1E1E1E1E1E1E1E1E1E1E1E1E1E1E1E1E1E1E1E1E1E1E1E1E1E1E1E1E1E1E1E1E1E1E1E1E1E1E1E1E1E1E1E1E1E1E1E1E1E1E1E1E1E1E1E1E1E1E1E1E1E1E1BEE1E1E1E1E1E1E1BE28E1E1E1E1E1E1E1E1E1E1E1E1E1E1E1E1E1E1E1E1E1E1E1E1E1E1E1E1E1E1E1E1E1E1E1E1E1E10FE1E1E1
310
E1E1E1E1E1E1E1E2E2E2E1E1E2E2E2E2E2E2E2E2E2E2E1E2E2E2E1E1E1E1E1E1E1E1E1E1E1E1E1E1E128E1BEE1E1E1E1E1E1E1E1E1E1E1E1E1E1E1E1E1E1E1E1E1E1E1E1E1E1E1E1E1E1E1E1E1E1E1E1E1E1E1E1E1E1E1E1E1E1E1E1E1E1E1E1E1E1E1E1E1E1E1E1E1E1E1E1E1E1E1E1E1E1E1E1E1E1E1E1E1E1E1E1E1E1E1
310
E1E1E1E1E1E1E1E1E1E1E1E1E1E1E1E1E1E1E1E1E1E1E1E1E1E1E1E1E1E1E1E1E1E1E1E1E1E1E1E1E1E1E1E1E1E1E1E1E1E1E1E1E1E1E1E1E1E1E1E1E1E1E1E1E1E1E1E1E1E1E1E1E1E1E1E1E1BEE1E1E1E1E1E1E1BE28E1E1E1E1E1E1E1E1E1E1E1E1E1E1E1E1E1E1E1E1E1E1E1E1E1E1E1E1E1E1E1E1E1E1E1E1E1E10FE1
310
E1E1E1E1E1E1E1E1E1E1E2E2E2E1E2E2E2E2E2E1E2E2E2E2E1E2E2E2E1E1E1E1E1E1E1E1E1E1E1E1E1E1E128E1BEE1E1E1E1E1E1E1E1E1E1E1E1E1E1E1E1E1E1E1E1E1E1E1E1E1E1E1E1E1E1E1E1E1E1E1E1E1E1E1E1E1E1E1E1E1E1E1E1E1E1E1E1E1E1E1E1E1E1E1E1E1E1E1E1E1E1E1E1E1E1E1E1E1E1E1E1E1E1E1E1E1
310
E1E1E1E1E1E1E1E1E1E1E1E1E1E1E1E1E1E1E1E1E1E1E1E1E1E1E1E1E1E1E1E1E1E1E1E1E1E1E1E1E1E1E1E1E1E1E1E1E1E1E1E1E1E1E1E1E1E1E1E1E1E1E1E1E1E1E1E1E1E1E1E1E1E1E1E1E1E1E1BEE1E1E1E1E1E1E1BE28E1E1E1E1E1E1E1E1E1E1E1E1E1E1E1E1E1E1E1E1E1E1E1E1E1E1E1E1E1E1E1E1E1E1E1E1E1E1
310
0FE1E1E1E1E1E1E1E1E10F0FE1E1E1E1E1E1E1E1E1E1E1E1E10F0FE1E1E1E1E1E1E1E1E1E1E1E1E1E1E1E1E1E128E1BEE1E1E1E1E1E1E1E1E1E1E1E1E1E1E1E1E1E1E1E1E1E1E1E1E1E1E1E1E1E1E1E1E1E1E1E1E1E1E1E1E1E1E1E1E1E1E1E1E1E1E1E1E1E1E1E1E1E1E1E1E1E1E1E1E1E1E1E1E1E1E1E1E1E1E1E1E1E1E1
310
E1E1E1E1E1E1E1E1E1E1E1E1E1E1E1E1E1E1E1E1E1E1E1E1E1E1E1E1E1E1E1E1E1E1E1E1E1E1E1E1E1E1E1E1E1E1E1E1E1E1E1E1E1E1E1E1E1E1E1E1E1E1E1E1E1E1E1E1E1E1E1E1E1E1E1E1E1E1E1E1E1BEE1E1E1E1E1E1E1BE28E1E1E1E1E1E1E1E1E1E1E1E1E1E1E1E1E1E1E1E1E1E1E1E1E1E1E1E1E1E1E1E1E1E1E1E1
310
E1E10FE10F0F0F0F0F0F0F0F0F0F0F0F0F0F0F0FE10F0F0F0F0F0F0F0F0F0F0F0F0FE1E1E1E1E1E1E1E1E1E1E1E1E128E1BEE1E1E1E1E1E1E1E1E1E1E1E1E1E1E1E1E1E1E1E1E1E1E1E1E1E1E1E1E1E1E1E1E1E1E1E1E1E1E1E1E1E1E1E1E1E1E1E1E1E1E1E1E1E1E1E1E1E1E1E1E1E1E1E1E1E1E1E1E1E1E1E1E1E1E1E1E1
310
E1E1E1E1E1E1E1E1E1E1E1E1E1E1E1E1E1E1E1E1E1E1E1E1E1E1E1E1E1E1E1E1E1E1E1E1E1E1E1E1E1E1E1E1E1E1E1E1E1E1E1E1E1E1E1E1E1E1E1E1E1E1E1E1E1E1E1E1E1E1E1E1E1E1E1E1E1E1E1E1E1E1E1BEE1E1E1E1E1E1E1BE28E1E1E1E1E1E1E1E1E1E1E1E1E1E1E1E1E1E1E1E1E1E1E1E1E1E1E1E1E1E1E1E1E1E1
310
E1E1E1E10F0F0F0F0F0F0F0F0F0F0F0F0F0F0F0F0F0F0F0F0F0F0F0F0F0F0F0F0F0F0F0F0F0F0F0F0F0F0F0F0F0F0F0F0F0FE1BEE1E1E1E1E1E1E1E1E1E1E1E1E1E1E1E1E1E1E1E1E1E1E1E1E1E1E1E1E1E1E1E1E1E1E1E1E1E1E1E1E1E1E1E1E1E1E1E1E1E1E1E1E1E1E1E1E1E1E1E1E1E1E1E1E1E1E1E1E1E1E1E1E1E1E1
310
E1E1E1E1E1E1E1E1E1E1E1E1E1E1E1E1E1E1E1E1E1E1E1E1E1E1E1E1E1E1E1E1E1E1E1E1E1E1E1E1E1E1E1E1E1E1E1E1E1E1E1E1E1E1E1E1E1E1E1E1E1E1E1E1E1E1E1E1E1E1E1E1E1E1E1E1E1E1E1E1E1E1E1E1E1BEE1E1E1E1E1E1E1BE28E1E1E1E1E1E1E1E1E1E1E1E1E1E1E1E1E1E1E1E1E1E1E1E1E1E1E1E1E1E1E1E1
310
E1E1E1E1E1E10FE1E1E1E1E1E1E1E1E1E1E1E1E1E1E1E1E1E1E1E1E1E1E1E1E1E1E1E1E1E1E1E1E1E1E1E1E1E1E10F0F0F0F0F28E1BEE1E1E1E1E1E1E1E1E1E1E1E1E1E1E1E1E1E1E1E1E1E1E1E1E1E1E1E1E1E1E1E1E1E1E1E1E1E1E1E1E1E1E1E1E1E1E1E1E1E1E1E1E1E1E1E1E1E1E1E1E1E1E1E1E1E1E1E1E1E1E1E1E1
310
E1E1E1E1E1E1E1E1E1E1E1E1E1E1E1E1E1E1E1E1E1E1E1E1E1E1E1E1E1E1E1E1E1E1E1E1E1E1E1E1E1E1E1E1E1E1E1E1E1E1E1E1E1E1E1E1E1E1E1E1E1E1E1E1E1E1E1E1E1E1E1E1E1E1E1E1E1E1E1E1E1E1E1E1E1E1E1BEE1E1E1E1E1E1E1BE28E1E1E1E1E1E1E1E1E1E1E1E1E1E1E1E1E1E1E1E1E1E1E1E1E1E1E1E1E1E1
310
E1E1E1E1E1E1E1E10FBEBEBEBEBEBEE1E1E1E1E1E1E1E1E1E1E1E1E1E1E1E1E1E1E1E1E1E1E1E1E1E1E1E1E1E10F0F0FBEBEBEBEBEBEE1BEE1E1E1E1E1E1E1E1E1E1E1E1E1E1E1E1E1E1E1E1E1E1E1E1E1E1E1E1E1E1E1E1E1E1E1E1E1E1E1E1E1E1E1E1E1E1E1E1E1E1E1E1E1E1E1E1E1E1E1E1E1E1E1E1E1E1E1E1E1E1E1
310
E1E1E1E1E1E1E1E1E1E1E1E1E1E1E1E1E1E1E1E1E1E1E1E1E1E1E1E1E1E1E1E1E1E1E1E1E1E1E1E1E1E1E1E1E1E1E1E1E1E1E1E1E1E1E1E1E1E1E1E1E1E1E1E1E1E1E1E1E1E1E1E1E1E1E1E1E1E1E1E1E1E1E1E1E1E1E1E1E1BEE1E1E1E1E1E1E1BE28E1E1E1E1E1E1E1E1E1E1E1E1E1E1E1E1E1E1E1E1E1E1E1E1E1E1E1E1
310
E1E1E1E1E1E1E1E1E1E10FBEBEBEBEBEBEBEBEE1E1E2E2E1E1E1E1E1E1E1E1E1E1E1E1E1E1E1E1E1E1E1E1E1E1E1E10F0FE1E10F0F0F0F28E1BEE1E1E1E1E1E1E1E1E1E1E1E1E1E1E1E1E1E1E1E1E1E1E1E1E1E1E1E1E1E1E1E1E1E1E1E1E1E1E1E1E1E1E1E1E1E1E1E1E1E1E1E1E1E1E1E1E1E1E1E1E1E1E1E1E1E1E1E1E1
310
E1E1E1E1E1E1E1E1E1E1E1E1E1E1E1E1E1E1E1E1E1E1E1E1E1E1E1E1E1E1E1E1E1E1E1E1E1E1E1E1E1E1E1E1E1E1E1E1E1E1E1E1E1E1E1E1E1E1E1E1E1E1E1E1E1E1E1E1E1E1E1E1E1E1E1E1E1E1E1E1E1E1E1E1E1E1E1E1E1E1E1BEE1E1E1E1E1E1E1BE28E1E1E1E1E1E1E1E1E1E1E1E1E1E1E1E1E1E1E1E1E1E1E1E1E1E1
310
E1E1E1E1E1E1E1E1E1E1E1E10FBEBEBEBEBEBEBEBEBEE1E1E1E1E1E1E1E1E1E1E1E1E1E1E1E1E1E1E1E1E1E1E1E1E1E1E1E1E10F0F0F0F0F0F28E1BEE1E1E1E1E1E1E1E1E1E1E1E1E1E1E1E1E1E1E1E1E1E1E1E1E1E1E1E1E1E1E1E1E1E1E1E1E1E1E1E1E1E1E1E1E1E1E1E1E1E1E1E1E1E1E1E1E1E1E1E1E1E1E1E1E1E1E1
310
E1E1E1E1E1E1E1E1E1E1E1E1E1E1E1E1E1E1E1E1E1E1E1E1E1E1E1E1E1E1E1E1E1E1E1E1E1E1E1E1E1E1E1E1E1E1E1E1E1E1E1E1E1E1E1E1E1E1E1E1E1E1E1E1E1E1E1E1E1E1E1E1E1E1E1E1E1E1E1E1E1E1E1E1E1E1E1E1E1E1E1E1E1BEE1E1E1E1E1E1E1BE28E1E1E1E1E1E1E1E1E1E1E1E1E1E1E1E1E1E1E1E1E1E1E1E1
310
E1E1E1E1E1E1E1E1E1E1E1E1E1E10F0F0F0F0F0F0F0F0F0F0F0F0F0F0F0F0F0F0F0F0F0F0F0F0F0F0F0F0F0F0F0F0F0F0F0F0F0F0F0F0F0F0F0F0F0FE1BEE1E1E1E1E1E1E1E1E1E1E1E1E1E1E1E1E1E1E1E1E1E1E1E1E1E1E1E1E1E1E1E1E1E1E1E1E1E1E1E1E1E1E1E1E1E1E1E1E1E1E1E1E1E1E1E1E1E1E1E1E1E1E1E1E1
310
E1E1E1E1E1E1E1E1E1E1E1E1E1E1E1E1E1E1E1E1E1E1E1E1E1E1E1E1E1E1E1E1E1E1E1E1E1E1E1E1E1E1E1E1E1E1E1E1E1E1E1E1E1E1E1E1E1E1E1E1E1E1E1E1E1E1E1E1E1E1E1E1E1E1E1E1E1E1E1E1E1E1E1E1E1E1E1E1E1E1E1E1E1E1E1BEE1E1E1E1E1E1E1BE28E1E1E1E1E1E1E1E1E1E1E1E1E1E1E1E1E1E1E1E1E1E1
310
E1E1E1E1E1E1E1E1E1E1E1E1E1E1E1E1E1E1E1E1E1E1E1E1E1E1E1E1E1E1E1E1E1E1E1E1E1E1E1E1E1E1E1E1E1E1E1E1E1E1E1E1E1E1E1E1E1E1E1E1E128E1BEE1E1E1E1E1E1E1E1E1E1E1E1E1E1E1E1E1E1E1E1E1E1E1E1E1E1E1E1E1E1E1E1E1E1E1E1E1E1E1E1E1E1E1E1E1E1E1E1E1E1E1E1E1E1E1E1E1E1E1E1E1E1E1
310
E1E1E1E1E1E1E1E1E1E1E1E1E1E1E1E1E1E1E1E1E1E1E1E1E1E1E1E1E1E1E1E1E1E1E1E1E1E1E1E1E1E1E1E1E1E1E1E1E1E1E1E1E1E1E1E1E1E1E1E1E1E1E1E1E1E1E1E1E1E1E1E1E1E1E1E1E1E1E1E1E1E1E1E1E1E1E1E1E1E1E1E1E1E1E1E1E1BEE1E1E1E1E1E1E1BE28E1E1E1E1E1E1E1E1E1E1E1E1E1E1E1E1E1E1E1E1
310
E1E1E1E1E1E1E1E1E1E1E1E1E1E1E1E1E1E1E1E1E1E1E1E1E1E1E1E1E1E1E1E1E1E1E1E1E1E1E1E1E1E1E1E1E1E1E1E1E1E1E1E1E1E1E1E1E1E1E1E1E1E1E128E1BEE1E1E1E1E1E1E1E1E1E1E1E1E1E1E1E1E1E1E1E1E1E1E1E1E1E1E1E1E1E1E1E1E1E1E1E1E1E1E1E1E1E1E1E1E1E1E1E1E1E1E1E1E1E1E1E1E1E1E1E1E1
310
E1E1E1E1E1E1E1E1E1E1E1E1E1E1E1E1E1E1E1E1E1E1E1E1E1E1E1E1E1E1E1E1E1E1E1E1E1E1E1E1E1E1E1E1E1E1E1E1E1E1E1E1E1E1E1E1E1E1E1E1E1E1E1E1E1E1E1E1E1E1E1E1E1E1E1E1E1E1E1E1E1E1E1E1E1E1E1E1E1E1E1E1E1E1E1E1E1E1E1BEE1E1E1E1E1E1E1BE28E1E1E1E1E1E1E1E1E1E1E1E1E1E1E1E1E1E1
310
E1E1E1E1E1E1E1E1E1E1E1E1E1E1E1E1E1E1E1E1E1E1E1E1E1E1E1E1E1E1E1E1E1E1E1E1E1E1E1E1E1E1E1E1E1E1E1E1E1E1E1E1E1E1E1E1E1E1E1E1E1E1E1E1E128E1BEE1E1E1E1E1E1E1E1E1E1E1E1E1E1E1E1E1E1E1E1E1E1E1E1E1E1E1E1E1E1E1E1E1E1E1E1E1E1E1E1E1E1E1E1E1E1E1E1E1E1E1E1E1E1E1E1E1E1E1
310
E1E1E1E1E1E1E1E1E1E1E1E1E1E1E1E1E1E1E1E1E1E1E1E1E1E1E1E1E1E1E1E1E1E1E1E1E1E1E1E1E1E1E1E1E1E1E1E1E1E1E1E1E1E1E1E1E1E1E1E1E1E1E1E1E1E1E1E1E1E1E1E1E1E1E1E1E1E1E1E1E1E1E1E1E1E1E1E1E1E1E1E1E1E1E1E1E1E1E1E1E1BEE1E1E1E1E1E1E1BE28E1E1E1E1E1E1E1E1E1E1E1E1E1E1E1E1
310
E1E1E1E1E1E1E1E1E1E1E1E1E1E1E1E1E1E1E1E1E1E1E1E1E1E1E1E1E1E1E1E1E1E1E1E1E1E1E1E1E1E1E1E1E1E1E1E1E1E1E1E1E1E1E1E1E1E1E1E1E1E1E1E1E1E1E128E1BEE1E1E1E1E1E1E1E1E1E1E1E1E1E1E1E1E1E1E1E1E1E1E1E1E1E1E1E1E1E1E1E1E1E1E1E1E1E1E1E1E1E1E1E1E1E1E1E1E1E1E1E1E1E1E1E1E1
310
E1E1E1E1E1E1E1E1E1E1E1E1E1E1E1E1E1E1E1E1E1E1E1E1E1E1E1E1E1E1E1E1E1E1E1E1E1E1E1E1E1E1E1E1E1E1E1E1E1E1E1E1E1E1E1E1E1E1E1E1E1E1E1E1E1E1E1E1E1E1E1E1E1E1E1E1E1E1E1E1E1E1E1E1E1E1E1E1E1E1E1E1E1E1E1E1E1E1E1E1E1E1E1BEE1E1E1E1E1E1E1BE28E1E1E1E1E1E1E1E1E1E1E1E1E1E1
310
E1E1E1E1E1E1E1E1E1E1E1E1E1E1E1E1E1E1E1E1E1E1E1E1E1E1E1E1E1E1E1E1E1E1E1E1E1E1E1E1E1E1E1E1E1E1E1E1E1E1E1E1E1E1E1E1E1E1E1E1E1E1E1E1E1E1E1E1E128E1BEE1E1E1E1E1E1E1E1E1E1E1E1E1E1E1E1E1E1E1E1E1E1E1E1E1E1E1E1E1E1E1E1E1E1E1E1E1E1E1E1E1E1E1E1E1E1E1E1E1E1E1E1E1E1E1
310
E1E1E1E1E1E1E1E1E1E1E1E1E1E1E1E1E1E1E1E1E1E1E1E1E1E1E1E1E1E1E1E1E1E1E1E1E1E1E1E1E1E1E1E1E1E1E1E1E1E1E1E1E1E1E1E1E1E1E1E1E1E1E1E1E1E1E1E1E1E1E1E1E1E1E1E1E1E1E1E1E1E1E1E1E1E1E1E1E1E1E1E1E1E1E1E1E1E1E1E1E1E1E1E1E1BEE1E1E1E1E1E1E1BE28E1E1E1E1E1E1E1E1E1E1E1E1
310
E1E1E1E1E1E1E1E1E1E1E1E1E1E1E1E1E1E1E1E1E1E1E1E1E1E1E1E1E1E1E1E1E1E1E1E1E1E1E1E1E1E1E1E1E1E1E1E1E1E1E1E1E1E1E1E1E1E1E1E1E1E1E1E1E1E1E1E1E1E1E128E1BEE1E1E1E1E1E1E1E1E1E1E1E1E1E1E1E1E1E1E1E1E1E1E1E1E1E1E1E1E1E1E1E1E1E1E1E1E1E1E1E1E1E1E1E1E1E1E1E1E1E1E1E1E1
310
E1E1E1E1E1E1E1E1E1E1E1E1E1E1E1E1E1E1E1E1E1E1E1E1E1E1E1E1E1E1E1E1E1E1E1E1E1E1E1E1E1E1E1E1E1E1E1E1E1E1E1E1E1E1E1E1E1E1E1E1E1E1E1E1E1E1E1E1E1E1E1E1E1E1E1E1E1E1E1E1E1E1E1E1E1E1E1E1E1E1E1E1E1E1E1E1E1E1E1E1E1E1E1E1E1E1E1BEE1E1E1E1E1E1E1BE28E1E1E1E1E1E1E1E1E1E1
310
E1E1E1E1E1E1E1E1E1E1E1E1E1E1E1E1E1E1E1E1E1E1E1E1E1E1E1E1E1E1E1E1E1E1E1E1E1E1E1E1E1E1E1E1E1E1E1E1E1E1E1E1E1E1E1E1E1E1E1E1E1E1E1E1E1E1E1E1E1E1E1E1E128E1BEE1E1E1E1E1E1E1E1E1E1E1E1E1E1E1E1E1E1E1E1E1E1E1E1E1E1E1E1E1E1E1E1E1E1E1E1E1E1E1E1E1E1E1E1E1E1E1E1E1E1E1
310
E1E1E1E1E1E1E1E1E1E1E1E1E1E1E1E1E1E1E1E1E1E1E1E1E1E1E1E1E1E1E1E1E1E1E1E1E1E1E1E1E1E1E1E1E1E1E1E1E1E1E1E1E1E1E1E1E1E1E1E1E1E1E1E1E1E1E1E1E1E1E1E1E1E1E1E1E1E1E1E1E1E1E1E1E1E1E1E1E1E1E1E1E1E1E1E1E1E1E1E1E1E1E1E1E1E1E1E1E1BEE1E1E1E1E1E1E1BE28E1E1E1E1E1E1E1E1
310
E1E1E1E1E1E1E1E1E1E1E1E1E1E1E1E1E1E1E1E1E1E1E1E1E1E1E1E1E1E1E1E1E1E1E1E1E1E1E1E1E1E1E1E1E1E1E1E1E1E1E1E1E1E1E1E1E1E1E1E1E1E1E1E1E1E1E1E1E1E1E1E1E1E1E128E1BEE1E1E1E1E1E1E1E1E1E1E1E1E1E1E1E1E1E1E1E1E1E1E1E1E1E1E1E1E1E1E1E1E1E1E1E1E1E1E1E1E1E1E1E1E1E1E1E1E1
310
E1E1E1E1E1E1E1E1E1E1E1E1E1E1E1E1E1E1E1E1E1E1E1E1E1E1E1E1E1E1E1E1E1E1E1E1E1E1E1E1E1E1E1E1E1E1E1E1E1E1E1E1E1E1E1E1E1E1E1E1E1E1E1E1E1E1E1E1E1E1E1E1E1E1E1E1E1E1E1E1E1E1E1E1E1E1E1E1E1E1E1E1E1E1E1E1E1E1E1E1E1E1E1E1E1E1E1E1E1E1E1BEE1E1E1E1E1E1E1BE28E1E1E1E1E1E1
310
E1E1E1E1E1E1E1E1E1E1E1E1E1E1E1E1E1E1E1E1E1E1E1E1E1E1E1E1E1E1E1E1E1E1E1E1E1E1E1E1E1E1E1E1E1E1E1E1E1E1E1E1E1E1E1E1E1E1E1E1E1E1E1E1E1E1E1E1E1E1E1E1E1E1E1E1E128E1BEE1E1E1E1E1E1E1E1E1E1E1E1E1E1E1E1E1E1E1E1E1E1E1E1E1E1E1E1E1E1E1E1E1E1E1E1E1E1E1E1E1E1E1E1E1E1E1
310
E1E1E1E1E1E1E1E1E1E1E1E1E1E1E1E1E1E1E1E1E1E1E1E1E1E1E1E1E1E1E1E1E1E1E1E1E1E1E1E1E1E1E1E1E1E1E1E1E1E1E1E1E1E1E1E1E1E1E1E1E1E1E1E1E1E1E1E1E1E1E1E1E1E1E1E1E1E1E1E1E1E1E1E1E1E1E1E1E1E1E1E1E1E1E1E1E1E1E1E1E1E1E1E1E1E1E1E1E1E1E1E1E1BEE1E1E1E1E1E1E1BE28E1E1E1E1
310
E1E1E1E1E1E1E1E1E1E1E1E1E1E1E1E1E1E1E1E1E1E1E1E1E1E1E1E1E1E1E1E2E1E1E1E1E1E1E1E1E1E1E1E1E1E1E1E1E1E1E1E1E1E1E1E1E1E1E1E1E1E1E1E1E1E1E1E1E1E1E1E1E1E1E1E1E1E1E128E1BEE1E1E1E1E1E1E1E1E1E1E1E1E1E1E1E1E1E1E1E1E1E1E1E1E1E1E1E1E1E1E1E1E1E1E1E1E1E1E1E1E1E1E1E1E1
310
E1E1E1E1E1E1E1E1E1E1E1E1E1E1E1E1E1E1E1E1E1E1E1E1E1E1E1E1E1E1E1E1E1E1E1E1E1E1E1E1E1E1E1E1E1E1E1E1E1E1E1E1E1E1E1E1E1E1E1E1E1E1E1E1E1E1E1E1E1E1E1E1E1E1E1E1E1E1E1E1E1E1E1E1E1E1E1E1E1E1E1E1E1E1E1E1E1E1E1E1E1E1E1E1E1E1E1E1E1E1E1E1E1E1E1BEE1E1E1E1E1E1E1BE28E1E1
310
E1E1E1E1E1E1E1E1E1E1E1E1E1E1E1E1E1E1E1E1E1E1E1E1E1E1E1E1E1E1E1E1E1BEE2E2E1E1E1E1E2E1E1E1E1E1E1E1E1E1E1E1E1E1E1E1E1E1E1E1E1E1E1E1E1E1E1E1E1E1E1E1E1E1E1E1E1E1E1E1E128E1BEE1E1E1E1E1E1E1E1E1E1E1E1E1E1E1E1E1E1E1E1E1E1E1E1E1E1E1E1E1E1E1E1E1E1E1E1E1E1E1E1E1E1E1
310
E1E1E1E1E1E1E1E1E1E1E1E1E1E1E1E1E1E1E1E1E1E1E1E1E1E1E1E1E1E1E1E1E1E1E1E1E1E1E1E1E1E1E1E1E1E1E1E1E1E1E1E1E1E1E1E1E1E1E1E1E1E1E1E1E1E1E1E1E1E1E1E1E1E1E1E1E1E1E1E1E1E1E1E1E1E1E1E1E1E1E1E1E1E1E1E1E1E1E1E1E1E1E1E1E1E1E1E1E1E1E1E1E1E1E1E1E1BEE1E1E1E1E1E1E1BE28
310
E1E1E1E1E1E1E1E1E1E1E1E1E1E1E1E1E1E1E1E1E1E1E1E1E1E1E1E1E1E1E1E1E1E1E1BEBEBEE2E2E1E1E2E2E2E1E1E1E1E1E1E1E1E1E1E1E1E1E1E1E1E1E1E1E1E1E1E1E1E1E1E1E1E1E1E1E1E1E1E1E1E1E128E1BEE1E1E1E1E1E1E1E1E1E1E1E1E1E1E1E1E1E1E1E1E1E1E1E1E1E1E1E1E1E1E1E1E1E1E1E1E1E1E1E1E1
310
E1E1E1E1E1E1E1E1E1E1E1E1E1E1E1E1E1E1E1E1E1E1E1E1E1E1E1E1E1E1E1E1E1E1E1E1E1E1E1E1E1E1E1E1E1E1E1E1E1E1E1E1E1E1E1E1E1E1E1E1E1E1E1E1E1E1E1E1E1E1E1E1E1E1E1E1E1E1E1E1E1E1E1E1E1E1E1E1E1E1E1E1E1E1E1E1E1E1E1E1E1E1E1E1E1E1E1E1E1E1E1E1E1E1E1E1E1E1E1BEE1E1E1E1E1E1E1
310
BE28E1E1E1E1E1E1E1E1E1E1E1E1E1E1E1E1E1E1E1E1E1E1E1E1E1E1E1E1E1E1E1E1E1E1E1BEBEBEBEBEBEE2E2BEE1E2E2E1E1E1E1E1E1E1E1E1E1E1BEE1E1E1E1E1E1E1E1E1E1E1E1E1E1E1E1E1E1E1E1E1E1E1E128E1BEE1E1E1E1E1E1E1E1E1E1E1E1E1E1E1E1E1E1E1E1E1E1E1E1E1E1E1E1E1E1E1E1E1E1E1E1E1E1E1
310
E1E1E1E1E1E1E1E1E1E1E1E1E1E1E1E1E1E1E1E1E1E1E1E1E1E1E1E1E1E1E1E1E1E1E1E1E1E1E1E1E1E1E1E1E1E1E1E1E1E1E1E1E1E1E1E1E1E1E1E1E1E1E1E1E1E1E1E1E1E1E1E1E1E1E1E1E1E1E1E1E1E1E1E1E1E1E1E1E1E1E1E1E1E1E1E1E1E1E1E1E1E1E1E1E1E1E1E1E1E1E1E1E1E1E1E1E1E1E1E1E1BEE1E1E1E1E1
310
E1E1BE28E1E1E1E1E1E1E1E1E1E1E1E1E1E1E1E1E1E1E1E1E1E1E1E1E1E1E1E1E1E1E1E1E1E1E1E2BEBEE1BEBEBEE2BEE1BEBEE2E2E1E1E1E1E1E1E1E1E2BEE2E1E1E2E2BEE1E1E1E1E1E1E1E1E1E1E1E1E1E1E1E1E1E128E1BEE1E1E1E1E1E1E1E1E1E1E1E1E1E1E1E1E1E1E1E1E1E1E1E1E1E1E1E1E1E1E1E1E1E1E1E1E1
310
E1E1E1E1E1E1E1E1E1E1E1E1E1E1E1E1E1E1E1E1E1E1E1E1E1E1E1E1E1E1E1E1E1E1E1E1E1E1E1E1E1E1E1E1E1E1E1E1E1E1E1E1E1E1E1E1E1E1E1E1E1E1E1E1E1E1E1E1E1E1E1E1E1E1E1E1E1E1E1E1E1E1E1E1E1E1E1E1E1E1E1E1E1E1E1E1E1E1E1E1E1E1E1E1E1E1E1E1E1E1E1E1E1E1E1E1E1E1E1E1E1E1E1BEE1E1E1
310
E1E1E1E1BE28E1E1E1E1E1E1E1E1E1E1E1E1E1E1E1E1E1E1E1E1E1E1E1E1E1E1E1E1E1E1E1E1E1E1E1E1E2E2BEBEBEBEE2E1E1BEBEE1BEE2E1E1E1E2E2BEE1E2BEE1E2E2E2BEBEBEBEE1E1E1E1E1E1E1E1E1E1E1E1E1E1E1E128E1BEE1E1E1E1E1E1E1E1E1E1E1E1E1E1E1E1E1E1E1E1E1E1E1E1E1E1E1E1E1E1E1E1E1E1E1
310
E1E1E1E1E1E1E1E1E1E1E1E1E1E1E1E1E1E1E1E1E1E1E1E1E1E1E1E1E1E1E1E1E1E1E1E1E1E1E1E1E1E1E1E1E1E1E1E1E1E1E1E1E1E1E1E1E1E1E1E1E1E1E1E1E1E1E1E1E1E1E1E1E1E1E1E1E1E1E1E1E1E1E1E1E1E1E1E1E1E1E1E1E1E1E1E1E1E1E1E1E1E1E1E1E1E1E1E1E1E1E1E1E1E1E1E1E1E1E1E1E1E1E1E1E1BEE1
310
E1E1E1E1E1E1BE28E1E1E1E1E1E1E1E1E1E1E1E1E1E1E1E1E1E1E1E1E1E1E1E1E1E1E1E1E1E1E1E1E1E1E1E1E1E1E2E2BEE1BEE2E2BEBEE1BEBEE2E2E2E1BEE1BEBEBEE1E1E1E2BEBEBEBEBEBEE1E1E1E1E1E1E1E1E1E1E1E1E1E128E1BEE1E1E1E1E1E1E1E1E1E1E1E1E1E1E1E1E1E1E1E1E1E1E1E1E1E1E1E1E1E1E1E1E1
310
E1E1E1E1E1E1E1E1E1E1E1E1E1E1E1E1E1E1E1E1E1E1E1E1E1E1E1E1E1E1E1E1E1E1E1E1E1E1E1E1E1E1E1E1E1E1E1E1E1E1E1E1E1E1E1E1E1E1E1E1E1E1E1E1E1E1E1E1E1E1E1E1E1E1E1E1E1E1E1E1E1E1E1E1E1E1E1E1E1E1E1E1E1E1E1E1E1E1E1E1E1E1E1E1E1E1E1E1E1E1E1E1E1E1E1E1E1E1E1E1E1E1E1E1E1E1E1
310
BEE1E1E1E1E1E1E1BE28E1E1E1E1E1E1E1E1E1E1E1E1E1E1E1E1E1E1E1E1E1E1E1E1E1E1E1E1E1E1E1E1E1E1E1E1E1E1E1E1E2E2BEBEBEE2E2E1BEBEE1BEE2BEBEE1BEBEBEE1E2BEBEE1E1BEBEBEBEBEBEE1E1E1E1E1E1E1E1E1E1E1E128E1BEE1E1E1E1E1E1E1E1E1E1E1E1E1E1E1E1E1E1E1E1E1E1E1E1E1E1E1E1E1E1E1
310
E1E1E1E1E1E1E1E1E1E1E1E1E1E1E1E1E1E1E1E1E1E1E1E1E1E1E1E1E1E1E1E1E1E1E1E1E1E1E1E1E1E1E1E1E1E1E1E1E1E1E1E1E1E1E1E1E1E1E1E1E1E1E1E1E1E1E1E1E1E1E1E1E1E1E1E1E1E1E1E1E1E1E1E1E1E1E1E1E1E1E1E1E1E1E1E1E1E1E1E1E1E1E1E1E1E1E1E1E1E1E1E1E1E1E1E1E1E1E1E1E1E1E1E1E1E1E1
310
E1E1BEE1E1E1E1E1E1E1BEBEE1E1E1E1E1E1E1E1E1E1E1E1E1E1E1E1E1E1E1E1E1E1E1E1E1E1E1E1E1E1E1E1E1E1E1E1E1E1E1BEBEE1E2E2BEBEBEE2BEE1E1BEBEE1BEE1BEBEE2BEBEE1BEBEBEE1E1BEBEBEE1BEBEE1E1E1E1E1E1E1E1E1E128E1BEE1E1E1E1E1E1E1E1E1E1E1E1E1E1E1E1E1E1E1E1E1E1E1E1E1E1E1E1E1
310
E1E1E1E1E1E1E1E1E1E1E1E1E1E1E1E1E1E1E1E1E1E1E1E1E1E1E1E1E1E1E1E1E1E1E1E1E1E1E1E1E1E1E1E1E1E1E1E1E1E1E1E1E1E1E1E1E1E1E1E1E1E1E1E1E1E1E1E1E1E1E1E1E1E1E1E1E1E1E1E1E1E1E1E1E1E1E1E1E1E1E1E1E1E1E1E1E1E1E1E1E1E1E1E1E1E1E1E1E1E1E1E1E1E1E1E1E1E1E1E1E1E1E1E1E1E1E1
310
E1E1E1E1BEE1E1E1E1E1E1E1BEBEE1E1E1E1E1E1E1E1E1E1E1E1E1E1E1E1E1E1E1E1E1E1E1E1E1E1E1E1E1E1E1E1E1E1E1E1E1BEBEE1E1E1E1E1E2E2BEBEE2E2BEBEBEE1BEE1BEBEBEE1E1BEBEBEBEBEBEE1E1BEBEBEE1BEBEE1E1E1E1E1E1E1E128E1BEE1E1E1E1E1E1E1E1E1E1E1E1E1E1E1E1E1E1E1E1E1E1E1E1E1E1E1
310
E1E1E1E1E1E1E1E1E1E1E1E1E1E1E1E1E1E1E1E1E1E1E1E1E1E1E1E1E1E1E1E1E1E1E1E1E1E1E1E1E1E1E1E1E1E1E1E1E1E1E1E1E1E1E1E1E1E1E1E1E1E1E1E1E1E1E1E1E1E1E1E1E1E1E1E1E1E1E1E1E1E1E1E1E1E1E1E1E1E1E1E1E1E1E1E1E1E1E1E1E1E1E1E1E1E1E1E1E1E1E1E1E1E1E1E1E1E1E1E1E1E1E1E1E1E1E1
310
E1E1E1E1E1E1BEE1E1E1E1E1E1E1BEBEE1E1E1E1E1E1E1E1E1E1E1E1E1E1E1E1E1E1E1E1E1E1E1E1E1E1E1E1E1E1E1E1E1E1E1E1BEE1E1E1E1E1BEBEE1E1E2E2BEBEE2E2BEBEBEBEE1BEE1E1E1E1BEBEBEBEE1BEBEE1E1BEBEBEE1BEBEE1E1E1E1E1E128E1BEE1E1E1E1E1E1E1E1E1E1E1E1E1E1E1E1E1E1E1E1E1E1E1E1E1
310
E1E1E1E1E1E1E1E1E1E1E1E1E1E1E1E1E1E1E1E1E1E1E1E1E1E1E1E1E1E1E1E1E1E1E1E1E1E1E1E1E1E1E1E1E1E1E1E1E1E1E1E1E1E1E1E1E1E1E1E1E1E1E1E1E1E1E1E1E1E1E1E1E1E1E1E1E1E1E1E1E1E1E1E1E1E1E1E1E1E1E1E1E1E1E1E1E1E1E1E1E1E1E1E1E1E1E1E1E1E1E1E1E1E1E1E1E1E1E1E1E1E1E1E1E1E1E1
310
E1E1E1E1E1E1E1E1BEE1E1E1E1E1E1E1BE28E1E1E1E1E1E1E1E1E1E1E1E1E1E1E1E1E1E1E1E1E1E2E1E1E1E1E1E1E1E1E1E1E1E1BEBEE1E1E1E1BEBEE1E1E1E1E1E1E2E2E1BEBEBEBEBEBEE1BEBEE1E1E1E1BEE1BEBEE1BEBEE1E1BEBEE1E1BEBEE1E1E1E128E1BEE1E1E1E1E1E1E1E1E1E1E1E1E1E1E1E1E1E1E1E1E1E1E1
310
E1E1E1E1E1E1E1E1E1E1E1E1E1E1E1E1E1E1E1E1E1E1E1E1E1E1E1E1E1E1E1E1E1E1E1E1E1E1E1E1E1E1E1E1E1E1E1E1E1E1E1E1E1E1E1E1E1E1E1E1E1E1E1E1E1E1E1E1E1E1E1E1E1E1E1E1E1E1E1E1E1E1E1E1E1E1E1E1E1E1E1E1E1E1E1E1E1E1E1E1E1E1E1E1E1E1E1E1E1E1E1E1E1E1E1E1E1E1E1E1E1E1E1E1E1E1E1
310
E1E1E1E1E1E1E1E1E1E1BEE1E1E1E1E1E1E1BE28E1E1E1E1E1E1E1E1E1E1E1E1E1E1E1E1E1E1E1E1E2BEE2E2E1E1E1E1E1E1E1E1BEBEE1E1E1E1BEBEE1E1E1E1E1E1E1E1E1E2BEBEE1BEBEE1E2E2E1E1BEBEE1E1E1BEBEBEBEBEBEBEE1E1E1BEBEE1E1BEE1E1E128E1BEE1E1E1E1E1E1E1E1E1E1E1E1E1E1E1E1E1E1E1E1E1
310
E1E1E1E1E1E1E1E1E1E1E1E1E1E1E1E1E1E1E1E1E1E1E1E1E1E1E1E1E1E1E1E1E1E1E1E1E1E1E1E1E1E1E1E1E1E1E1E1E1E1E1E1E1E1E1E1E1E1E1E1E1E1E1E1E1E1E1E1E1E1E1E1E1E1E1E1E1E1E1E1E1E1E1E1E1E1E1E1E1E1E1E1E1E1E1E1E1E1E1E1E1E1E1E1E1E1E1E1E1E1E1E1E1E1E1E1E1E1E1E1E1E1E1E1E1E1E1
310
E1E1E1E1E1E1E1E1E1E1E1E1BEE1E1E1E1E1E1E1BE28E1E1E1E1E1E1E1E1E1E1E1E1E1E1E1E1E1E1E1E1E2BEE1E1E2E2E1E1E1E1BEBEE1E1E1E1BEBEE1E1E1E1E1E1E1E1E1E1E1E2BEBEBEE1E2E2BEE1E2E2E1E1BEBEE1E1E1E1BEBEBEE1BEBEE1E1E1BEBEE1E1E1E128E1BEE1E1E1E1E1E1E1E1E1E1E1E1E1E1E1E1E1E1E1
310
E1E1E1E1E1E1E1E1E1E1E1E1E1E1E1E1E1E1E1E1E1E1E1E1E1E1E1E1E1E1E1E1E1E1E1E1E1E1E1E1E1E1E1E1E1E1E1E1E1E1E1E1E1E1E1E1E1E1E1E1E1E1E1E1E1E1E1E1E1E1E1E1E1E1E1E1E1E1E1E1E1E1E1E1E1E1E1E1E1E1E1E1E1E1E1E1E1E1E1E1E1E1E1E1E1E1E1E1E1E1E1E1E1E1E1E1E1E1E1E1E1E1E1E1E1E1E1
310
E1E1E1E1E1E1E1E1E1E1E1E1E1E1BEE1E1E1E1E1E1E1BE28E1E1E1E1E1E1E1E1E1E1E1E1E1E1E1E1E1E1E1E1E2BEE1E1E1E1E2BEBEBEE1E1BEBEBEBEE1E1E1E1E1E1E1E1E1E1E1E1E1E2BEE1BEBEE1E1E2E2BEE1E2E1E1E1BEBEE1E1E1E1BEBEBEBEBEBEE1E1E1BEE1E1E128E1BEE1E1E1E1E1E1E1E1E1E1E1E1E1E1E1E1E1
310
E1E1E1E1E1E1E1E1E1E1E1E1E1E1E1E1E1E1E1E1E1E1E1E1E1E1E1E1E1E1E1E1E1E1E1E1E1E1E1E1E1E1E1E1E1E1E1E1E1E1E1E1E1E1E1E1E1E1E1E1E1E1E1E1E1E1E1E1E1E1E1E1E1E1E1E1E1E1E1E1E1E1E1E1E1E1E1E1E1E1E1E1E1E1E1E1E1E1E1E1E1E1E1E1E1E1E1E1E1E1E1E1E1E1E1E1E1E1E1E1E1E1E1E1E1E1E1
310
E1E1E1E1E1E1E1E1E1E1E1E1E1E1E1E1BEE1E1E1E1E1E1E1BE28E1E1E1E1E1E1E1E1E1E1E1E1E1E1E1E1E1E1E1E1E2BEE1E1E1BEBEBEBEBEE1BEBEBEBEBEE1E1E1E1E1E1E1E1E1E1E1E1E1E1E2E2BEE1BEBEE1E1E2E2BEE2E2E1E1E1BEBEE1E1E1BEBEBEBEE1BEBEE1E1E1E1E128E1BEE1E1E1E1E1E1E1E1E1E1E1E1E1E1E1
310
E1E1E1E1E1E1E1E1E1E1E1E1E1E1E1E1E1E1E1E1E1E1E1E1E1E1E1E1E1E1E1E1E1E1E1E1E1E1E1E1E1E1E1E1E1E1E1E1E1E1E1E1E1E1E1E1E1E1E1E1E1E1E1E1E1E1E1E1E1E1E1E1E1E1E1E1E1E1E1E1E1E1E1E1E1E1E1E1E1E1E1E1E1E1E1E1E1E1E1E1E1E1E1E1E1E1E1E1E1E1E1E1E1E1E1E1E1E1E1E1E1E1E1E1E1E1E1
310
E1E1E1E1E1E1E1E1E1E1E1E1E1E1E1E1E1E1BEE1E1E1E1E1E1E1BE28E1E1E1E1E1E1E1E1E1E1E1E1E1E1E1E1E1E1E1E1E2BEE1E1E1BEBEE2E2E2BEBEBEBEBEE1E1E1E1E1E1E1E1E1E1E1E1E1E1E1E1E1E2E2BEE1BEBEE1E1E2E2BEE2E2E1E1E1BEBEE1E1E1BEE1BEBEE1E1E1E1E1E128E1BEE1E1E1E1E1E1E1E1E1E1E1E1E1
310
E1E1E1E1E1E1E1E1E1E1E1E1E1E1E1E1E1E1E1E1E1E1E1E1E1E1E1E1E1E1E1E1E1E1E1E1E1E1E1E1E1E1E1E1E1E1E1E1E1E1E1E1E1E1E1E1E1E1E1E1E1E1E1E1E1E1E1E1E1E1E1E1E1E1E1E1E1E1E1E1E1E1E1E1E1E1E1E1E1E1E1E1E1E1E1E1E1E1E1E1E1E1E1E1E1E1E1E1E1E1E1E1E1E1E1E1E1E1E1E1E1E1E1E1E1E1E1
310
E1E1E1E1E1E1E1E1E1E1E1E1E1E1E1E1E1E1E1E1BEE1E1E1E1E1E1E1BE28E1E1E1E1E1E1E1E1E1E1E1E1E1E1E1E1E1E1E1E1BEBEE2E2E1E1BEE2BEBEBEE2BEBEE1E1E1E1E1E1E1E1E1E1E1E1E1E1E1E1E1E1E1E1E2BEBEE1BEBEE1E1E2E2BEE2E1E1E1E1BEBEE1E1BEBEE1E1E1E1E1E1E128E1BEE1E1E1E1E1E1E1E1E1E1E1
310
E1E1E1E1E1E1E1E1E1E1E1E1E1E1E1E1E1E1E1E1E1E1E1E1E1E1E1E1E1E1E1E1E1E1E1E1E1E1E1E1E1E1E1E1E1E1E1E1E1E1E1E1E1E1E1E1E1E1E1E1E1E1E1E1E1E1E1E1E1E1E1E1E1E1E1E1E1E1E1E1E1E1E1E1E1E1E1E1E1E1E1E1E1E1E1E1E1E1E1E1E1E1E1E1E1E1E1E1E1E1E1E1E1E1E1E1E1E1E1E1E1E1E1E1E1E1E1
310
E1E1E1E1E1E1E1E1E1E1E1E1E1E1E1E1E1E1E1E1E1E1BEE1E1E1E1E1E1E1BE28E1E1E1E1E1E1E1E1E1E1E1E1E1BEE1E1E1E1E2E2BEE2E2E2E1E1E1E1E2E2BEE2E1E2E1E1E1E1E1E1E1E1E1E1E1E1E1E1E1E1E1E1E1E1E1E2E2BEBEE1BEBEE1E1E2E2BEE2E1E1E1E1BEE1E1E1E1E1E1E1E1E1E128E1BEE1E1E1E1E1E1E1E1E1
310
E1E1E1E1E1E1E1E1E1E1E1E1E1E1E1E1E1E1E1E1E1E1E1E1E1E1E1E1E1E1E1E1E1E1E1E1E1E1E1E1E1E1E1E1E1E1E1E1E1E1E1E1E1E1E1E1E1E1E1E1E1E1E1E1E1E1E1E1E1E1E1E1E1E1E1E1E1E1E1E1E1E1E1E1E1E1E1E1E1E1E1E1E1E1E1E1E1E1E1E1E1E1E1E1E1E1E1E1E1E1E1E1E1E1E1E1E1E1E1E1E1E1E1E1E1E1E1
310
E1E1E1E1E1E1E1E1E1E1E1E1E1E1E1E1E1E1E1E1E1E1E1E1BEE1E1E1E1E1E1E1BE28E1E1E1E1E1E1E1E1E1E1E1E1E2E1BEE2E2E2E1E1BEE2BEE2E1E1E1E1E1E1E2E2E1E2E1E1E1E1E1E1E1E1E1E1E1E1E1E1E1E1E1E1E1E1E1E1E1E2E2BEBEE1BEBEE1E1E2E2BEE2E1E1E1E1E1E1E1E1E1E1E1E1E128E1BEE1E1E1E1E1E1E1
310
E1E1E1E1E1E1E1E1E1E1E1E1E1E1E1E1E1E1E1E1E1E1E1E1E1E1E1E1E1E1E1E1E1E1E1E1E1E1E1E1E1E1E1E1E1E1E1E1E1E1E1E1E1E1E1E1E1E1E1E1E1E1E1E1E1E1E1E1E1E1E1E1E1E1E1E1E1E1E1E1E1E1E1E1E1E1E1E1E1E1E1E1E1E1E1E1E1E1E1E1E1E1E1E1E1E1E1E1E1E1E1E1E1E1E1E1E1E1E1E1E1E1E1E1E1E1E1
310
E1E1E1E1E1E1E1E1E1E1E1E1E1E1E1E1E1E1E1E1E1E1E1E1E1E1BEE1E1E1E1E1E1E1BE28E1E1E1E1E1E1E1E1E1E1E1E1BEE1E1E2E2E1E1E1BEE2BEBEE1E1E1E1E1E1E1E1E1E2E1E1E1E1E1E1E1E1E1E1E1E1E1E1E1E1E1E1E1E1E1E1E1E1E1E2E1BEBEE1BEBEE1E1E2BEE2E1E1E1E1E1E1E1E1E1E1E1E128E1BEE1E1E1E1E1
310
E1E1E1E1E1E1E1E1E1E1E1E1E1E1E1E1E1E1E1E1E1E1E1E1E1E1E1E1E1E1E1E1E1E1E1E1E1E1E1E1E1E1E1E1E1E1E1E1E1E1E1E1E1E1E1E1E1E1E1E1E1E1E1E1E1E1E1E1E1E1E1E1E1E1E1E1E1E1E1E1E1E1E1E1E1E1E1E1E1E1E1E1E1E1E1E1E1E1E1E1E1E1E1E1E1E1E1E1E1E1E1E1E1E1E1E1E1E1E1E1E1E1E1E1E1E1E1
310
E1E1E1E1E1E1E1E1E1E1E1E1E1E1E1E1E1E1E1E1E1E1E1E1E1E1E1E1BEE1E1E1E1E1E1E1BEBEE1E1E1E1E1E1E1E1E1E1E1E1BEE1E1E1E1E1E1E1BEE2BEE2E1E1E1E1E1E1E1E1E1E2E1E1E1E1E1E1E1E1E1E1E1E1E1E1E1E1E1E1E1E1E1E1E1E1E1E1E2E2E1BEBEE1BEE1E1E1E1E1E1E1E1E1E1E1E1E1E1E1E128E1BEE1E1E1
310
E1E1E1E1E1E1E1E1E1E1E1E1E1E1E1E1E1E1E1E1E1E1E1E1E1E1E1E1E1E1E1E1E1E1E1E1E1E1E1E1E1E1E1E1E1E1E1E1E1E1E1E1E1E1E1E1E1E1E1E1E1E1E1E1E1E1E1E1E1E1E1E1E1E1E1E1E1E1E1E1E1E1E1E1E1E1E1E1E1E1E1E1E1E1E1E1E1E1E1E1E1E1E1E1E1E1E1E1E1E1E1E1E1E1E1E1E1E1E1E1E1E1E1E1E1E1E1
310
E1E1E1E1E1E1E1E1E1E1E1E1E1E1E1E1E1E1E1E1E1E1E1E1E1E1E1E1E1E1BEE1E1E1E1E1E1E1BEBEE1E1E1E1E1E1E1E1E1E1E1E1BEE1E1E1E1E1E1E1BEBEBEE2E1E1E1E1E1E1E1E1E1E2E1E1E1E1E1E1E1E1E1E1E1E1E1E1E1E1E1E1E1E1E1E1E1E1E1E1E1E1E2E2E1BEE1E1E1E1E1E1E1E1E1E1E1E1E1E1E1E1E128E1BEE1
310
E1E1E1E1E1E1E1E1E1E1E1E1E1E1E1E1E1E1E1E1E1E1E1E1E1E1E1E1E1E1E1E1E1E1E1E1E1E1E1E1E1E1E1E1E1E1E1E1E1E1E1E1E1E1E1E1E1E1E1E1E1E1E1E1E1E1E1E1E1E1E1E1E1E1E1E1E1E1E1E1E1E1E1E1E1E1E1E1E1E1E1E1E1E1E1E1E1E1E1E1E1E1E1E1E1E1E1E1E1E1E1E1E1E1E1E1E1E1E1E1E1E1E1E1E1E1E1
310
E1E1E1E1E1E1E1E1E1E1E1E1E1E1E1E1E1E1E1E1E1E1E1E1E1E1E1E1E1E1E1E1BEE1E1E1E1E1E1E1BE28E1E1E1E1E1E1E1E1E1E1E1E1BEE1E1E1E1E1E1E1BEE2BEE2E1E1E1E1E1E1E1E1E1E2E1E2E1E1E1E1E1E1E1E1E1E1E1E1E1E1E1E1E1E1E1E1E1E1E1E1E1E1E1E1E2E1E1E1E1E1E1E1E1E1E1E1E1E1E1E1E1E1E128E1
310
BEE1E1E1E1E1E1E1E1E1E1E1E1E1E1E1E1E1E1E1E1E1E1E1E1E1E1E1E1E1E1E1E1E1E1E1E1E1E1E1E1E1E1E1E1E1E1E1E1E1E1E1E1E1E1E1E1E1E1E1E1E1E1E1E1E1E1E1E1E1E1E1E1E1E1E1E1E1E1E1E1E1E1E1E1E1E1E1E1E1E1E1E1E1E1E1E1E1E1E1E1E1E1E1E1E1E1E1E1E1E1E1E1E1E1E1E1E1E1E1E1E1E1E1E1E1E1
310
E1E1E1E1E1E1E1E1E1E1E1E1E1E1E1E1E1E1E1E1E1E1E1E1E1E1E1E1E1E1E1E1E1E1BEE1E1E1E1E1E1E1BEBEE1E1E1E1E1E1E1E1E1E1E1E1BEE1E1E1E1E1BEBEE2E2BEBEE1E1E1E1E1E1E1E1E1E2E2E2E1E1E1E1E1E1E1E1E1E1E1E1E1E1E1E1E1E1E1E1E1E1E1E1E1E1E1E1E1E1E1E1E1E1E1E1E1E1E1E1E1E1E1E1E1E1E1
310
28E1BEE1E1E1E1E1E1E1E1E1E1E1E1E1E1E1E1E1E1E1E1E1E1E1E1E1E1E1E1E1E1E1E1E1E1E1E1E1E1E1E1E1E1E1E1E1E1E1E1E1E1E1E1E1E1E1E1E1E1E1E1E1E1E1E1E1E1E1E1E1E1E1E1E1E1E1E1E1E1E1E1E1E1E1E1E1E1E1E1E1E1E1E1E1E1E1E1E1E1E1E1E1E1E1E1E1E1E1E1E1E1E1E1E1E1E1E1E1E1E1E1E1E1E1E1
310
E1E1E1E1E1E1E1E1E1E1E1E1E1E1E1E1E1E1E1E1E1E1E1E1E1E1E1E1E1E1E1E1E1E1E1E1BEE1E1E1E1E1E1E1BEBEE1E1E1E1E1E1E1E1E1E1E1E1BEE1E1E1BEBEE1E1E2BEBEE2E1E1E1E1E1E1E1E1E1BEBEE2E1E1E1E1E1E1E1E1E1E1E1E1E1E1E1E1E1E1E1E1E1E1E1E1E1E1E1E1E1E1E1E1E1E1E1E1E1E1E1E1E1E1E1E1E1
310
E1E128E1BEE1E1E1E1E1E1E1E1E1E1E1E1E1E1E1E1E1E1E1E1E1E1E1E1E1E1E1E1E1E1E1E1E1E1E1E1E1E1E1E1E1E1E1E1E1E1E1E1E1E1E1E1E1E1E1E1E1E1E1E1E1E1E1E1E1E1E1E1E1E1E1E1E1E1E1E1E1E1E1E1E1E1E1E1E1E1E1E1E1E1E1E1E1E1E1E1E1E1E1E1E1E1E1E1E1E1E1E1E1E1E1E1E1E1E1E1E1E1E1E1E1E1
310
E1E1E1E1E1E1E1E1E1E1E1E1E1E1E1E1E1E1E1E1E1E1E1E1E1E1E1E1E1E1E1E1E1E1E1E1E1E1BEE1E1E1E1E1E1E1BE28E1E1E1E1E1E1E1E1E1E1E1E1BEE1E1BEE1E1E1E1E2E2BEE2E1E1E1E1E1E1E1E1E1E2BEE2E1E1E1E1E1E1E1E1E1E1E1E1E1E1E1E1E1E1E1E1E1E1E1E1E1E1E1E1E1E1E1E1E1E1E1E1E1E1E1E1E1E1E1
310
E1E1E1E128E1BEE1E1E1E1E1E1E1E1E1E1E1E1E1E1E1E1E1E1E1E1E1E1E1E1E1E1E1E1E1E1E1E1E1E1E1E1E1E1E1E1E1E1E1E1E1E1E1E1E1E1E1E1E1E1E1E1E1E1E1E1E1E1E1E1E1E1E1E1E1E1E1E1E1E1E1E1E1E1E1E1E1E1E1E1E1E1E1E1E1E1E1E1E1E1E1E1E1E1E1E1E1E1E1E1E1E1E1E1E1E1E1E1E1E1E1E1E1E1E1E1
310
E1E1E1E1E1E1E1E1E1E1E1E1E1E1E1E1E1E1E1E1E1E1E1E1E1E1E1E1E1E1E1E1E1E1E1E1E1E1E1E1BEE1E1E1E1E1E1E1BE28E1E1E1E1E1E1E1E1E1E1E1E1BEE1BEE1BEBEE1E1E2E2BEBEE1E1E1E1E1E1E1E1E1E2BEBEE1E1E1E1E1E1E1E1E1E1E1E1E1E1E1E1E1E1E1E1E1E1E1E1E1E1E1E1E1E1E1E1E1E1E1E1E1E1E1E1E1
310
E1E1E1E1E1E128E1BEE1E1E1E1E1E1E1E1E1E1E1E1E1E1E1E1E1E1E1E1E1E1E1E1E1E1E1E1E1E1E1E1E1E1E1E1E1E1E1E1E1E1E1E1E1E1E1E1E1E1E1E1E1E1E1E1E1E1E1E1E1E1E1E1E1E1E1E1E1E1E1E1E1E1E1E1E1E1E1E1E1E1E1E1E1E1E1E1E1E1E1E1E1E1E1E1E1E1E1E1E1E1E1E1E1E1E1E1E1E1E1E1E1E1E1E1E1E1
310
E1E1E1E1E1E1E1E1E1E1E1E1E1E1E1E1E1E1E1E1E1E1E1E1E1E1E1E1E1E1E1E1E1E1E1E1E1E1E1E1E1E1BEE1E1E1E1E1E1E1BE28E1E1E1E1E1E1E1E1E1E1E1E1BEE1BEE1E1E1BEBEE2BEBEE2E1E1E1E1E1E1E1E1E1BEBEE2E1E1E1E1E1E1E1E1E1E1E1E1E1E1E1E1E1E1E1E1E1E1E1E1E1E1E1E1E1E1E1E1E1E1E1E1E1E1E1
310
E1E1E1E1E1E1E1E128E1BEE1E1E1E1E1E1E1E1E1E1E1E1E1E1E1E1E1E1E1E1E1E1E1E1E1E1E1E1E1E1E1E1E1E1E1E1E1E1E1E1E1E1E1E1E1E1E1E1E1E1E1E1E1E1E1E1E1E1E1E1E1E1E1E1E1E1E1E1E1E1E1E1E1E1E1E1E1E1E1E1E1E1E1E1E1E1E1E1E1E1E1E1E1E1E1E1E1E1E1E1E1E1E1E1E1E1E1E1E1E1E1E1E1E1E1E1
310
E1E1E1E1E1E1E1E1E1E1E1E1E1E1E1E1E1E1E1E1E1E1E1E1E1E1E1E1E1E1E1E1E1E1E1E1E1E1E1E1E1E1E1E1BEE1E1E1E1E1E1E1BE28E1E1E1E1E1E1E1E1E1E1E1E1BEBEE1E1E1E1E1E1E2E2BEE2E1E1E1E1E1E1E1E1E1E2BEE2E1E1E1E1E1E1E1E1E1E1E1E1E1E1E1E1E1E1E1E1E1E1E1E1E1E1E1E1E1E1E1E1E1E1E1E1E1
310
E1E1E1E1E1E1E1E1E1E128E1BEE1E1E1E1E1E1E1E1E1E1E1E1E1E1E1E1E1E1E1E1E1E1E1E1E1E1E1E1E1E1E1E1E1E1E1E1E1E1E1E1E1E1E1E1E1E1E1E1E1E1E1E1E1E1E1E1E1E1E1E1E1E1E1E1E1E1E1E1E1E1E1E1E1E1E1E1E1E1E1E1E1E1E1E1E1E1E1E1E1E1E1E1E1E1E1E1E1E1E1E1E1E1E1E1E1E1E1E1E1E1E1E1E1E1
310
E1E1E1E1E1E1E1E1E1E1E1E1E1E1E1E1E1E1E1E1E1E1E1E1E1E1E1E1E1E1E1E1E1E1E1E1E1E1E1E1E1E1E1E1E1E1BEE1E1E1E1E1E1E1BE28E1E1E1E1E1E1E1E1E1E1E1E1BEE1BEBEE1E1E1E1E2E2BEBEE1E1E1E1E1E1E1E1E1E2BEBEE1E1E1E1E1E1E1E1E1E1E1E1E1E1E1E1E1E1E1E1E1E1E1E1E1E1E1E1E1E1E1E1E1E1E1
310
E1E1E1E1E1E1E1E1E1E1E1E128E1BEE1E1E1E1E1E1E1E1E1E1E1E1E1E1E1E1E1E1E1E1E1E1E1E1E1E1E1E1E1E1E1E1E1E1E1E1E1E1E1E1E1E1E1E1E1E1E1E1E1E1E1E1E1E1E1E1E1E1E1E1E1E1E1E1E1E1E1E1E1E1E1E1E1E1E1E1E1E1E1E1E1E1E1E1E1E1E1E1E1E1E1E1E1E1E1E1E1E1E1E1E1E1E1E1E1E1E1E1E1E1E1E1
310
E1E1E1E1E1E1E1E1E1E1E1E1E1E1E1E1E1E1E1E1E1E1E1E1E1E1E1E1E1E1E1E1E1E1E1E1E1E1E1E1E1E1E1E1E1E1E1E1BEE1E1E1E1E1E1E1BE28E1E1E1E1E1E1E1E1E1E1E1E1E1E2E2E1BEBEE1E1E2E2BEE2E1E1E1E1E1E1E1E1E1BEBEE2E1E1E1E1E1E1E1E1E1E1E1E1E1E1E1E1E1E1E1E1E1E1E1E1E1E1E1E1E1E1E1E1E1
310
E1E1E1E1E1E1E1E1E1E1E1E1E1E128E1BEE1E1E1E1E1E1E1E1E1E1E1E1E1E1E1E1E1E1E1E1E1E1E1E1E1E1E1E1E1E1E1E1E1E1E1E1E1E1E1E1E1E1E1E1E1E1E1E1E1E1E1E1E1E1E1E1E1E1E1E1E1E1E1E1E1E1E1E1E1E1E1E1E1E1E1E1E1E1E1E1E1E1E1E1E1E1E1E1E1E1E1E1E1E1E1E1E1E1E1E1E1E1E1E1E1E1E1E1E1E1
310
E1E1E1E1E1E1E1E1E1E1E1E1E1E1E1E1E1E1E1E1E1E1E1E1E1E1E1E1E1E1E1E1E1E1E1E1E1E1E1E1E1E1E1E1E1E1E1E1E1E1BEE1E1E1E1E1E1E1BE28E1E1E1E1E1E1E1E1E1E1E1E1E1E1E1E2E1E1BEBEE2BEBEE2E1E1E1E1E1E1E1E1E1E2BEE2E1E1E1E1E1E1E1E1E1E1E1E1E1E1E1E1E1E1E1E1E1E1E1E1E1E1E1E1E1E1E1
310
E1E1E1E1E1E1E1E1E1E1E1E1E1E1E1E128E1BEE1E1E1E1E1E1E1E1E1E1E1E1E1E1E1E1E1E1E1E1E1E1E1E1E1E1E1E1E1E1E1E1E1E1E1E1E1E1E1E1E1E1E1E1E1E1E1E1E1E1E1E1E1E1E1E1E1E1E1E1E1E1E1E1E1E1E1E1E1E1E1E1E1E1E1E1E1E1E1E1E1E1E1E1E1E1E1E1E1E1E1E1E1E1E1E1E1E1E1E1E1E1E1E1E1E1E1E1
310
E1E1E1E1E1E1E1E1E1E1E1E1E1E1E1E1E1E1E1E1E1E1E1E1E1E1E1E1E1E1E1E1E1E1E1E1E1E1E1E1E1E1E1E1E1E1E1E1E1E1E1E1BEE1E1E1E1E1E1E1BE28E1E1E1E1E1E1E1E1E1E1E1E1E1E1E1E1E2E2E1E1E2E2BEE2E1E1E1E1E1E1E1E1E1E2BEE2E1E1E1E1E1E1E1E1E1E1E1E1E1E1E1E1E1E1E1E1E1E1E1E1E1E1E1E1E1
310
E1E1E1E1E1E1E1E1E1E1E1E1E1E1E1E1E1E128E1BEE1E1E1E1E1E1E1E1E1E1E1E1E1E1E1E1E1E1E1E1E1E1E1E1E1E1E1E1E1E1E1E1E1E1E1E1E1E1E1E1E1E1E1E1E1E1E1E1E1E1E1E1E1E1E1E1E1E1E1E1E1E1E1E1E1E1E1E1E1E1E1E1E1E1E1E1E1E1E1E1E1E1E1E1E1E1E1E1E1E1E1E1E1E1E1E1E1E1E1E1E1E1E1E1E1E1
310
E1E1E1E1E1E1E1E1E1E1E1E1E1E1E1E1E1E1E1E1E1E1E1E1E1E1E1E1E1E1E1E1E1E1E1E1E1E1E1E1E1E1E1E1E1E1E1E1E1E1E1E1E1E1BEE1E1E1E1E1E1E1BE28E1E1E1E1E1E1E1E1E1E1E1E1E1E1E1E1E1E1E2E2E2E2BEBEE1E1E1E1E1E1E1E1E1E2BEBEE1E1E1E1E1E1E1E1E1E1E1E1E1E1E1E1E1E1E1E1E1E1E1E1E1E1E1
310
E1E1E1E1E1E1E1E1E1E1E1E1E1E1E1E1E1E1E1E128E1BEE1E1E1E1E1E1E1E1E1E1E1E1E1E1E1E1E1E1E1E1E1E1E1E1E1E1E1E1E1E1E1E1E1E1E1E1E1E1E1E1E1E1E1E1E1E1E1E1E1E1E1E1E1E1E1E1E1E1E1E1E1E1E1E1E1E1E1E1E1E1E1E1E1E1E1E1E1E1E1E1E1E1E1E1E1E1E1E1E1E1E1E1E1E1E1E1E1E1E1E1E1E1E1E1
310
E1E1E1E1E1E1E1E1E1E1E1E1E1E1E1E1E1E1E1E1E1E1E1E1E1E1E1E1E1E1E1E1E1E1E1E1E1E1E1E1E1E1E1E1E1E1E1E1E1E1E1E1E1E1E1E1BEE1E1E1E1E1E1E1BE28E1E1E1E1E1E1E1E1E1E1E1E1E1E1E1E1E1E1E1E1E2BEBEE2E1E1E1E1E1E1E1E1E1BEBEE2E1E1E1E1E1E1E1E1E1E1E1E1E1E1E1E1E1E1E1E1E1E1E1E1E1
310
E1E1E1E1E1E1E1E1E1E1E1E1E1E1E1E1E1E1E1E1E1E128E1BEE1E1E1E1E1E1E1E1E1E1E1E1E1E1E1E1E1E1E1E1E1E1E1E1E1E1E1E1E1E1E1E1E1E1E1E1E1E1E1E1E1E1E1E1E1E1E1E1E1E1E1E1E1E1E1E1E1E1E1E1E1E1E1E1E1E1E1E1E1E1E1E1E1E1E1E1E1E1E1E1E1E1E1E1E1E1E1E1E1E1E1E1E1E1E1E1E1E1E1E1E1E1
310
E1E1E1E1E1E1E1E1E1E1E1E1E1E1E1E1E1E1E1E1E1E1E1E1E1E1E1E1E1E1E1E1E1E1E1E1E1E1E1E1E1E1E1E1E1E1E1E1E1E1E1E1E1E1E1E1E1E1BEE1E1E1E1E1E1E1BE28E1E1E1E1E1E1E1E1E1E1E1E1E1E1E1E1E1E1E1E1E2E2BEE2E1E1E1E1E1E1E1E1E1E2BEE2E1E1E1E1E1E1E1E1E1E1E1E1E1E1E1E1E1E1E1E1E1E1E1
310
E1E1E1E1E1E1E1E1E1E1E1E1E1E1E1E1E1E1E1E1E1E1E1E128E1BEE1E1E1E1E1E1E1E1E1E1E1E1E1E1E1E1E1E1E1E1E1E1E1E1E1E1E1E1E1E1E1E1E1E1E1E1E1E1E1E1E1E1E1E1E1E1E1E1E1E1E1E1E1E1E1E1E1E1E1E1E1E1E1E1E1E1E1E1E1E1E1E1E1E1E1E1E1E1E1E1E1E1E1E1E1E1E1E1E1E1E1E1E1E1E1E1E1E1E1E1
310
E1E1E1E1E1E1E1E1E1E1E1E1E1E1E1E1E1E1E1E1E1E1E1E1E1E1E1E1E1E1E1E1E1E1E1E1E1E1E1E1E1E1E1E1E1E1E1E1E1E1E1E1E1E1E1E1E1E1E1E1BEE1E1E1E1E1E1E1BE28E1E1E1E1E1E1E1E1E1E1E1E1E1E1E1E1E1E1E1E1E2E2BEBEE1E1E1E1E1E1E1E1E1E2BEBEE1E1E1E1E1E1E1E1E1E1E1E1E1E1E1E1E1E1E1E1E1
310
E1E1E1E1E1E1E1E1E1E1E1E1E1E1E1E1E1E1E1E1E1E1E1E1E1E128E1BEE1E1E1E1E1E1E1E1E1E1E1E1E1E1E1E1E1E1E1E1E1E1E1E1E1E1E1E1E1E1E1E1E1E1E1E1E1E1E1E1E1E1E1E1E1E1E1E1E1E1E1E1E1E1E1E1E1E1E1E1E1E1E1E1E1E1E1E1E1E1E1E1E1E1E1E1E1E1E1E1E1E1E1E1E1E1E1E1E1E1E1E1E1E1E1E1E1E1
310
E1E1E1E1E1E1E1E1E1E1E1E1E1E1E1E1E1E1E1E1E1E1E1E1E1E1E1E1E1E1E1E1E1E1E1E1E1E1E1E1E1E1E1E1E1E1E1E1E1E1E1E1E1E1E1E1E1E1E1E1E1E1BEE1E1E1E1E1E1E1BE28E1E1E1E1E1E1E1E1E1E1E1E1E1E1E1E1E1E1E1E1E2E2BEE2E1E1E1E1E1E1E1E1E1BEBEE2E1E1E1E1E1E1E1E1E1E1E1E1E1E1E1E1E1E1E1
310
E1E1E1E1E1E1E1E1E1E1E1E1E1E1E1E1E1E1E1E1E1E1E1E1E1E1E1E128E1BEE1E1E1E1E1E1E1E1E1E1E1E1E1E1E1E1E1E1E1E1E1E1E1E1E1E1E1E1E1E1E1E1E1E1E1E1E1E1E1E1E1E1E1E1E1E1E1E1E1E1E1E1E1E1E1E1E1E1E1E1E1E1E1E1E1E1E1E1E1E1E1E1E1E1E1E1E1E1E1E1E1E1E1E1E1E1E1E1E1E1E1E1E1E1E1E1
310
E1E1E1E1E1E1E1E1E1E1E1E1E1E1E1E1E1E1E1E1E1E1E1E1E1E1E1E1E1E1E1E1E1E1E1E1E1E1E1E1E1E1E1E1E1E1E1E1E1E1E1E1E1E1E1E1E1E1E1E1E1E1E1E1BEE1E1E1E1E1E1E1BE28E1E1E1E1E1E1E1E1E1E1E1E1E1E1E1E1E1E1E1E1E2BEBEE2E1E1E1E1E1E1E1E1E1E2BEE2E1E1E1E1E1E1E1E1E1E1E1E1E1E1E1E1E1
310
E1E1E1E1E1E1E1E1E1E1E1E1E1E1E1E1E1E1E1E1E1E1E1E1E1E1E1E1E1E128E1BEE1E1E1E1E1E1E1E1E1E1E1E1E1E1E1E1E1E1E1E1E1E1E1E1E1E1E1E1E1E1E1E1E1E1E1E1E1E1E1E1E1E1E1E1E1E1E1E1E1E1E1E1E1E1E1E1E1E1E1E1E1E1E1E1E1E1E1E1E1E1E1E1E1E1E1E1E1E1E1E1E1E1E1E1E1E1E1E1E1E1E1E1E1E1
310
E1E1E1E1E1E1E1E1E1E1E1E1E1E1E1E1E1E1E1E1E1E1E1E1E1E1E1E1E1E1E1E1E1E1E1E1E1E1E1E1E1E1E1E1E1E1E1E1E1E1E1E1E1E1E1E1E1E1E1E1E1E1E1E1E1E1BEE1E1E1E1E1E1E1BE28E1E1E1E1E1E1E1E1E1E1E1E1E1E1E1E1E1E1E1E1E2E2BEE2E1E1E1E1E1E1E1E1E1E2BEBEE1E1E1E1E1E1E1E1E1E1E1E1E1E1E1
310
E1E1E1E1E1E1E1E1E1E1E1E1E1E1E1E1E1E1E1E1E1E1E1E1E1E1E1E1E1E1E1E128E1BEE1E1E1E1E1E1E1E1E1E1E1E1E1E1E1E1E1E1E1E1E1E1E1E1E1E1E1E1E1E1E1E1E1E1E1E1E1E1E1E1E1E1E1E1E1E1E1E1E1E1E1E1E1E1E1E1E1E1E1E1E1E1E1E1E1E1E1E1E1E1E1E1E1E1E1E1E1E1E1E1E1E1E1E1E1E1E1E1E1E1E1E1
310
E1E1E1E1E1E1E1E1E1E1E1E1E1E1E1E1E1E1E1E1E1E1E1E1E1E1E1E1E1E1E1E1E1E1E1E1E1E1E1E1E1E1E1E1E1E1E1E1E1E1E1E1E1E1E1E1E1E1E1E1E1E1E1E1E1E1E1E1BEE1E1E1E1E1E1E1BE28E1E1E1E1E1E1E1E1E1E1E1E1E1E1E1E1E1E1E1E1E2E2BEBEE1E1E1E1E1E1E1E1E1E2BEE2E1E1E1E1E1E1E1E1E1E1E1E1E1
310
E1E1E1E1E1E1E1E1E1E1E1E1E1E1E1E1E1E1E1E1E1E1E1E1E1E1E1E1E1E1E1E1E1E128E1BEE1E1E1E1E1E1E1E1E1E1E1E1E1E1E1E1E1E1E1E1E1E1E1E1E1E1E1E1E1E1E1E1E1E1E1E1E1E1E1E1E1E1E1E1E1E1E1E1E1E1E1E1E1E1E1E1E1E1E1E1E1E1E1E1E1E1E1E1E1E1E1E1E1E1E1E1E1E1E1E1E1E1E1E1E1E1E1E1E1E1
310
E1E1E1E1E1E1E1E1E1E1E1E1E1E1E1E1E1E1E1E1E1E1E1E1E1E1E1E1E1E1E1E1E1E1E1E1E1E1E1E1E1E1E1E1E1E1E1E1E1E1E1E1E1E1E1E1E1E1E1E1E1E1E1E1E1E1E1E1E1E1BEE1E1E1E1E1E1E1E128E1E1E1E1E1E1E1E1E1E1E1E1E1E1E1E1E1E1E1E1E2BEBEE2E1E1E1E1E1E1E1E1E1BEBEE2E1E1E1E1E1E1E1E1E1E1E1
310
E1E1E1E1E1E1E1E1E1E1E1E1E1E1E1E1E1E1E1E1E1E1E1E1E1E1E1E1E1E1E1E1E1E1E1E128E1BEE1E1E1E1E1E1E1E1E1E1E1E1E1E1E1E1E1E1E1E1E1E1E1E1E1E1E1E1E1E1E1E1E1E1E1E1E1E1E1E1E1E1E1E1E1E1E1E1E1E1E1E1E1E1E1E1E1E1E1E1E1E1E1E1E1E1E1E1E1E1E1E1E1E1E1E1E1E1E1E1E1E1E1E1E1E1E1E1
310
E1E1E1E1E1E1E1E1E1E1E1E1E1E1E1E1E1E1E1E1E1E1E1E1E1E1E1E1E1E1E1E1E1E1E1E1E1E1E1E1E1E1E1E1E1E1E1E1E1E1E1E1E1E1E1E1E1E1E1E1E1E1E1E1E1E1E1E1E1E1E1E1BEE1E1E1E1E1E1E1E128E1E1E1E1E1E1E1E1E1E1E1E1E1E1E1E1E1E1E1E1E2E2BEE2E1E1E1E1E1E1E1E1E1E2BEE2E1E1E1E1E1E1E1E1E1
310
E1E1E1E1E1E1E1E1E1E1E1E1E1E1E1E1E1E1E1E1E1E1E1E1E1E1E1E1E1E1E1E1E1E1E1E1E1E128E1BEE1E1E1E1E1E1E1E1E1E1E1E1E1E1E1E1E1E1E1E1E1E1E1E1E1E1E1E1E1E1E1E1E1E1E1E1E1E1E1E1E1E1E1E1E1E1E1E1E1E1E1E1E1E1E1E1E1E1E1E1E1E1E1E1E1E1E1E1E1E1E1E1E1E1E1E1E1E1E1E1E1E1E1E1E1E1
310
E1E1E1E1E1E1E1E1E1E1E1E1E1E1E1E1E1E1E1E1E1E1E1E1E1E1E1E1E1E1E1E1E1E1E1E1E1E1E1E1E1E1E1E1E1E1E1E1E1E1E1E1E1E1E1E1E1E1E1E1E1E1E1E1E1E1E1E1E1E1E1E1E1E1BEE1E1E1E1E1E1E1E128E1E1E1E1E1E1E1E1E1E1E1E1E1E1E1E1E1E1E1E1E2E2BEBEE1E1E1E1E1E1E1E1E1E2BEBEE1E1E1E1E1E1E1
310
E1E1E1E1E1E1E1E1E1E1E1E1E1E1E1E1E1E1E1E1E1E1E1E1E1E1E1E1E1E1E1E1E1E1E1E1E1E1E1E128E1BEE1E1E1E1E1E1E1E1E1E1E1E1E1E1E1E1E1E1E1E1E1E1E1E1E1E1E1E1E1E1E1E1E1E1E1E1E1E1E1E1E1E1E1E1E1E1E1E1E1E1E1E1E1E1E1E1E1E1E1E1E1E1E1E1E1E1E1E1E1E1E1E1E1E1E1E1E1E1E1E1E1E1E1E1
310
E1E1E1E1E1E1E1E1E1E1E1E1E1E1E1E1E1E1E1E1E1E1E1E1E1E1E1E1E1E1E1E1E1E1E1E1E1E1E1E1E1E1E1E1E1E1E1E1E1E1E1E1E1E1E1E1E1E1E1E1E1E1E1E1E1E1E1E1E1E1E1E1E1E1E1E1BEE1E1E1E1E1E1E1E128E1E1E1E1E1E1E1E1E1E1E1E1E1E1E1E1E1E1E1E1E2BEBEE2E1E1E1E1E1E1E1E1E1BEBEE2E1E1E1E1E1
310
E1E1E1E1E1E1E1E1E1E1E1E1E1E1E1E1E1E1E1E1E1E1E1E1E1E1E1E1E1E1E1E1E1E1E1E1E1E1E1E1E1E128E1BEE1E1E1E1E1E1E1E1E1E1E1E1E1E1E1E1E1E1E1E1E1E1E1E1E1E1E1E1E1E1E1E1E1E1E1E1E1E1E1E1E1E1E1E1E1E1E1E1E1E1E1E1E1E1E1E1E1E1E1E1E1E1E1E1E1E1E1E1E1E1E1E1E1E1E1E1E1E1E1E1E1E1
310
E1E1E1E1E1E1E1E1E1E1E1E1E1E1E1E1E1E1E1E1E1E1E1E1E1E1E1E1E1E1E1E1E1E1E1E1E1E1E1E1E1E1E1E1E1E1E1E1E1E1E1E1E1E1E1E1E1E1E1E1E1E1E1E1E1E1E1E1E1E1E1E1E1E1E1E1E1E1BEE1E1E1E1E1E1E1E128E1E1E1E1E1E1E1E1E1E1E1E1E1E1E1E1E1E1E1E1E2E2BEE2E1E1E1E1E1E1E1E1E1E2BEE2E1E1E1
310
E1E1E1E1E1E1E1E1E1E1E1E1E1E1E1E1E1E1E1E1E1E1E1E1E1E1E1E1E1E1E1E1E1E1E1E1E1E1E1E1E1E1E1E128E1BEE1E1E1E1E1E1E1E1E1E1E1E1E1E1E1E1E1E1E1E1E1E1E1E1E1E1E1E1E1E1E1E1E1E1E1E1E1E1E1E1E1E1E1E1E1E1E1E1E1E1E1E1E1E1E1E1E1E1E1E1E1E1E1E1E1E1E1E1E1E1E1E1E1E1E1E1E1E1E1E1
310
E1E1E1E1E1E1E1E1E1E1E1E1E1E1E1E1E1E1E1E1E1E1E1E1E1E1E1E1E1E1E1E1E1E1E1E1E1E1E1E1E1E1E1E1E1E1E1E1E1E1E1E1E1E1E1E1E1E1E1E1E1E1E1E1E1E1E1E1E1E1E1E1E1E1E1E1E1E1E1E1BEE1E1E1E1E1E1E1E128E1E1E1E1E1E1E1E1E1E1E1E1E1E1E1E1E1E1E1E1E2E2BEBEE1E1E1E1E1E1E1E1E1E2BEBEE1
310
E1E1E1E1E1E1E1E1E1E1E1E1E1E1E1E1E1E1E1E1E1E1E1E1E1E1E1E1E1E1E1E1E1E1E1E1E1E1E1E1E1E1E1E1E1E128E1BEE1E1E1E1E1E1E1E1E1E1E1E1E1E1E1E1E1E1E1E1E1E1E1E1E1E1E1E1E1E1E1E1E1E1E1E1E1E1E1E1E1E1E1E1E1E1E1E1E1E1E1E1E1E1E1E1E1E1E1E1E1E1E1E1E1E1E1E1E1E1E1E1E1E1E1E1E1E1
310
E1E1E1E1E1E1E1E1E1E1E1E1E1E1E1E1E1E1E1E1E1E1E1E1E1E1E1E1E1E1E1E1E1E1E1E1E1E1E1E1E1E1E1E1E1E1E1E1E1E1E1E1E1E1E1E1E1E1E1E1E1E1E1E1E1E1E1E1E1E1E1E1E1E1E1E1E1E1E1E1E1E1BEE1E1E1E1E1E1E1E128E1E1E1E1E1E1E1E1E1E1E1E1E1E1E1E1E1E1E1E1E2E2BEE1E1E1E1E1E1E1E1E1E1BEBE
310
E2E1E1E1E1E1E1E1E1E1E1E1E1E1E1E1E1E1E1E1E1E1E1E1E1E1E1E1E1E1E1E1E1E1E1E1E1E1E1E1E1E1E1E1E1E1E1E128E1BEE1E1E1E1E1E1E1E1E1E1E1E1E1E1E1E1E1E1E1E1E1E1E1E1E1E1E1E1E1E1E1E1E1E1E1E1E1E1E1E1E1E1E1E1E1E1E1E1E1E1E1E1E1E1E1E1E1E1E1E1E1E1E1E1E1E1E1E1E1E1E1E1E1E1E1E1
310
E1E1E1E1E1E1E1E1E1E1E1E1E1E1E1E1E1E1E1E1E1E1E1E1E1E1E1E1E1E1E1E1E1E1E1E1E1E1E1E1E1E1E1E1E1E1E1E1E1E1E1E1E1E1E1E1E1E1E1E1E1E1E1E1E1E1E1E1E1E1E1E1E1E1E1E1E1E1E1E1E1E1E1E1BEE1E1E1E1E1E1E1E128E1E1E1E1E1E1E1E1E1E1E1E1E1E1E1E1E1E1E1E1E2BEE1E1E1E1E1E1E1E1E1E1E1
310
E2BEE2E1E1E1E1E1E1E1E1E1E1E1E1E1E1E1E1E1E1E1E1E1E1E1E1E1E1E1E1E1E1E1E1E1E1E1E1E1E1E1E1E1E1E1E1E1E1E128E1BEE1E1E1E1E1E1E1E1E1E1E1E1E1E1E1E1E1E1E1E1E1E1E1E1E1E1E1E1E1E1E1E1E1E1E1E1E1E1E1E1E1E1E1E1E1E1E1E1E1E1E1E1E1E1E1E1E1E1E1E1E1E1E1E1E1E1E1E1E1E1E1E1E1E1
310
E1E1E1E1E1E1E1E1E1E1E1E1E1E1E1E1E1E1E1E1E1E1E1E1E1E1E1E1E1E1E1E1E1E1E1E1E1E1E1E1E1E1E1E1E1E1E1E1E1E1E1E1E1E1E1E1E1E1E1E1E1E1E1E1E1E1E1E1E1E1E1E1E1E1E1E1E1E1E1E1E1E1E1E1E1E1BEE1E1E1E1E1E1E1E128E1E1E1E1E1E1E1E1E1E1E1E1E1E1E1E1E1E1E1E1E2E2E1E1E1E1E1E1E1E1E1
310
E1E1E2BEBEE1E1E1E1E1E1E1E1E1E1E1E1E1E1E1E1E1E1E1E1E1E1E1E1E1E1E1E1E1E1E1E1E1E1E1E1E1E1E1E1E1E1E1E1E1E1E128E1BEE1E1E1E1E1E1E1E1E1E1E1E1E1E1E1E1E1E1E1E1E1E1E1E1E1E1E1E1E1E1E1E1E1E1E1E1E1E1E1E1E1E1E1E1E1E1E1E1E1E1E1E1E1E1E1E1E1E1E1E1E1E1E1E1E1E1E1E1E1E1E1E1
310
E1E1E1E1E1E1E1E1E1E1E1E1E1E1E1E1E1E1E1E1E1E1E1E1E1E1E1E1E1E1E1E1E1E1E1E1E1E1E1E1E1E1E1E1E1E1E1E1E1E1E1E1E1E1E1E1E1E1E1E1E1E1E1E1E1E1E1E1E1E1E1E1E1E1E1E1E1E1E1E1E1E1E1E1E1E1E1E1BEE1E1E1E1E1E1E1E128E1E1E1E1E1E1E1E1E1E1E1E1E1E1E1E1E1E1E1E1E2E1E1E1E1E1E1E1E1
310
E1E1E1E1E2BEBEE1E1E1E1E1E1E1E1E1E1E1E1E1E1E1E1E1E1E1E1E1E1E1E1E1E1E1E1E1E1E1E1E1E1E1E1E1E1E1E1E1E1E1E1E1E1E128E1BEE1E1E1E1E1E1E1E1E1E1E1E1E1E1E1E1E1E1E1E1E1E1E1E1E1E1E1E1E1E1E1E1E1E1E1E1E1E1E1E1E1E1E1E1E1E1E1E1E1E1E1E1E1E1E1E1E1E1E1E1E1E1E1E1E1E1E1E1E1E1
310
E1E1E1E1E1E1E1E1E1E1E1E1E1E1E1E1E1E1E1E1E1E1E1E1E1E1E1E1E1E1E1E1E1E1E1E1E1E1E1E1E1E1E1E1E1E1E1E1E1E1E1E1E1E1E1E1E1E1E1E1E1E1E1E1E1E1E1E1E1E1E1E1E1E1E1E1E1E1E1E1E1E1E1E1E1E1E1E1E1E1BEE1E1E1E1E1E1E1E128E1E1E1E1E1E1E1E1E1E1E1E1E1E1E1E1E1E1E1E1E1E1E1E1E1E1E1
310
E1E1E1E1E1E1BEBEE2E1E1E1E1E1E1E1E1E1E1E1E1E1E1E1E1E1E1E1E1E1E1E1E1E1E1E1E1E1E1E1E1E1E1E1E1E1E1E1E1E1E1E1E1E1E1E128E1BEE1E1E1E1E1E1E1E1E1E1E1E1E1E1E1E1E1E1E1E1E1E1E1E1E1E1E1E1E1E1E1E1E1E1E1E1E1E1E1E1E1E1E1E1E1E1E1E1E1E1E1E1E1E1E1E1E1E1E1E1E1E1E1E1E1E1E1E1
310
E1E1E1E1E1E1E1E1E1E1E1E1E1E1E1E1E1E1E1E1E1E1E1E1E1E1E1E1E1E1E1E1E1E1E1E1E1E1E1E1E1E1E1E1E1E1E1E1E1E1E1E1E1E1E1E1E1E1E1E1E1E1E1E1E1E1E1E1E1E1E1E1E1E1E1E1E1E1E1E1E1E1E1E1E1E1E1E1E1E1E1E1BEE1E1E1E1E1E1E1E128E1E1E1E1E1E1E1E1E1E1E1E1E1E1E1E1E1E1E1E1E1E1E1E1E1
310
E1E1E1E1E1E1E1E1E2BEE2E1E1E1E1E1E1E1E1E1E1E1E1E1E1E1E1E1E1E1E1E1E1E1E1E1E1E1E1E1E1E1E1E1E1E1E1E1E1E1E1E1E1E1E1E1E1E128E1BEE1E1E1E1E1E1E1E1E1E1E1E1E1E1E1E1E1E1E1E1E1E1E1E1E1E1E1E1E1E1E1E1E1E1E1E1E1E1E1E1E1E1E1E1E1E1E1E1E1E1E1E1E1E1E1E1E1E1E1E1E1E1E1E1E1E1
310
E1E1E1E1E1E1E1E1E1E1E1E1E1E1E1E1E1E1E1E1E1E1E1E1E1E1E1E1E1E1E1E1E1E1E1E1E1E1E1E1E1E1E1E1E1E1E1E1E1E1E1E1E1E1E1E1E1E1E1E1E1E1E1E1E1E1E1E1E1E1E1E1E1E1E1E1E1E1E1E1E1E1E1E1E1E1E1E1E1E1E1E1E1E1BEE1E1E1E1E1E1E1E128E1E1E1E1E1E1E1E1E1E1E1E1E1E1E1E1E1E1E1E1E1E1E1
310
E1E1E1E1E1E1E1E1E1E1E2BEBEE1E1E1E1E1E1E1E1E1E1E1E1E1E1E1E1E1E1E1E1E1E1E1E1E1E1E1E1E1E1E1E1E1E1E1E1E1E1E1E1E1E1E1E1E1E1E128E1BEE1E1E1E1E1E1E1E1E1E1E1E1E1E1E1E1E1E1E1E1E1E1E1E1E1E1E1E1E1E1E1E1E1E1E1E1E1E1E1E1E1E1E1E1E1E1E1E1E1E1E1E1E1E1E1E1E1E1E1E1E1E1E1E1
310
E1E1E1E1E1E1E1E1E1E1E1E1E1E1E1E1E1E1E1E1E1E1E1E1E1E1E1E1E1E1E1E1E1E1E1E1E1E1E1E1E1E1E1E1E1E1E1E1E1E1E1E1E1E1E1E1E1E1E1E1E1E1E1E1E1E1E1E1E1E1E1E1E1E1E1E1E1E1E1E1E1E1E1E1E1E1E1E1E1E1E1E1E1E1E1E1BEE1E1E1E1E1E1E1E128E1E1E1E1E1E1E1E1E1E1E1E1E1E1E1E1E1E1E1E1E1
310
E1E1E1E1E1E1E1E1E1E1E1E1E2E2E2E1E1E1E1E1E1E1E1E1E1E1E1E1E1E1E1E1E1E1E1E1E1E1E1E1E1E1E1E1E1E1E1E1E1E1E1E1E1E1E1E1E1E1E1E1E1E128E1BEE1E1E1E1E1E1E1E1E1E1E1E1E1E1E1E1E1E1E1E1E1E1E1E1E1E1E1E1E1E1E1E1E1E1E1E1E1E1E1E1E1E1E1E1E1E1E1E1E1E1E1E1E1E1E1E1E1E1E1E1E1E1
310
E1E1E1E1E1E1E1E1E1E1E1E1E1E1E1E1E1E1E1E1E1E1E1E1E1E1E1E1E1E1E1E1E1E1E1E1E1E1E1E1E1E1E1E1E1E1E1E1E1E1E1E1E1E1E1E1E1E1E1E1E1E1E1E1E1E1E1E1E1E1E1E1E1E1E1E1E1E1E1E1E1E1E1E1E1E1E1E1E1E1E1E1E1E1E1E1E1E1BEE1E1E1E1E1E1E1E128E1E1E1E1E1E1E1E1E1E1E1E1E1E1E1E1E1E1E1
310
E1E1E1E1E1E1E1E1E1E1E1E1E1E1E2E1E1E1E1E1E1E1E1E1E1E1E1E1E1E1E1E1E1E1E1E1E1E1E1E1E1E1E1E1E1E1E1E1E1E1E1E1E1E1E1E1E1E1E1E1E1E1E1E128E1BEE1E1E1E1E1E1E1E1E1E1E1E1E1E1E1E1E1E1E1E1E1E1E1E1E1E1E1E1E1E1E1E1E1E1E1E1E1E1E1E1E1E1E1E1E1E1E1E1E1E1E1E1E1E1E1E1E1E1E1E1
310
E1E1E1E1E1E1E1E1E1E1E1E1E1E1E1E1E1E1E1E1E1E1E1E1E1E1E1E1E1E1E1E1E1E1E1E1E1E1E1E1E1E1E1E1E1E1E1E1E1E1E1E1E1E1E1E1E1E1E1E1E1E1E1E1E1E1E1E1E1E1E1E1E1E1E1E1E1E1E1E1E1E1E1E1E1E1E1E1E1E1E1E1E1E1E1E1E1E1E1E1BEE1E1E1E1E1E1E1E128E1E1E1E1E1E1E1E1E1E1E1E1E1E1E1E1E1
310
E1E1E1E1E1E1E1E1E1E1E1E1E1E1E1E1E1E1E1E1E1E1E1E1E1E1E1E1E1E1E1E1E1E1E1E1E1E1E1E1E1E1E1E1E1E1E1E1E1E1E1E1E1E1E1E1E1E1E1E1E1E1E1E1E1E128E1BEE1E1E1E1E1E1E1E1E1E1E1E1E1E1E1E1E1E1E1E1E1E1E1E1E1E1E1E1E1E1E1E1E1E1E1E1E1E1E1E1E1E1E1E1E1E1E1E1E1E1E1E1E1E1E1E1E1E1
310
E1E1E1E1E1E1E1E1E1E1E1E1E1E1E1E1E1E1E1E1E1E1E1E1E1E1E1E1E1E1E1E1E1E1E1E1E1E1E1E1E1E1E1E1E1E1E1E1E1E1E1E1E1E1E1E1E1E1E1E1E1E1E1E1E1E1E1E1E1E1E1E1E1E1E1E1E1E1E1E1E1E1E1E1E1E1E1E1E1E1E1E1E1E1E1E1E1E1E1E1E1E1BEE1E1E1E1E1E1E1E128E1E1E1E1E1E1E1E1E1E1E1E1E1E1E1
310
E1E1E1E1E1E1E1E1E1E1E1E1E1E1E1E1E1E1E1E1E1E1E1E1E1E1E1E1E1E1E1E1E1E1E1E1E1E1E1E1E1E1E1E1E1E1E1E1E1E1E1E1E1E1E1E1E1E1E1E1E1E1E1E1E1E1E1E128E1BEE1E1E1E1E1E1E1E1E1E1E1E1E1E1E1E1E1E1E1E1E1E1E1E1E1E1E1E1E1E1E1E1E1E1E1E1E1E1E1E1E1E1E1E1E1E1E1E1E1E1E1E1E1E1E1E1
310
E1E1E1E1E1E1E1E1E1E1E1E1E1E1E1E1E1E1E1E1E1E1E1E1E1E1E1E1E1E1E1E1E1E1E1E1E1E1E1E1E1E1E1E1E1E1E1E1E1E1E1E1E1E1E1E1E1E1E1E1E1E1E1E1E1E1E1E1E1E1E1E1E1E1E1E1E1E1E1E1E1E1E1E1E1E1E1E1E1E1E1E1E1E1E1E1E1E1E1E1E1E1E1E1BEE1E1E1E1E1E1E1E128E1E1E1E1E1E1E1E1E1E1E1E1E1
310
E1E1E1E1E1E1E1E1E1E1E1E1E1E1E1E1E1E1E1E1E1E1E1E1E1E1E1E1E1E1E1E1E1E1E1E1E1E1E1E1E1E1E1E1E1E1E1E1E1E1E1E1E1E1E1E1E1E1E1E1E1E1E1E1E1E1E1E1E1E128E1BEE1E1E1E1E1E1E1E1E1E1E1E1E1E1E1E1E1E1E1E1E1E1E1E1E1E1E1E1E1E1E1E1E1E1E1E1E1E1E1E1E1E1E1E1E1E1E1E1E1E1E1E1E1E1
310
E1E1E1E1E1E1E1E1E1E1E1E1E1E1E1E1E1E1E1E1E1E1E1E1E1E1E1E1E1E1E1E1E1E1E1E1E1E1E1E1E1E1E1E1E1E1E1E1E1E1E1E1E1E1E1E1E1E1E1E1E1E1E1E1E1E1E1E1E1E1E1E1E1E1E1E1E1E1E1E1E1E1E1E1E1E1E1E1E1E1E1E1E1E1E1E1E1E1E1E1E1E1E1E1E1E1BEE1E1E1E1E1E1E1E128E1E1E1E1E1E1E1E1E1E1E1
310
E1E1E1E1E1E1E1E1E1E1E1E1E1E1E1E1E1E1E1E1E1E1E1E1E1E1E1E1E1E1E1E1E1E1E1E1E1E1E1E1E1E1E1E1E1E1E1E1E1E1E1E1E1E1E1E1E1E1E1E1E1E1E1E1E1E1E1E1E1E1E1E128E1BEE1E1E1E1E1E1E1E1E1E1E1E1E1E1E1E1E1E1E1E1E1E1E1E1E1E1E1E1E1E1E1E1E1E1E1E1E1E1E1E1E1E1E1E1E1E1E1E1E1E1E1E1
310
E1E1E1E1E1E1E1E1E1E1E1E1E1E1E1E1E1E1E1E1E1E1E1E1E1E1E1E1E1E1E1E1E1E1E1E1E1E1E1E1E1E1E1E1E1E1E1E1E1E1E1E1E1E1E1E1E1E1E1E1E1E1E1E1E1E1E1E1E1E1E1E1E1E1E1E1E1E1E1E1E1E1E1E1E1E1E1E1E1E1E1E1E1E1E1E1E1E1E1E1E1E1E1E1E1E1E1E1BEE1E1E1E1E1E1E1E128E1E1E1E1E1E1E1E1E1
310
E1E1E1E1E1E1E1E1E1E1E1E1E1E1E1E1E1E1E1E1E1E1E1E1E1E1E1E1E1E1E1E1E1E1E1E1E1E1E1E1E1E1E1E1E1E1E1E1E1E1E1E1E1E1E1E1E1E1E1E1E1E1E1E1E1E1E1E1E1E1E1E1E1E128E1BEE1E1E1E1E1E1E1E1E1E1E1E1E1E1E1E1E1E1E1E1E1E1E1E1E1E1E1E1E1E1E1E1E1E1E1E1E1E1E1E1E1E1E1E1E1E1E1E1E1E1
310
E1E1E1E1E1E1E1E1E1E1E1E1E1E1E1E1E1E1E1E1E1E1E1E1E1E1E1E1E1E1E1E1E1E1E1E1E1E1E1E1E1E1E1E1E1E1E1E1E1E1E1E1E1E1E1E1E1E1E1E1E1E1E1E1E1E1E1E1E1E1E1E1E1E1E1E1E1E1E1E1E1E1E1E1E1E1E1E1E1E1E1E1E1E1E1E1E1E1E1E1E1E1E1E1E1E1E1E1E1E1BEE1E1E1E1E1E1E1E128E1E1E1E1E1E1E1
310
E1E1E1E1E1E1E1E1E1E1E1E1E1E1E1E1E1E1E1E1E1E1E1E1E1E1E1E1E1E1E1E1E1E1E1E1E1E1E1E1E1E1E1E1E1E1E1E1E1E1E1E1E1E1E1E1E1E1E1E1E1E1E1E1E1E1E1E1E1E1E1E1E1E1E1E128E1BEE1E1E1E1E1E1E1E1E1E1E1E1E1E1E1E1E1E1E1E1E1E1E1E1E1E1E1E1E1E1E1E1E1E1E1E1E1E1E1E1E1E1E1E1E1E1E1E1
310
E1E1E1E1E1E1E1E1E1E1E1E1E1E1E1E1E1E1E1E1E1E1E1E1E1E1E1E1E1E1E1E1E1E1E1E1E1E1E1E1E1E1E1E1E1E1E1E1E1E1E1E1E1E1E1E1E1E1E1E1E1E1E1E1E1E1E1E1E1E1E1E1E1E1E1E1E1E1E1E1E1E1E1E1E1E1E1E1E1E1E1E1E1E1E1E1E1E1E1E1E1E1E1E1E1E1E1E1E1E1E1E1BEE1E1E1E1E1E1E1E128E1E1E1E1E1
310
E1E1E1E1E1E1E1E1E1E1E1E1E1E1E1E1E1E1E1E1E1E1E1E1E1E1E1E1E1E1E1E1E1E1E1E1E1E1E1E1E1E1E1E1E1E1E1E1E1E1E1E1E1E1E1E1E1E1E1E1E1E1E1E1E1E1E1E1E1E1E1E1E1E1E1E1E1E128E1BEE1E1E1E1E1E1E1E1E1E1E1E1E1E1E1E1E1E1E1E1E1E1E1E1E1E1E1E1E1E1E1E1E1E1E1E1E1E1E1E1E1E1E1E1E1E1
310
E1E1E1E1E1E1E1E1E1E1E1E1E1E1E1E1E1E1E1E1E1E1E1E1E1E1E1E1E1E1E1E1E1E1E1E1E1E1E1E1E1E1E1E1E1E1E1E1E1E1E1E1E1E1E1E1E1E1E1E1E1E1E1E1E1E1E1E1E1E1E1E1E1E1E1E1E1E1E1E1E1E1E1E1E1E1E1E1E1E1E1E1E1E1E1E1E1E1E1E1E1E1E1E1E1E1E1E1E1E1E1E1E1E1BEE1E1E1E1E1E1E1E128E1E1E1
310
E1E1E1E1E1E1E1E1E1E1E1E1E1E1E1E1E1E1E1E1E1E1E1E1E1E1E1E1E1E1E1E1E1E1E1E1E1E1E1E1E1E1E1E1E1E1E1E1E1E1E1E1E1E1E1E1E1E1E1E1E1E1E1E1E1E1E1E1E1E1E1E1E1E1E1E1E1E1E1E128E1BEE1E1E1E1E1E1E1E1E1E1E1E1E1E1E1E1E1E1E1E1E1E1E1E1E1E1E1E1E1E1E1E1E1E1E1E1E1E1E1E1E1E1E1E1
310
E1E1E1E1E1E1E1E1E1E1E1E1E1E1E1E1E1E1E1E1E1E1E1E1E1E1E1E1E1E1E1E1E1E1E1E1E1E1E1E1E1E1E1E1E1E1E1E1E1E1E1E1E1E1E1E1E1E1E1E1E1E1E1E1E1E1E1E1E1E1E1E1E1E1E1E1E1E1E1E1E1E1E1E1E1E1E1E1E1E1E1E1E1E1E1E1E1E1E1E1E1E1E1E1E1E1E1E1E1E1E1E1E1E1E1E1BEE1E1E1E1E1E1E1E128E1
310
E1E1E1E1E1E1E1E1E1E1E1E1E1E1E1E1E1E1E1E1E1E1E1E1E1E1E1E1E1E1E1E1E1E1E1E1E1E1E1E1E1E1E1E1E1E1E1E1E1E1E1E1E1E1E1E1E1E1E1E1E1E1E1E1E1E1E1E1E1E1E1E1E1E1E1E1E1E1E1E1E1E128E1BEE1E1E1E1E1E1E1E1E1E1E1E1E1E1E1E1E1E1E1E1E1E1E1E1E1E1E1E1E1E1E1E1E1E1E1E1E1E1E1E1E1E1
310
E1E1E1E1E1E1E1E1E1E1E1E1E1E1E1E1E1E1E1E1E1E1E1E1E1E1E1E1E1E1E1E1E1E1E1E1E1E1E1E1E1E1E1E1E1E1E1E1E1E1E1E1E1E1E1E1E1E1E1E1E1E1E1E1E1E1E1E1E1E1E1E1E1E1E1E1E1E1E1E1E1E1E1E1E1E1E1E1E1E1E1E1E1E1E1E1E1E1E1E1E1E1E1E1E1E1E1E1E1E1E1E1E1E1E1E1E1E1BEE1E1E1E1E1E1E1E1
310
28E1E1E1E1E1E1E1E1E1E1E1E1E1E1E1E1E1E1E1E1E1E1E1E1E1E1E1E1E1E1E1E1E1E1E1E1E1E1E1E1E1E1E1E1E1E1E1E1E1E1E1E1E1E1E1E1E1E1E1E1E1E1E1E1E1E1E1E1E1E1E1E1E1E1E1E1E1E1E1E1E1E1E128E1BEE1E1E1E1E1E1E1E1E1E1E1E1E1E1E1E1E1E1E1E1E1E1E1E1E1E1E1E1E1E1E1E1E1E1E1E1E1E1E1E1
310
E1E1E1E1E1E1E1E1E1E1E1E1E1E1E1E1E1E1E1E1E1E1E1E1E1E1E1E1E1E1E1E1E1E1E1E1E1E1E1E1E1E1E1E1E1E1E1E1E1E1E1E1E1E1E1E1E1E1E1E1E1E1E1E1E1E1E1E1E1E1E1E1E1E1E1E1E1E1E1E1E1E1E1E1E1E1E1E1E1E1E1E1E1E1E1E1E1E1E1E1E1E1E1E1E1E1E1E1E1E1E1E1E1E1E1E1E1E1E1E1BEE1E1E1E1E1E1
310
E1E128E1E1E1E1E1E1E1E1E1E1E1E1E1E1E1E1E1E1E1E1E1E1E1E1E1E1E1E1E1E1E1E1E1E1E1E1E1E1E1E1E1E1E1E1E1E1E1E1E1E1E1E1E1E1E1E1E1E1E1E1E1E1E1E1E1E1E1E1E1E1E1E1E1E1E1E1E1E1E1E1E1E1E128E1BEE1E1E1E1E1E1E1E1E1E1E1E1E1E1E1E1E1E1E1E1E1E1E1E1E1E1E1E1E1E1E1E1E1E1E1E1E1E1
310
E1E1E1E1E1E1E1E1E1E1E1E1E1E1E1E1E1E1E1E1E1E1E1E1E1E1E1E1E1E1E1E1E1E1E1E1E1E1E1E1E1E1E1E1E1E1E1E1E1E1E1E1E1E1E1E1E1E1E1E1E1E1E1E1E1E1E1E1E1E1E1E1E1E1E1E1E1E1E1E1E1E1E1E1E1E1E1E1E1E1E1E1E1E1E1E1E1E1E1E1E1E1E1E1E1E1E1E1E1E1E1E1E1E1E1E1E1E1E1E1E1E1BEE1E1E1E1
310
E1E1E1E128E1E1E1E1E1E1E1E1E1E1E1E1E1E1E1E1E1E1E1E1E1E1E1E1E1E1E1E1E1E1E1E1E1E1E1E1E1E1E1E1E1E1E1E1E1E1E1E1E1E1E1E1E1E1E1E1E1E1E1E1E1E1E1E1E1E1E1E1E1E1E1E1E1E1E1E1E1E1E1E1E1E1E128E1BEE1E1E1E1E1E1E1E1E1E1E1E1E1E1E1E1E1E1E1E1E1E1E1E1E1E1E1E1E1E1E1E1E1E1E1E1
310
E1E1E1E1E1E1E1E1E1E1E1E1E1E1E1E1E1E1E1E1E1E1E1E1E1E1E1E1E1E1E1E1E1E1E1E1E1E1E1E1E1E1E1E1E1E1E1E1E1E1E1E1E1E1E1E1E1E1E1E1E1E1E1E1E1E1E1E1E1E1E1E1E1E1E1E1E1E1E1E1E1E1E1E1E1E1E1E1E1E1E1E1E1E1E1E1E1E1E1E1E1E1E1E1E1E1E1E1E1E1E1E1E1E1E1E1E1E1E1E1E1E1E1E1BEE1E1
310
E1E1E1E1E1E128E1E1E1E1E1E1E1E1E1E1E1E1E1E1E1E1E1E1E1E1E1E1E1E1E1E1E1E1E1E1E1E1E1E1E1E1E1E1E1E1E1E1E1E1E1E1E1E1E1E1E1E1E1E1E1E1E1E1E1E1E1E1E1E1E1E1E1E1E1E1E1E1E1E1E1E1E1E1E1E1E1E1E128E1BEE1E1E1E1E1E1E1E1E1E1E1E1E1E1E1E1E1E1E1E1E1E1E1E1E1E1E1E1E1E1E1E1E1E1
310
E1E1E1E1E1E1E1E1E1E1E1E1E1E1E1E1E1E1E1E1E1E1E1E1E1E1E1E1E1E1E1E1E1E1E1E1E1E1E1E1E1E1E1E1E1E1E1E1E1E1E1E1E1E1E1E1E1E1E1E1E1E1E1E1E1E1E1E1E1E1E1E1E1E1E1E1E1E1E1E1E1E1E1E1E1E1E1E1E1E1E1E1E1E1E1E1E1E1E1E1E1E1E1E1E1E1E1E1E1E1E1E1E1E1E1E1E1E1E1E1E1E1E1E1E1E1BE
310
E1E1E1E1E1E1E1E128E1E1E1E1E1E1E1E1E1E1E1E1E1E1E1E1E1E1E1E1E1E1E1E1E1E1E1E1E1E1E1E1E1E1E1E1E1E1E1E1E1E1E1E1E1E1E1E1E1E1E1E1E1E1E1E1E1E1E1E1E1E1E1E1E1E1E1E1E1E1E1E1E1E1E1E1E1E1E1E1E1E1E128E1BEE1E1E1E1E1E1E1E1E1E1E1E1E1E1E1E1E1E1E1E1E1E1E1E1E1E1E1E1E1E1E1E1
310
E1E1E1E1E1E1E1E1E1E1E1E1E1E1E1E1E1E1E1E1E1E1E1E1E1E1E1E1E1E1E1E1E1E1E1E1E1E1E1E1E1E1E1E1E1E1E1E1E1E1E1E1E1E1E1E1E1E1E1E1E1E1E1E1E1E1E1E1E1E1E1E1E1E1E1E1E1E1E1E1E1E1E1E1E1E1E1E1E1E1E1E1E1E1E1E1E1E1E1E1E1E1E1E1E1E1E1E1E1E1E1E1E1E1E1E1E1E1E1E1E1E1E1E1E1E1E1
310
E1BEE1E1E1E1E1E1E1E128E1E1E1E1E1E1E1E1E1E1E1E1E1E1E1E1E1E1E1E1E1E1E1E1E1E1E1E1E1E1E1E1E1E1E1E1E1E1E1E1E1E1E1E1E1E1E1E1E1E1E1E1E1E1E1E1E1E1E1E1E1E1E1E1E1E1E1E1E1E1E1E1E1E1E1E1E1E1E1E1E1E1E128E1BEE1E1E1E1E1E1E1E1E1E1E1E1E1E1E1E1E1E1E1E1E1E1E1E1E1E1E1E1E1E1
310
E1E1E1E1E1E1E1E1E1E1E1E1E1E1E1E1E1E1E1E1E1E1E1E1E1E1E1E1E1E1E1E1E1E1E1E1E1E1E1E1E1E1E1E1E1E1E1E1E1E1E1E1E1E1E1E1E1E1E1E1E1E1E1E1E1E1E1E1E1E1E1E1E1E1E1E1E1E1E1E1E1E1E1E1E1E1E1E1E1E1E1E1E1E1E1E1E1E1E1E1E1E1E1E1E1E1E1E1E1E1E1E1E1E1E1E1E1E1E1E1E1E1E1E1E1E1E1
310
E1E1E1BEE1E1E1E1E1E1E1E128E1E1E1E1E1E1E1E1E1E1E1E1E1E1E1E1E1E1E1E1E1E1E1E1E1E1E1E1E1E1E1E1E1E1E1E1E1E1E1E1E1E1E1E1E1E1E1E1E1E1E1E1E1E1E1E1E1E1E1E1E1E1E1E1E1E1E1E1E1E1E1E1E1E1E1E1E1E1E1E1E1E1E128E1BEE1E1E1E1E1E1E1E1E1E1E1E1E1E1E1E1E1E1E1E1E1E1E1E1E1E1E1E1
310
E1E1E1E1E1E1E1E1E1E1E1E1E1E1E1E1E1E1E1E1E1E1E1E1E1E1E1E1E1E1E1E1E1E1E1E1E1E1E1E1E1E1E1E1E1E1E1E1E1E1E1E1E1E1E1E1E1E1E1E1E1E1E1E1E1E1E1E1E1E1E1E1E1E1E1E1E1E1E1E1E1E1E1E1E1E1E1E1E1E1E1E1E1E1E1E1E1E1E1E1E1E1E1E1E1E1E1E1E1E1E1E1E1E1E1E1E1E1E1E1E1E1E1E1E1E1E1
310
E1E1E1E1E1BEE1E1E1E1E1E1E1E128E1E1E1E1E1E1E1E1E1E1E1E1E1E1E1E1E1E1E1E1E1E1E1E1E1E1E1E1E1E1E1E1E1E1E1E1E1E1E1E1E1E1E1E1E1E1E1E1E1E1E1E1E1E1E1E1E1E1E1E1E1E1E1E1E1E1E1E1E1E1E1E1E1E1E1E1E1E1E1E1E1E1E128E1BEE1E1E1E1E1E1E1E1E1E1E1E1E1E1E1E1E1E1E1E1E1E1E1E1E1E1
310
E1E1E1E1E1E1E1E1E1E1E1E1E1E1E1E1E1E1E1E1E1E1E1E1E1E1E1E1E1E1E1E1E1E1E1E1E1E1E1E1E1E1E1E1E1E1E1E1E1E1E1E1E1E1E1E1E1E1E1E1E1E1E1E1E1E1E1E1E1E1E1E1E1E1E1E1E1E1E1E1E1E1E1E1E1E1E1E1E1E1E1E1E1E1E1E1E1E1E1E1E1E1E1E1E1E1E1E1E1E1E1E1E1E1E1E1E1E1E1E1E1E1E1E1E1E1E1
310
E1E1E1E1E1E1E1BEE1E1E1E1E1E1E1E128E1E1E1E1E1E1E1E1E1E1E1E1E1E1E1E1E1E1E1E1E1E1E1E1E1E1E1E1E1E1E1E1E1E1E1E1E1E1E1E1E1E1E1E1E1E1E1E1E1E1E1E1E1E1E1E1E1E1E1E1E1E1E1E1E1E1E1E1E1E1E1E1E1E1E1E1E1E1E1E1E1E1E128E1BEE1E1E1E1E1E1E1E1E1E1E1E1E1E1E1E1E1E1E1E1E1E1E1E1
310
E1E1E1E1E1E1E1E1E1E1E1E1E1E1E1E1E1E1E1E1E1E1E1E1E1E1E1E1E1E1E1E1E1E1E1E1E1E1E1E1E1E1E1E1E1E1E1E1E1E1E1E1E1E1E1E1E1E1E1E1E1E1E1E1E1E1E1E1E1E1E1E1E1E1E1E1E1E1E1E1E1E1E1E1E1E1E1E1E1E1E1E1E1E1E1E1E1E1E1E1E1E1E1E1E1E1E1E1E1E1E1E1E1E1E1E1E1E1E1E1E1E1E1E1E1E1E1
310
E1E1E1E1E1E1E1E1E1BEE1E1E1E1E1E1E1E128E1E1E1E1E1E1E1E1E1E1E1E1E1E1E1E1E1E1E1E1E1E1E1E1E1E1E1E1E1E1E1E1E1E1E1E1E1E1E1E1E1E1E1E1E1E1E1E1E1E1E1E1E1E1E1E1E1E1E1E1E1E1E1E1E1E1E1E1E1E1E1E1E1E1E1E1E1E1E1E1E1E1E128E1BEE1E1E1E1E1E1E1E1E1E1E1E1E1E1E1E1E1E1E1E1E1E1
310
E1E1E1E1E1E1E1E1E1E1E1E1E1E1E1E1E1E1E1E1E1E1E1E1E1E1E1E1E1E1E1E1E1E1E1E1E1E1E1E1E1E1E1E1E1E1E1E1E1E1E1E1E1E1E1E1E1E1E1E1E1E1E1E1E1E1E1E1E1E1E1E1E1E1E1E1E1E1E1E1E1E1E1E1E1E1E1E1E1E1E1E1E1E1E1E1E1E1E1E1E1E1E1E1E1E1E1E1E1E1E1E1E1E1E1E1E1E1E1E1E1E1E1E1E1E1E1
310
E1E1E1E1E1E1E1E1E1E1E1BEE1E1E1E1E1E1E1E128282828282828282828282828282828282828282828282828282828282828282828282828282828282828282828282828282828282828282828282828282828282828282828282828282828282828282828282828E1BEE1E1E1E1E1E1E1E1E1E1E1E1E1E1E1E1E1E1E1E1
310
E1E1E1E1E1E1E1E1E1E1E1E1E1E1E1E1E1E1E1E1E1E1E1E1E1E1E1E1E1E1E1E1E1E1E1E1E1E1E1E1E1E1E1E1E1E1E1E1E1E1E1E1E1E1E1E1E1E1E1E1E1E1E1E1E1E1E1E1E1E1E1E1E1E1E1E1E1E1E1E1E1E1E1E1E1E1E1E1E1E1E1E1E1E1E1E1E1E1E1E1E1E1E1E1E1E1E1E1E1E1E1E1E1E1E1E1E1E1E1E1E1E1E1E1E1E1E1
310
E1E1E1E1E1E1E1E1E1E1E1E1E1BEE1E1E1E1E1E1E1E1E1E1E1E1E1E1E1E1E1E1E1E1E1E1E1E1E1E1E1E1E1E1E1E1E1E1E1E1E1E1E1E1E1E1E1E1E1E1E1E1E1E1E1E1E1E1E1E1E1E1E1E1E1E1E1E1E1E1E1E1E1E1E1E1E1E1E1E1E1E1E1E1E1E1E1E1E1E1E1E1E1E1E1E1E1E1BEE1E1E1E1E1E1E1E1E1E1E1E1E1E1E1E1E1E1
310
E1E1E1E1E1E1E1E1E1E1E1E1E1E1E1E1E1E1E1E1E1E1E1E1E1E1E1E1E1E1E1E1E1E1E1E1E1E1E1E1E1E1E1E1E1E1E1E1E1E1E1E1E1E1E1E1E1E1E1E1E1E1E1E1E1E1E1E1E1E1E1E1E1E1E1E1E1E1E1E1E1E1E1E1E1E1E1E1E1E1E1E1E1E1E1E1E1E1E1E1E1E1E1E1E1E1E1E1E1E1E1E1E1E1E1E1E1E1E1E1E1E1E1E1E1E1E1
310
E1E1E1E1E1E1E1E1E1E1E1E1E1E1E1BEBEBEBEBEBEBEBEBEBEBEBEBEBEBEBEBEBEBEBEBEBEBEBEBEBEBEBEBEBEBEBEBEBEBEBEBEBEBEBEBEBEBEBEBEBEBEBEBEBEBEBEBEBEBEBEBEBEBEBEBEBEBEBEBEBEBEBEBEBEBEBEBEBEBEBEBEBEBEBEBEBEBEBEBEBEBEBEBEBEBEBEBEBEBEBEE1E1E1E1E1E1E1E1E1E1E1E1E1E1E1E1
310
E1E1E1E1E1E1E1E1E1E1E1E1E1E1E1E1E1E1E1E1E1E1E1E1E1E1E1E1E1E1E1E1E1E1E1E1E1E1E1E1E1E1E1E1E1E1E1E1E1E1E1E1E1E1E1E1E1E1E1E1E1E1E1E1
  0
XRECORD
  5
4F4
102
{ACAD_REACTORS
330
3E7
102
}
330
3E7
100
AcDbXrecord
280
     1
102
MATERIAL
148
0.0
149
0.0
149
0.0
 93
        0
 94
      127
282
     0
 72
     0
 77
     0
171
     0
175
     0
179
     0
273
     0
  0
XRECORD
  5
3E9
102
{ACAD_REACTORS
330
3E7
102
}
330
3E7
100
AcDbXrecord
280
     1
270
     1
271
     1
  0
XRECORD
  5
3E8
102
{ACAD_REACTORS
330
3E7
102
}
330
3E7
100
AcDbXrecord
280
     1
270
     1
271
     1
  0
XRECORD
  5
3EC
102
{ACAD_REACTORS
330
3E7
102
}
330
3E7
100
AcDbXrecord
280
     1
270
     1
271
     1
  0
XRECORD
  5
3EB
102
{ACAD_REACTORS
330
3E7
102
}
330
3E7
100
AcDbXrecord
280
     1
270
     1
271
     1
  0
XRECORD
  5
3ED
102
{ACAD_REACTORS
330
3E7
102
}
330
3E7
100
AcDbXrecord
280
     1
270
     1
271
     1
  0
XRECORD
  5
3EA
102
{ACAD_REACTORS
330
3E7
102
}
330
3E7
100
AcDbXrecord
280
     1
270
     1
271
     1
  0
XRECORD
  5
4F3
102
{ACAD_REACTORS
330
3DF
102
}
330
3DF
100
AcDbXrecord
280
     1
102
MATERIAL
148
0.0
149
0.0
149
0.0
 93
        0
 94
      127
282
     0
 72
     0
 77
     0
171
     0
175
     0
179
     0
273
     0
  0
XRECORD
  5
3E1
102
{ACAD_REACTORS
330
3DF
102
}
330
3DF
100
AcDbXrecord
280
     1
270
     1
271
     1
  0
XRECORD
  5
3E0
102
{ACAD_REACTORS
330
3DF
102
}
330
3DF
100
AcDbXrecord
280
     1
270
     1
271
     1
  0
XRECORD
  5
3E4
102
{ACAD_REACTORS
330
3DF
102
}
330
3DF
100
AcDbXrecord
280
     1
270
     1
271
     1
  0
XRECORD
  5
3E3
102
{ACAD_REACTORS
330
3DF
102
}
330
3DF
100
AcDbXrecord
280
     1
270
     1
271
     1
  0
XRECORD
  5
3E5
102
{ACAD_REACTORS
330
3DF
102
}
330
3DF
100
AcDbXrecord
280
     1
270
     1
271
     1
  0
XRECORD
  5
3E2
102
{ACAD_REACTORS
330
3DF
102
}
330
3DF
100
AcDbXrecord
280
     1
270
     1
271
     1
  0
XRECORD
  5
4F5
102
{ACAD_REACTORS
330
3EF
102
}
330
3EF
100
AcDbXrecord
280
     1
102
MATERIAL
148
0.0
149
0.0
149
0.0
 93
        0
 94
      127
282
     0
 72
     0
 77
     0
171
     0
175
     0
179
     0
273
     0
  0
XRECORD
  5
3F1
102
{ACAD_REACTORS
330
3EF
102
}
330
3EF
100
AcDbXrecord
280
     1
270
     1
271
     1
  0
XRECORD
  5
3F0
102
{ACAD_REACTORS
330
3EF
102
}
330
3EF
100
AcDbXrecord
280
     1
270
     1
271
     1
  0
XRECORD
  5
3F4
102
{ACAD_REACTORS
330
3EF
102
}
330
3EF
100
AcDbXrecord
280
     1
270
     1
271
     1
  0
XRECORD
  5
3F3
102
{ACAD_REACTORS
330
3EF
102
}
330
3EF
100
AcDbXrecord
280
     1
270
     1
271
     1
  0
XRECORD
  5
3F5
102
{ACAD_REACTORS
330
3EF
102
}
330
3EF
100
AcDbXrecord
280
     1
270
     1
271
     1
  0
XRECORD
  5
3F2
102
{ACAD_REACTORS
330
3EF
102
}
330
3EF
100
AcDbXrecord
280
     1
270
     1
271
     1
  0
CELLSTYLEMAP
  5
4EE
102
{ACAD_REACTORS
330
4ED
102
}
330
4ED
100
AcDbCellStyleMap
 90
        3
300
CELLSTYLE
  1
TABLEFORMAT_BEGIN
 90
        5
170
     1
 91
        0
 92
    32768
 62
   257
 93
        1
300
CONTENTFORMAT
  1
CONTENTFORMAT_BEGIN
 90
        0
 91
        0
 92
      512
 93
        0
300

 40
0.0
140
1.0
 94
        5
 62
     0
340
F
144
6.0
309
CONTENTFORMAT_END
171
     1
301
MARGIN
  1
CELLMARGIN_BEGIN
 40
1.5
 40
1.5
 40
1.5
 40
1.5
 40
4.5
 40
4.5
309
CELLMARGIN_END
 94
        6
 95
        1
302
GRIDFORMAT
  1
GRIDFORMAT_BEGIN
 90
        0
 91
        1
 62
     0
 92
       -2
340
0
 93
        0
 40
1.125
309
GRIDFORMAT_END
 95
        2
302
GRIDFORMAT
  1
GRIDFORMAT_BEGIN
 90
        0
 91
        1
 62
     0
 92
       -2
340
0
 93
        0
 40
1.125
309
GRIDFORMAT_END
 95
        4
302
GRIDFORMAT
  1
GRIDFORMAT_BEGIN
 90
        0
 91
        1
 62
     0
 92
       -2
340
0
 93
        0
 40
1.125
309
GRIDFORMAT_END
 95
        8
302
GRIDFORMAT
  1
GRIDFORMAT_BEGIN
 90
        0
 91
        1
 62
     0
 92
       -2
340
0
 93
        0
 40
1.125
309
GRIDFORMAT_END
 95
       16
302
GRIDFORMAT
  1
GRIDFORMAT_BEGIN
 90
        0
 91
        1
 62
     0
 92
       -2
340
0
 93
        0
 40
1.125
309
GRIDFORMAT_END
 95
       32
302
GRIDFORMAT
  1
GRIDFORMAT_BEGIN
 90
        0
 91
        1
 62
     0
 92
       -2
340
0
 93
        0
 40
1.125
309
GRIDFORMAT_END
309
TABLEFORMAT_END
  1
CELLSTYLE_BEGIN
 90
        1
 91
        1
300
_TITLE
309
CELLSTYLE_END
300
CELLSTYLE
  1
TABLEFORMAT_BEGIN
 90
        5
170
     1
 91
        0
 92
        0
 62
   257
 93
        1
300
CONTENTFORMAT
  1
CONTENTFORMAT_BEGIN
 90
        0
 91
        0
 92
      512
 93
        0
300

 40
0.0
140
1.0
 94
        5
 62
     0
340
F
144
4.5
309
CONTENTFORMAT_END
171
     1
301
MARGIN
  1
CELLMARGIN_BEGIN
 40
1.5
 40
1.5
 40
1.5
 40
1.5
 40
4.5
 40
4.5
309
CELLMARGIN_END
 94
        6
 95
        1
302
GRIDFORMAT
  1
GRIDFORMAT_BEGIN
 90
        0
 91
        1
 62
     0
 92
       -2
340
0
 93
        0
 40
1.125
309
GRIDFORMAT_END
 95
        2
302
GRIDFORMAT
  1
GRIDFORMAT_BEGIN
 90
        0
 91
        1
 62
     0
 92
       -2
340
0
 93
        0
 40
1.125
309
GRIDFORMAT_END
 95
        4
302
GRIDFORMAT
  1
GRIDFORMAT_BEGIN
 90
        0
 91
        1
 62
     0
 92
       -2
340
0
 93
        0
 40
1.125
309
GRIDFORMAT_END
 95
        8
302
GRIDFORMAT
  1
GRIDFORMAT_BEGIN
 90
        0
 91
        1
 62
     0
 92
       -2
340
0
 93
        0
 40
1.125
309
GRIDFORMAT_END
 95
       16
302
GRIDFORMAT
  1
GRIDFORMAT_BEGIN
 90
        0
 91
        1
 62
     0
 92
       -2
340
0
 93
        0
 40
1.125
309
GRIDFORMAT_END
 95
       32
302
GRIDFORMAT
  1
GRIDFORMAT_BEGIN
 90
        0
 91
        1
 62
     0
 92
       -2
340
0
 93
        0
 40
1.125
309
GRIDFORMAT_END
309
TABLEFORMAT_END
  1
CELLSTYLE_BEGIN
 90
        2
 91
        1
300
_HEADER
309
CELLSTYLE_END
300
CELLSTYLE
  1
TABLEFORMAT_BEGIN
 90
        5
170
     1
 91
        0
 92
        0
 62
   257
 93
        1
300
CONTENTFORMAT
  1
CONTENTFORMAT_BEGIN
 90
        0
 91
        0
 92
      512
 93
        0
300

 40
0.0
140
1.0
 94
        2
 62
     0
340
F
144
4.5
309
CONTENTFORMAT_END
171
     1
301
MARGIN
  1
CELLMARGIN_BEGIN
 40
1.5
 40
1.5
 40
1.5
 40
1.5
 40
4.5
 40
4.5
309
CELLMARGIN_END
 94
        6
 95
        1
302
GRIDFORMAT
  1
GRIDFORMAT_BEGIN
 90
        0
 91
        1
 62
     0
 92
       -2
340
0
 93
        0
 40
1.125
309
GRIDFORMAT_END
 95
        2
302
GRIDFORMAT
  1
GRIDFORMAT_BEGIN
 90
        0
 91
        1
 62
     0
 92
       -2
340
0
 93
        0
 40
1.125
309
GRIDFORMAT_END
 95
        4
302
GRIDFORMAT
  1
GRIDFORMAT_BEGIN
 90
        0
 91
        1
 62
     0
 92
       -2
340
0
 93
        0
 40
1.125
309
GRIDFORMAT_END
 95
        8
302
GRIDFORMAT
  1
GRIDFORMAT_BEGIN
 90
        0
 91
        1
 62
     0
 92
       -2
340
0
 93
        0
 40
1.125
309
GRIDFORMAT_END
 95
       16
302
GRIDFORMAT
  1
GRIDFORMAT_BEGIN
 90
        0
 91
        1
 62
     0
 92
       -2
340
0
 93
        0
 40
1.125
309
GRIDFORMAT_END
 95
       32
302
GRIDFORMAT
  1
GRIDFORMAT_BEGIN
 90
        0
 91
        1
 62
     0
 92
       -2
340
0
 93
        0
 40
1.125
309
GRIDFORMAT_END
309
TABLEFORMAT_END
  1
CELLSTYLE_BEGIN
 90
        3
 91
        2
300
_DATA
309
CELLSTYLE_END
  0
XRECORD
  5
51C
102
{ACAD_REACTORS
330
4ED
102
}
330
4ED
100
AcDbXrecord
280
     1
102
ACAD_ROUNDTRIP_PRE2007_TABLESTYLE
 90
      512
 91
        0
  1

 92
      512
 93
        0
  2

 94
      512
 95
        0
  3

  0
XRECORD
  5
501
102
{ACAD_REACTORS
330
500
102
}
330
500
100
AcDbXrecord
280
     1
102
RTVSPropertyOp0
 70
     1
102
RTVSPropertyOp1
 70
     1
102
RTVSPropertyOp2
 70
     1
102
RTVSPropertyOp3
 70
     1
102
RTVSPropertyOp4
 70
     1
102
RTVSPropertyOp5
 70
     1
102
RTVSPropertyOp6
 70
     1
102
RTVSPropertyOp7
 70
     1
102
RTVSPropertyOp8
 70
     1
102
RTVSPropertyOp9
 70
     1
102
RTVSPropertyOp10
 70
     1
102
RTVSPropertyOp11
 70
     1
102
RTVSPropertyOp12
 70
     1
102
RTVSPropertyOp13
 70
     1
102
RTVSPropertyOp14
 70
     1
102
RTVSPropertyOp15
 70
     1
102
RTVSPropertyOp16
 70
     1
102
RTVSPropertyOp17
 70
     1
102
RTVSPropertyOp18
 70
     1
102
RTVSPropertyOp19
 70
     1
102
RTVSPropertyOp20
 70
     1
102
RTVSPropertyOp21
 70
     1
102
RTVSPropertyOp22
 70
     1
102
RTVSPropertyOp23
 70
     1
102
RTVSPropertyOp24
 70
     1
102
RTVSPropertyOp25
 70
     1
102
RTVSPropertyOp26
 70
     1
102
RTVSPropertyOp27
 70
     1
  0
XRECORD
  5
505
102
{ACAD_REACTORS
330
504
102
}
330
504
100
AcDbXrecord
280
     1
102
RTVSPropertyOp0
 70
     1
102
RTVSPropertyOp1
 70
     1
102
RTVSPropertyOp2
 70
     1
102
RTVSPropertyOp3
 70
     1
102
RTVSPropertyOp4
 70
     1
102
RTVSPropertyOp5
 70
     1
102
RTVSPropertyOp6
 70
     1
102
RTVSPropertyOp7
 70
     1
102
RTVSPropertyOp8
 70
     1
102
RTVSPropertyOp9
 70
     1
102
RTVSPropertyOp10
 70
     1
102
RTVSPropertyOp11
 70
     1
102
RTVSPropertyOp12
 70
     1
102
RTVSPropertyOp13
 70
     1
102
RTVSPropertyOp14
 70
     1
102
RTVSPropertyOp15
 70
     1
102
RTVSPropertyOp16
 70
     1
102
RTVSPropertyOp17
 70
     1
102
RTVSPropertyOp18
 70
     1
102
RTVSPropertyOp19
 70
     1
102
RTVSPropertyOp20
 70
     1
102
RTVSPropertyOp21
 70
     1
102
RTVSPropertyOp22
 70
     1
102
RTVSPropertyOp23
 70
     1
102
RTVSPropertyOp24
 70
     1
102
RTVSPropertyOp25
 70
     1
102
RTVSPropertyOp26
 70
     1
102
RTVSPropertyOp27
 70
     1
  0
XRECORD
  5
503
102
{ACAD_REACTORS
330
502
102
}
330
502
100
AcDbXrecord
280
     1
102
RTVSPropertyOp0
 70
     1
102
RTVSPropertyOp1
 70
     1
102
RTVSPropertyOp2
 70
     1
102
RTVSPropertyOp3
 70
     1
102
RTVSPropertyOp4
 70
     1
102
RTVSPropertyOp5
 70
     1
102
RTVSPropertyOp6
 70
     1
102
RTVSPropertyOp7
 70
     1
102
RTVSPropertyOp8
 70
     1
102
RTVSPropertyOp9
 70
     1
102
RTVSPropertyOp10
 70
     1
102
RTVSPropertyOp11
 70
     1
102
RTVSPropertyOp12
 70
     1
102
RTVSPropertyOp13
 70
     1
102
RTVSPropertyOp14
 70
     1
102
RTVSPropertyOp15
 70
     1
102
RTVSPropertyOp16
 70
     1
102
RTVSPropertyOp17
 70
     1
102
RTVSPropertyOp18
 70
     1
102
RTVSPropertyOp19
 70
     1
102
RTVSPropertyOp20
 70
     1
102
RTVSPropertyOp21
 70
     1
102
RTVSPropertyOp22
 70
     1
102
RTVSPropertyOp23
 70
     1
102
RTVSPropertyOp24
 70
     1
102
RTVSPropertyOp25
 70
     1
102
RTVSPropertyOp26
 70
     1
102
RTVSPropertyOp27
 70
     1
  0
XRECORD
  5
4FF
102
{ACAD_REACTORS
330
4FE
102
}
330
4FE
100
AcDbXrecord
280
     1
102
RTVSPropertyOp0
 70
     1
102
RTVSPropertyOp1
 70
     1
102
RTVSPropertyOp2
 70
     1
102
RTVSPropertyOp3
 70
     1
102
RTVSPropertyOp4
 70
     1
102
RTVSPropertyOp5
 70
     1
102
RTVSPropertyOp6
 70
     1
102
RTVSPropertyOp7
 70
     1
102
RTVSPropertyOp8
 70
     1
102
RTVSPropertyOp9
 70
     1
102
RTVSPropertyOp10
 70
     1
102
RTVSPropertyOp11
 70
     1
102
RTVSPropertyOp12
 70
     1
102
RTVSPropertyOp13
 70
     1
102
RTVSPropertyOp14
 70
     1
102
RTVSPropertyOp15
 70
     1
102
RTVSPropertyOp16
 70
     1
102
RTVSPropertyOp17
 70
     1
102
RTVSPropertyOp18
 70
     1
102
RTVSPropertyOp19
 70
     1
102
RTVSPropertyOp20
 70
     1
102
RTVSPropertyOp21
 70
     1
102
RTVSPropertyOp22
 70
     1
102
RTVSPropertyOp23
 70
     1
102
RTVSPropertyOp24
 70
     1
102
RTVSPropertyOp25
 70
     1
102
RTVSPropertyOp26
 70
     1
102
RTVSPropertyOp27
 70
     1
  0
XRECORD
  5
50D
102
{ACAD_REACTORS
330
50C
102
}
330
50C
100
AcDbXrecord
280
     1
102
RTVSPropertyOp0
 70
     1
102
RTVSPropertyOp1
 70
     1
102
RTVSPropertyOp2
 70
     1
102
RTVSPropertyOp3
 70
     1
102
RTVSPropertyOp4
 70
     1
102
RTVSPropertyOp5
 70
     1
102
RTVSPropertyOp6
 70
     1
102
RTVSPropertyOp7
 70
     1
102
RTVSPropertyOp8
 70
     1
102
RTVSPropertyOp9
 70
     1
102
RTVSPropertyOp10
 70
     1
102
RTVSPropertyOp11
 70
     1
102
RTVSPropertyOp12
 70
     1
102
RTVSPropertyOp13
 70
     1
102
RTVSPropertyOp14
 70
     1
102
RTVSPropertyOp15
 70
     1
102
RTVSPropertyOp16
 70
     1
102
RTVSPropertyOp17
 70
     1
102
RTVSPropertyOp18
 70
     1
102
RTVSPropertyOp19
 70
     1
102
RTVSPropertyOp20
 70
     1
102
RTVSPropertyOp21
 70
     1
102
RTVSPropertyOp22
 70
     1
102
RTVSPropertyOp23
 70
     1
102
RTVSPropertyOp24
 70
     1
102
RTVSPropertyOp25
 70
     1
102
RTVSPropertyOp26
 70
     1
102
RTVSPropertyOp27
 70
     1
  0
XRECORD
  5
515
102
{ACAD_REACTORS
330
514
102
}
330
514
100
AcDbXrecord
280
     1
102
RTVSPropertyOp0
 70
     1
102
RTVSPropertyOp1
 70
     1
102
RTVSPropertyOp2
 70
     1
102
RTVSPropertyOp3
 70
     1
102
RTVSPropertyOp4
 70
     1
102
RTVSPropertyOp5
 70
     1
102
RTVSPropertyOp6
 70
     1
102
RTVSPropertyOp7
 70
     1
102
RTVSPropertyOp8
 70
     1
102
RTVSPropertyOp9
 70
     1
102
RTVSPropertyOp10
 70
     1
102
RTVSPropertyOp11
 70
     1
102
RTVSPropertyOp12
 70
     1
102
RTVSPropertyOp13
 70
     1
102
RTVSPropertyOp14
 70
     1
102
RTVSPropertyOp15
 70
     1
102
RTVSPropertyOp16
 70
     1
102
RTVSPropertyOp17
 70
     1
102
RTVSPropertyOp18
 70
     1
102
RTVSPropertyOp19
 70
     1
102
RTVSPropertyOp20
 70
     1
102
RTVSPropertyOp21
 70
     1
102
RTVSPropertyOp22
 70
     1
102
RTVSPropertyOp23
 70
     1
102
RTVSPropertyOp24
 70
     1
102
RTVSPropertyOp25
 70
     1
102
RTVSPropertyOp26
 70
     1
102
RTVSPropertyOp27
 70
     1
  0
XRECORD
  5
507
102
{ACAD_REACTORS
330
506
102
}
330
506
100
AcDbXrecord
280
     1
102
RTVSPropertyOp0
 70
     1
102
RTVSPropertyOp1
 70
     1
102
RTVSPropertyOp2
 70
     1
102
RTVSPropertyOp3
 70
     1
102
RTVSPropertyOp4
 70
     1
102
RTVSPropertyOp5
 70
     1
102
RTVSPropertyOp6
 70
     1
102
RTVSPropertyOp7
 70
     1
102
RTVSPropertyOp8
 70
     1
102
RTVSPropertyOp9
 70
     1
102
RTVSPropertyOp10
 70
     1
102
RTVSPropertyOp11
 70
     1
102
RTVSPropertyOp12
 70
     1
102
RTVSPropertyOp13
 70
     1
102
RTVSPropertyOp14
 70
     1
102
RTVSPropertyOp15
 70
     1
102
RTVSPropertyOp16
 70
     1
102
RTVSPropertyOp17
 70
     1
102
RTVSPropertyOp18
 70
     1
102
RTVSPropertyOp19
 70
     1
102
RTVSPropertyOp20
 70
     1
102
RTVSPropertyOp21
 70
     1
102
RTVSPropertyOp22
 70
     1
102
RTVSPropertyOp23
 70
     1
102
RTVSPropertyOp24
 70
     1
102
RTVSPropertyOp25
 70
     1
102
RTVSPropertyOp26
 70
     1
102
RTVSPropertyOp27
 70
     1
  0
XRECORD
  5
50B
102
{ACAD_REACTORS
330
50A
102
}
330
50A
100
AcDbXrecord
280
     1
102
RTVSPropertyOp0
 70
     1
102
RTVSPropertyOp1
 70
     1
102
RTVSPropertyOp2
 70
     1
102
RTVSPropertyOp3
 70
     1
102
RTVSPropertyOp4
 70
     1
102
RTVSPropertyOp5
 70
     1
102
RTVSPropertyOp6
 70
     1
102
RTVSPropertyOp7
 70
     1
102
RTVSPropertyOp8
 70
     1
102
RTVSPropertyOp9
 70
     1
102
RTVSPropertyOp10
 70
     1
102
RTVSPropertyOp11
 70
     1
102
RTVSPropertyOp12
 70
     1
102
RTVSPropertyOp13
 70
     1
102
RTVSPropertyOp14
 70
     1
102
RTVSPropertyOp15
 70
     1
102
RTVSPropertyOp16
 70
     1
102
RTVSPropertyOp17
 70
     1
102
RTVSPropertyOp18
 70
     1
102
RTVSPropertyOp19
 70
     1
102
RTVSPropertyOp20
 70
     1
102
RTVSPropertyOp21
 70
     1
102
RTVSPropertyOp22
 70
     1
102
RTVSPropertyOp23
 70
     1
102
RTVSPropertyOp24
 70
     1
102
RTVSPropertyOp25
 70
     1
102
RTVSPropertyOp26
 70
     1
102
RTVSPropertyOp27
 70
     1
  0
XRECORD
  5
51B
102
{ACAD_REACTORS
330
51A
102
}
330
51A
100
AcDbXrecord
280
     1
102
RTVSPropertyOp0
 70
     0
102
RTVSPropertyOp1
 70
     0
102
RTVSPropertyOp2
 70
     0
102
RTVSPropertyOp3
 70
     0
102
RTVSPropertyOp4
 70
     0
102
RTVSPropertyOp5
 70
     0
102
RTVSPropertyOp6
 70
     0
102
RTVSPropertyOp7
 70
     0
102
RTVSPropertyOp8
 70
     0
102
RTVSPropertyOp9
 70
     0
102
RTVSPropertyOp10
 70
     0
102
RTVSPropertyOp11
 70
     0
102
RTVSPropertyOp12
 70
     0
102
RTVSPropertyOp13
 70
     0
102
RTVSPropertyOp14
 70
     2
102
RTVSPropertyOp15
 70
     0
102
RTVSPropertyOp16
 70
     0
102
RTVSPropertyOp17
 70
     0
102
RTVSPropertyOp18
 70
     0
102
RTVSPropertyOp19
 70
     0
102
RTVSPropertyOp20
 70
     0
102
RTVSPropertyOp21
 70
     0
102
RTVSPropertyOp22
 70
     0
102
RTVSPropertyOp23
 70
     0
102
RTVSPropertyOp24
 70
     0
102
RTVSPropertyOp25
 70
     0
102
RTVSPropertyOp26
 70
     0
102
RTVSPropertyOp27
 70
     0
  0
XRECORD
  5
513
102
{ACAD_REACTORS
330
512
102
}
330
512
100
AcDbXrecord
280
     1
102
RTVSPropertyOp0
 70
     1
102
RTVSPropertyOp1
 70
     1
102
RTVSPropertyOp2
 70
     1
102
RTVSPropertyOp3
 70
     1
102
RTVSPropertyOp4
 70
     1
102
RTVSPropertyOp5
 70
     1
102
RTVSPropertyOp6
 70
     1
102
RTVSPropertyOp7
 70
     1
102
RTVSPropertyOp8
 70
     1
102
RTVSPropertyOp9
 70
     1
102
RTVSPropertyOp10
 70
     1
102
RTVSPropertyOp11
 70
     1
102
RTVSPropertyOp12
 70
     1
102
RTVSPropertyOp13
 70
     1
102
RTVSPropertyOp14
 70
     1
102
RTVSPropertyOp15
 70
     1
102
RTVSPropertyOp16
 70
     1
102
RTVSPropertyOp17
 70
     1
102
RTVSPropertyOp18
 70
     1
102
RTVSPropertyOp19
 70
     1
102
RTVSPropertyOp20
 70
     1
102
RTVSPropertyOp21
 70
     1
102
RTVSPropertyOp22
 70
     1
102
RTVSPropertyOp23
 70
     1
102
RTVSPropertyOp24
 70
     1
102
RTVSPropertyOp25
 70
     1
102
RTVSPropertyOp26
 70
     1
102
RTVSPropertyOp27
 70
     1
  0
XRECORD
  5
4F7
102
{ACAD_REACTORS
330
4F6
102
}
330
4F6
100
AcDbXrecord
280
     1
102
RTVSPropertyOp0
 70
     1
102
RTVSPropertyOp1
 70
     1
102
RTVSPropertyOp2
 70
     1
102
RTVSPropertyOp3
 70
     1
102
RTVSPropertyOp4
 70
     1
102
RTVSPropertyOp5
 70
     1
102
RTVSPropertyOp6
 70
     1
102
RTVSPropertyOp7
 70
     1
102
RTVSPropertyOp8
 70
     1
102
RTVSPropertyOp9
 70
     1
102
RTVSPropertyOp10
 70
     1
102
RTVSPropertyOp11
 70
     1
102
RTVSPropertyOp12
 70
     1
102
RTVSPropertyOp13
 70
     1
102
RTVSPropertyOp14
 70
     1
102
RTVSPropertyOp15
 70
     1
102
RTVSPropertyOp16
 70
     1
102
RTVSPropertyOp17
 70
     1
102
RTVSPropertyOp18
 70
     1
102
RTVSPropertyOp19
 70
     1
102
RTVSPropertyOp20
 70
     1
102
RTVSPropertyOp21
 70
     1
102
RTVSPropertyOp22
 70
     1
102
RTVSPropertyOp23
 70
     1
102
RTVSPropertyOp24
 70
     1
102
RTVSPropertyOp25
 70
     1
102
RTVSPropertyOp26
 70
     1
102
RTVSPropertyOp27
 70
     1
  0
XRECORD
  5
4F9
102
{ACAD_REACTORS
330
4F8
102
}
330
4F8
100
AcDbXrecord
280
     1
102
RTVSPropertyOp0
 70
     1
102
RTVSPropertyOp1
 70
     1
102
RTVSPropertyOp2
 70
     1
102
RTVSPropertyOp3
 70
     1
102
RTVSPropertyOp4
 70
     1
102
RTVSPropertyOp5
 70
     1
102
RTVSPropertyOp6
 70
     1
102
RTVSPropertyOp7
 70
     1
102
RTVSPropertyOp8
 70
     1
102
RTVSPropertyOp9
 70
     1
102
RTVSPropertyOp10
 70
     1
102
RTVSPropertyOp11
 70
     1
102
RTVSPropertyOp12
 70
     1
102
RTVSPropertyOp13
 70
     1
102
RTVSPropertyOp14
 70
     1
102
RTVSPropertyOp15
 70
     1
102
RTVSPropertyOp16
 70
     1
102
RTVSPropertyOp17
 70
     1
102
RTVSPropertyOp18
 70
     1
102
RTVSPropertyOp19
 70
     1
102
RTVSPropertyOp20
 70
     1
102
RTVSPropertyOp21
 70
     1
102
RTVSPropertyOp22
 70
     1
102
RTVSPropertyOp23
 70
     1
102
RTVSPropertyOp24
 70
     1
102
RTVSPropertyOp25
 70
     1
102
RTVSPropertyOp26
 70
     1
102
RTVSPropertyOp27
 70
     1
  0
XRECORD
  5
4FB
102
{ACAD_REACTORS
330
4FA
102
}
330
4FA
100
AcDbXrecord
280
     1
102
RTVSPropertyOp0
 70
     1
102
RTVSPropertyOp1
 70
     1
102
RTVSPropertyOp2
 70
     1
102
RTVSPropertyOp3
 70
     1
102
RTVSPropertyOp4
 70
     1
102
RTVSPropertyOp5
 70
     1
102
RTVSPropertyOp6
 70
     1
102
RTVSPropertyOp7
 70
     1
102
RTVSPropertyOp8
 70
     1
102
RTVSPropertyOp9
 70
     1
102
RTVSPropertyOp10
 70
     1
102
RTVSPropertyOp11
 70
     1
102
RTVSPropertyOp12
 70
     1
102
RTVSPropertyOp13
 70
     1
102
RTVSPropertyOp14
 70
     1
102
RTVSPropertyOp15
 70
     1
102
RTVSPropertyOp16
 70
     1
102
RTVSPropertyOp17
 70
     1
102
RTVSPropertyOp18
 70
     1
102
RTVSPropertyOp19
 70
     1
102
RTVSPropertyOp20
 70
     1
102
RTVSPropertyOp21
 70
     1
102
RTVSPropertyOp22
 70
     1
102
RTVSPropertyOp23
 70
     1
102
RTVSPropertyOp24
 70
     1
102
RTVSPropertyOp25
 70
     1
102
RTVSPropertyOp26
 70
     1
102
RTVSPropertyOp27
 70
     1
  0
XRECORD
  5
4FD
102
{ACAD_REACTORS
330
4FC
102
}
330
4FC
100
AcDbXrecord
280
     1
102
RTVSPropertyOp0
 70
     1
102
RTVSPropertyOp1
 70
     1
102
RTVSPropertyOp2
 70
     1
102
RTVSPropertyOp3
 70
     1
102
RTVSPropertyOp4
 70
     1
102
RTVSPropertyOp5
 70
     1
102
RTVSPropertyOp6
 70
     1
102
RTVSPropertyOp7
 70
     1
102
RTVSPropertyOp8
 70
     1
102
RTVSPropertyOp9
 70
     1
102
RTVSPropertyOp10
 70
     1
102
RTVSPropertyOp11
 70
     1
102
RTVSPropertyOp12
 70
     1
102
RTVSPropertyOp13
 70
     1
102
RTVSPropertyOp14
 70
     1
102
RTVSPropertyOp15
 70
     1
102
RTVSPropertyOp16
 70
     1
102
RTVSPropertyOp17
 70
     1
102
RTVSPropertyOp18
 70
     1
102
RTVSPropertyOp19
 70
     1
102
RTVSPropertyOp20
 70
     1
102
RTVSPropertyOp21
 70
     1
102
RTVSPropertyOp22
 70
     1
102
RTVSPropertyOp23
 70
     1
102
RTVSPropertyOp24
 70
     1
102
RTVSPropertyOp25
 70
     1
102
RTVSPropertyOp26
 70
     1
102
RTVSPropertyOp27
 70
     1
  0
XRECORD
  5
517
102
{ACAD_REACTORS
330
516
102
}
330
516
100
AcDbXrecord
280
     1
102
RTVSPropertyOp0
 70
     0
102
RTVSPropertyOp1
 70
     0
102
RTVSPropertyOp2
 70
     0
102
RTVSPropertyOp3
 70
     0
102
RTVSPropertyOp4
 70
     0
102
RTVSPropertyOp5
 70
     0
102
RTVSPropertyOp6
 70
     0
102
RTVSPropertyOp7
 70
     0
102
RTVSPropertyOp8
 70
     0
102
RTVSPropertyOp9
 70
     0
102
RTVSPropertyOp10
 70
     0
102
RTVSPropertyOp11
 70
     0
102
RTVSPropertyOp12
 70
     0
102
RTVSPropertyOp13
 70
     0
102
RTVSPropertyOp14
 70
     2
102
RTVSPropertyOp15
 70
     0
102
RTVSPropertyOp16
 70
     0
102
RTVSPropertyOp17
 70
     0
102
RTVSPropertyOp18
 70
     0
102
RTVSPropertyOp19
 70
     0
102
RTVSPropertyOp20
 70
     0
102
RTVSPropertyOp21
 70
     0
102
RTVSPropertyOp22
 70
     0
102
RTVSPropertyOp23
 70
     0
102
RTVSPropertyOp24
 70
     0
102
RTVSPropertyOp25
 70
     0
102
RTVSPropertyOp26
 70
     0
102
RTVSPropertyOp27
 70
     0
  0
XRECORD
  5
511
102
{ACAD_REACTORS
330
510
102
}
330
510
100
AcDbXrecord
280
     1
102
RTVSPropertyOp0
 70
     1
102
RTVSPropertyOp1
 70
     1
102
RTVSPropertyOp2
 70
     1
102
RTVSPropertyOp3
 70
     1
102
RTVSPropertyOp4
 70
     1
102
RTVSPropertyOp5
 70
     1
102
RTVSPropertyOp6
 70
     1
102
RTVSPropertyOp7
 70
     1
102
RTVSPropertyOp8
 70
     1
102
RTVSPropertyOp9
 70
     1
102
RTVSPropertyOp10
 70
     1
102
RTVSPropertyOp11
 70
     1
102
RTVSPropertyOp12
 70
     1
102
RTVSPropertyOp13
 70
     1
102
RTVSPropertyOp14
 70
     1
102
RTVSPropertyOp15
 70
     1
102
RTVSPropertyOp16
 70
     1
102
RTVSPropertyOp17
 70
     1
102
RTVSPropertyOp18
 70
     1
102
RTVSPropertyOp19
 70
     1
102
RTVSPropertyOp20
 70
     1
102
RTVSPropertyOp21
 70
     1
102
RTVSPropertyOp22
 70
     1
102
RTVSPropertyOp23
 70
     1
102
RTVSPropertyOp24
 70
     1
102
RTVSPropertyOp25
 70
     1
102
RTVSPropertyOp26
 70
     1
102
RTVSPropertyOp27
 70
     1
  0
XRECORD
  5
519
102
{ACAD_REACTORS
330
518
102
}
330
518
100
AcDbXrecord
280
     1
102
RTVSPropertyOp0
 70
     0
102
RTVSPropertyOp1
 70
     0
102
RTVSPropertyOp2
 70
     0
102
RTVSPropertyOp3
 70
     0
102
RTVSPropertyOp4
 70
     0
102
RTVSPropertyOp5
 70
     0
102
RTVSPropertyOp6
 70
     0
102
RTVSPropertyOp7
 70
     0
102
RTVSPropertyOp8
 70
     0
102
RTVSPropertyOp9
 70
     0
102
RTVSPropertyOp10
 70
     0
102
RTVSPropertyOp11
 70
     0
102
RTVSPropertyOp12
 70
     0
102
RTVSPropertyOp13
 70
     0
102
RTVSPropertyOp14
 70
     2
102
RTVSPropertyOp15
 70
     0
102
RTVSPropertyOp16
 70
     0
102
RTVSPropertyOp17
 70
     0
102
RTVSPropertyOp18
 70
     0
102
RTVSPropertyOp19
 70
     0
102
RTVSPropertyOp20
 70
     0
102
RTVSPropertyOp21
 70
     0
102
RTVSPropertyOp22
 70
     0
102
RTVSPropertyOp23
 70
     0
102
RTVSPropertyOp24
 70
     0
102
RTVSPropertyOp25
 70
     0
102
RTVSPropertyOp26
 70
     0
102
RTVSPropertyOp27
 70
     0
  0
XRECORD
  5
509
102
{ACAD_REACTORS
330
508
102
}
330
508
100
AcDbXrecord
280
     1
102
RTVSPropertyOp0
 70
     1
102
RTVSPropertyOp1
 70
     1
102
RTVSPropertyOp2
 70
     1
102
RTVSPropertyOp3
 70
     1
102
RTVSPropertyOp4
 70
     1
102
RTVSPropertyOp5
 70
     1
102
RTVSPropertyOp6
 70
     1
102
RTVSPropertyOp7
 70
     1
102
RTVSPropertyOp8
 70
     1
102
RTVSPropertyOp9
 70
     1
102
RTVSPropertyOp10
 70
     1
102
RTVSPropertyOp11
 70
     1
102
RTVSPropertyOp12
 70
     1
102
RTVSPropertyOp13
 70
     1
102
RTVSPropertyOp14
 70
     1
102
RTVSPropertyOp15
 70
     1
102
RTVSPropertyOp16
 70
     1
102
RTVSPropertyOp17
 70
     1
102
RTVSPropertyOp18
 70
     1
102
RTVSPropertyOp19
 70
     1
102
RTVSPropertyOp20
 70
     1
102
RTVSPropertyOp21
 70
     1
102
RTVSPropertyOp22
 70
     1
102
RTVSPropertyOp23
 70
     1
102
RTVSPropertyOp24
 70
     1
102
RTVSPropertyOp25
 70
     1
102
RTVSPropertyOp26
 70
     1
102
RTVSPropertyOp27
 70
     1
  0
XRECORD
  5
50F
102
{ACAD_REACTORS
330
50E
102
}
330
50E
100
AcDbXrecord
280
     1
102
RTVSPropertyOp0
 70
     1
102
RTVSPropertyOp1
 70
     1
102
RTVSPropertyOp2
 70
     1
102
RTVSPropertyOp3
 70
     1
102
RTVSPropertyOp4
 70
     1
102
RTVSPropertyOp5
 70
     1
102
RTVSPropertyOp6
 70
     1
102
RTVSPropertyOp7
 70
     1
102
RTVSPropertyOp8
 70
     1
102
RTVSPropertyOp9
 70
     1
102
RTVSPropertyOp10
 70
     1
102
RTVSPropertyOp11
 70
     1
102
RTVSPropertyOp12
 70
     1
102
RTVSPropertyOp13
 70
     1
102
RTVSPropertyOp14
 70
     1
102
RTVSPropertyOp15
 70
     1
102
RTVSPropertyOp16
 70
     1
102
RTVSPropertyOp17
 70
     1
102
RTVSPropertyOp18
 70
     1
102
RTVSPropertyOp19
 70
     1
102
RTVSPropertyOp20
 70
     1
102
RTVSPropertyOp21
 70
     1
102
RTVSPropertyOp22
 70
     1
102
RTVSPropertyOp23
 70
     1
102
RTVSPropertyOp24
 70
     1
102
RTVSPropertyOp25
 70
     1
102
RTVSPropertyOp26
 70
     1
102
RTVSPropertyOp27
 70
     1
  0
DICTIONARY
  5
498
102
{ACAD_REACTORS
330
497
102
}
330
497
100
AcDbDictionary
280
     1
281
     1
  3
PH_GRPMEMBERS
360
499
  0
PH_GROUP
  5
49A
102
{ACAD_REACTORS
330
497
102
}
330
497
  0
PH_GROUP
  5
499
102
{ACAD_REACTORS
330
498
102
}
330
498
  0
ENDSEC
  0
EOF
