  0
SECTION
  2
HEADER
  9
$ACADVER
  1
AC1015
  9
$ACADMAINTVER
 70
    20
  9
$DWGCODEPAGE
  3
ANSI_1252
  9
$INSBASE
 10
0.0
 20
0.0
 30
0.0
  9
$EXTMIN
 10
0.9772352685420173
 20
0.9781961671288854
 30
-0.0015258207003583
  9
$EXTMAX
 10
593.018098304535
 20
419.0127878408097
 30
0.0000000349246037
  9
$LIMMIN
 10
0.0
 20
0.0
  9
$LIMMAX
 10
420.0
 20
297.0
  9
$ORTHOMODE
 70
     1
  9
$REGENMODE
 70
     1
  9
$FILLMODE
 70
     1
  9
$QTEXTMODE
 70
     0
  9
$MIRRTEXT
 70
     1
  9
$LTSCALE
 40
0.4
  9
$ATTMODE
 70
     1
  9
$TEXTSIZE
 40
2.5
  9
$TRACEWID
 40
1.0
  9
$TEXTSTYLE
  7
STANDARD
  9
$CLAYER
  8
0
  9
$CELTYPE
  6
CONTINUOUS
  9
$CECOLOR
 62
     7
  9
$CELTSCALE
 40
1.0
  9
$DISPSILH
 70
     0
  9
$DIMSCALE
 40
1.0
  9
$DIMASZ
 40
3.72
  9
$DIMEXO
 40
0.0
  9
$DIMDLI
 40
7.0
  9
$DIMRND
 40
0.0
  9
$DIMDLE
 40
0.0
  9
$DIMEXE
 40
1.5
  9
$DIMTP
 40
0.0
  9
$DIMTM
 40
0.0
  9
$DIMTXT
 40
2.5
  9
$DIMCEN
 40
0.0
  9
$DIMTSZ
 40
0.0
  9
$DIMTOL
 70
     0
  9
$DIMLIM
 70
     0
  9
$DIMTIH
 70
     0
  9
$DIMTOH
 70
     0
  9
$DIMSE1
 70
     0
  9
$DIMSE2
 70
     0
  9
$DIMTAD
 70
     1
  9
$DIMZIN
 70
     8
  9
$DIMBLK
  1

  9
$DIMASO
 70
     1
  9
$DIMSHO
 70
     1
  9
$DIMPOST
  1

  9
$DIMAPOST
  1
"
  9
$DIMALT
 70
     0
  9
$DIMALTD
 70
     2
  9
$DIMALTF
 40
0.0393700787401575
  9
$DIMLFAC
 40
1.0
  9
$DIMTOFL
 70
     1
  9
$DIMTVP
 40
0.0
  9
$DIMTIX
 70
     0
  9
$DIMSOXD
 70
     0
  9
$DIMSAH
 70
     1
  9
$DIMBLK1
  1
_OPEN15
  9
$DIMBLK2
  1
_OPEN15
  9
$DIMSTYLE
  2
PHOENIX
  9
$DIMCLRD
 70
     1
  9
$DIMCLRE
 70
     1
  9
$DIMCLRT
 70
     5
  9
$DIMTFAC
 40
0.6666666666666666
  9
$DIMGAP
 40
1.0
  9
$DIMJUST
 70
     0
  9
$DIMSD1
 70
     0
  9
$DIMSD2
 70
     0
  9
$DIMTOLJ
 70
     1
  9
$DIMTZIN
 70
     8
  9
$DIMALTZ
 70
     0
  9
$DIMALTTZ
 70
     0
  9
$DIMUPT
 70
     1
  9
$DIMDEC
 70
     6
  9
$DIMTDEC
 70
     6
  9
$DIMALTU
 70
     2
  9
$DIMALTTD
 70
     2
  9
$DIMTXSTY
  7
STANDARD
  9
$DIMAUNIT
 70
     0
  9
$DIMADEC
 70
     0
  9
$DIMALTRND
 40
0.0
  9
$DIMAZIN
 70
     0
  9
$DIMDSEP
 70
    46
  9
$DIMATFIT
 70
     0
  9
$DIMFRAC
 70
     0
  9
$DIMLDRBLK
  1

  9
$DIMLUNIT
 70
     2
  9
$DIMLWD
 70
    -2
  9
$DIMLWE
 70
    -2
  9
$DIMTMOVE
 70
     0
  9
$LUNITS
 70
     2
  9
$LUPREC
 70
     4
  9
$SKETCHINC
 40
1.0
  9
$FILLETRAD
 40
0.0
  9
$AUNITS
 70
     0
  9
$AUPREC
 70
     0
  9
$MENU
  1
.
  9
$ELEVATION
 40
0.0
  9
$PELEVATION
 40
0.0
  9
$THICKNESS
 40
0.0
  9
$LIMCHECK
 70
     0
  9
$CHAMFERA
 40
10.0
  9
$CHAMFERB
 40
10.0
  9
$CHAMFERC
 40
0.0
  9
$CHAMFERD
 40
0.0
  9
$SKPOLY
 70
     0
  9
$TDCREATE
 40
2450973.596968090
  9
$TDUCREATE
 40
2450973.513634757
  9
$TDUPDATE
 40
2456783.448045521
  9
$TDUUPDATE
 40
2456783.364712188
  9
$TDINDWG
 40
0.0759398958
  9
$TDUSRTIMER
 40
0.0759398958
  9
$USRTIMER
 70
     1
  9
$ANGBASE
 50
0.0
  9
$ANGDIR
 70
     0
  9
$PDMODE
 70
    35
  9
$PDSIZE
 40
-2.0
  9
$PLINEWID
 40
0.0
  9
$SPLFRAME
 70
     0
  9
$SPLINETYPE
 70
     6
  9
$SPLINESEGS
 70
     8
  9
$HANDSEED
  5
1482
  9
$SURFTAB1
 70
     6
  9
$SURFTAB2
 70
     6
  9
$SURFTYPE
 70
     6
  9
$SURFU
 70
     6
  9
$SURFV
 70
     6
  9
$UCSBASE
  2

  9
$UCSNAME
  2

  9
$UCSORG
 10
0.0
 20
0.0
 30
0.0
  9
$UCSXDIR
 10
1.0
 20
0.0
 30
0.0
  9
$UCSYDIR
 10
0.0
 20
1.0
 30
0.0
  9
$UCSORTHOREF
  2

  9
$UCSORTHOVIEW
 70
     0
  9
$UCSORGTOP
 10
0.0
 20
0.0
 30
0.0
  9
$UCSORGBOTTOM
 10
0.0
 20
0.0
 30
0.0
  9
$UCSORGLEFT
 10
0.0
 20
0.0
 30
0.0
  9
$UCSORGRIGHT
 10
0.0
 20
0.0
 30
0.0
  9
$UCSORGFRONT
 10
0.0
 20
0.0
 30
0.0
  9
$UCSORGBACK
 10
0.0
 20
0.0
 30
0.0
  9
$PUCSBASE
  2

  9
$PUCSNAME
  2

  9
$PUCSORG
 10
0.0
 20
0.0
 30
0.0
  9
$PUCSXDIR
 10
1.0
 20
0.0
 30
0.0
  9
$PUCSYDIR
 10
0.0
 20
1.0
 30
0.0
  9
$PUCSORTHOREF
  2

  9
$PUCSORTHOVIEW
 70
     0
  9
$PUCSORGTOP
 10
0.0
 20
0.0
 30
0.0
  9
$PUCSORGBOTTOM
 10
0.0
 20
0.0
 30
0.0
  9
$PUCSORGLEFT
 10
0.0
 20
0.0
 30
0.0
  9
$PUCSORGRIGHT
 10
0.0
 20
0.0
 30
0.0
  9
$PUCSORGFRONT
 10
0.0
 20
0.0
 30
0.0
  9
$PUCSORGBACK
 10
0.0
 20
0.0
 30
0.0
  9
$USERI1
 70
     0
  9
$USERI2
 70
     0
  9
$USERI3
 70
     0
  9
$USERI4
 70
     0
  9
$USERI5
 70
     0
  9
$USERR1
 40
0.0
  9
$USERR2
 40
0.0
  9
$USERR3
 40
0.0
  9
$USERR4
 40
0.0
  9
$USERR5
 40
0.0
  9
$WORLDVIEW
 70
     1
  9
$SHADEDGE
 70
     3
  9
$SHADEDIF
 70
    70
  9
$TILEMODE
 70
     1
  9
$MAXACTVP
 70
    16
  9
$PINSBASE
 10
0.0
 20
0.0
 30
0.0
  9
$PLIMCHECK
 70
     0
  9
$PEXTMIN
 10
1.000000000000000E+20
 20
1.000000000000000E+20
 30
1.000000000000000E+20
  9
$PEXTMAX
 10
-1.000000000000000E+20
 20
-1.000000000000000E+20
 30
-1.000000000000000E+20
  9
$PLIMMIN
 10
0.0
 20
0.0
  9
$PLIMMAX
 10
420.0
 20
297.0
  9
$UNITMODE
 70
     0
  9
$VISRETAIN
 70
     0
  9
$PLINEGEN
 70
     0
  9
$PSLTSCALE
 70
     1
  9
$TREEDEPTH
 70
  3020
  9
$CMLSTYLE
  2
STANDARD
  9
$CMLJUST
 70
     0
  9
$CMLSCALE
 40
1.0
  9
$PROXYGRAPHICS
 70
     1
  9
$MEASUREMENT
 70
     0
  9
$CELWEIGHT
370
    -1
  9
$ENDCAPS
280
     0
  9
$JOINSTYLE
280
     0
  9
$LWDISPLAY
290
     0
  9
$INSUNITS
 70
     0
  9
$HYPERLINKBASE
  1

  9
$STYLESHEET
  1
HP_Farbe_Dünn.ctb
  9
$XEDIT
290
     1
  9
$CEPSNTYPE
380
     0
  9
$PSTYLEMODE
290
     1
  9
$FINGERPRINTGUID
  2
{58879625-E439-4A43-8184-93BD4C6EF904}
  9
$VERSIONGUID
  2
{B4B6C534-FCCA-4CB5-A992-554D38FAED25}
  9
$EXTNAMES
290
     1
  9
$PSVPSCALE
 40
0.0
  9
$OLESTARTUP
290
     0
  0
ENDSEC
  0
SECTION
  2
CLASSES
  0
CLASS
  1
PH_VARS
  2
PhoenixVars
  3
PHOENIX7010
 90
        0
280
     0
281
     0
  0
CLASS
  1
ACMESCOPE
  2
AcMeScope
  3
ACME_MODULE_NAME
 90
        0
280
     0
281
     0
  0
CLASS
  1
ACMECOMMANDHISTORY
  2
AcMeCommandHistory
  3
ACME_MODULE_NAME
 90
        0
280
     0
281
     0
  0
CLASS
  1
AcRfInsAdjusterMgr
  2
AcRfInsAdjusterMgr
  3
ACME_MODULE_NAME
 90
    32768
280
     0
281
     0
  0
CLASS
  1
ACGREFMASTER
  2
AcGrefMaster
  3
"AcadRfServer"
 90
        0
280
     0
281
     0
  0
CLASS
  1
AmiMaster
  2
AmiMaster
  3
"AmiServices"
 90
        0
280
     0
281
     0
  0
CLASS
  1
ACASGREFMASTER
  2
AcAsGrefMaster
  3
"AutoSurfResolver"
 90
        0
280
     0
281
     0
  0
CLASS
  1
ADAPPL
  2
AcAdAppl
  3
DesignerServices
 90
        0
280
     0
281
     0
  0
CLASS
  1
DEPMGR
  2
AcAdDepMgr
  3
DesignerServices
 90
        0
280
     0
281
     0
  0
CLASS
  1
PARAMMGR
  2
AcAdParamMgr
  3
DesignerServices
 90
        0
280
     0
281
     0
  0
CLASS
  1
PARAMSCOPE
  2
AcAdParamScope
  3
DesignerServices
 90
        0
280
     0
281
     0
  0
CLASS
  1
"IM_SYSVAR_MAN"
  2
AcImSysVarManager
  3
"ADAM"
 90
        0
280
     0
281
     0
  0
CLASS
  1
SYSTEM_VAR_INT
  2
AcImIntSysVar
  3
"ADAM"
 90
        0
280
     0
281
     0
  0
CLASS
  1
SYSTEM_VAR_REAL
  2
AcImRealSysVar
  3
"ADAM"
 90
        0
280
     0
281
     0
  0
CLASS
  1
SYSTEM_VAR_STR
  2
AcImStrSysVar
  3
"ADAM"
 90
        0
280
     0
281
     0
  0
CLASS
  1
NAMEDAPPL
  2
AcAdNamedAppl
  3
DesignerServices
 90
        0
280
     0
281
     0
  0
CLASS
  1
ADPART
  2
AcAdPart
  3
DesignerServices
 90
    32768
280
     0
281
     1
  0
CLASS
  1
ADBASE
  2
AcAdBase
  3
DesignerServices
 90
        0
280
     0
281
     0
  0
CLASS
  1
BODYID
  2
AcAdBodyId
  3
DesignerServices
 90
        0
280
     0
281
     0
  0
CLASS
  1
WORKPLANEDISPLAYMGR
  2
AcAdDisplayMgr
  3
DesignerServices
 90
        0
280
     0
281
     0
  0
CLASS
  1
ADHNTMPLT
  2
AdHoleNoteTemplateMgr
  3
DesignerServices
 90
        0
280
     0
281
     0
  0
CLASS
  1
AM_HNTEMPLATE_MGR_NAME
  2
AdHoleNoteTemplateMgrName
  3
DesignerServices
 90
        0
280
     0
281
     0
  0
CLASS
  1
AcAdGrefModule
  2
AcAdGrefModule
  3
AD_GREF_SERVICES_NSTR
 90
        0
280
     0
281
     0
  0
CLASS
  1
AM_DRAWING_MGR
  2
AcDmDwgMgr
  3
AcMechDwgViewMgmt
 90
        0
280
     0
281
     0
  0
CLASS
  1
AM_DWG_DOCUMENT
  2
AcDmDwgDocument
  3
AcMechDwgViewMgmt
 90
        0
280
     0
281
     0
  0
CLASS
  1
AM_DWG_SHEET
  2
AcDmSheet
  3
AcMechDwgViewMgmt
 90
        0
280
     0
281
     0
  0
CLASS
  1
AM_VIEWDIMPARMAP
  2
AcDmViewDimParMap
  3
AcMechDwgViewMgmt
 90
        0
280
     0
281
     0
  0
CLASS
  1
AM_DWGMGR_NAME
  2
AcDmDwgMgrName
  3
AcMechDwgViewMgmt
 90
        0
280
     0
281
     0
  0
CLASS
  1
ACAMPROJECT
  2
AcAmProject
  3
DesignerAssemblies
 90
        0
280
     0
281
     0
  0
CLASS
  1
ACAMGRCOMPSET
  2
AcAmGrCompSet
  3
DesignerAssemblies
 90
    32768
280
     0
281
     0
  0
CLASS
  1
ACAMGRCOMPDEFSET
  2
AcAmGrCompDefSet
  3
DesignerAssemblies
 90
    32768
280
     0
281
     0
  0
CLASS
  1
ACAMGRCOMPDEF
  2
AcAmGrCompDef
  3
DesignerAssemblies
 90
        0
280
     0
281
     0
  0
CLASS
  1
ACAMCOMPDEF
  2
AcAmCompDef
  3
DesignerAssemblies
 90
        0
280
     0
281
     0
  0
CLASS
  1
ACAMCOMPDEFMGR
  2
AcAmCompDefMgr
  3
DesignerAssemblies
 90
        0
280
     0
281
     0
  0
CLASS
  1
AMCONTEXTMGR
  2
AcAmContextMgr
  3
DesignerAssemblies
 90
        0
280
     0
281
     0
  0
CLASS
  1
ACAMCONTEXTMODELER
  2
AcAmContextModeler
  3
DesignerAssemblies
 90
        0
280
     0
281
     0
  0
CLASS
  1
ACAMDRAWINGMAN
  2
AcAmDrawingMan
  3
DesignerAssemblies
 90
        0
280
     0
281
     0
  0
CLASS
  1
ACDMVIEWGEOM
  2
AcDmViewGeometry
  3
AcMechDwgViewMgmt
 90
    32768
280
     0
281
     1
  0
CLASS
  1
ASSYSVARS
  2
AcAsSysVars
  3
"AutoSurf"
 90
        0
280
     0
281
     0
  0
CLASS
  1
ASSTATICVARS
  2
AcAsStaticVars
  3
"AutoSurf"
 90
    32768
280
     0
281
     0
  0
CLASS
  1
ASAPP
  2
AcAsAppObject
  3
"AutoSurf"
 90
        0
280
     0
281
     0
  0
CLASS
  1
AGDICTIONARY
  2
AgDictionary
  3
"AccelView"
 90
        0
280
     0
281
     0
  0
CLASS
  1
PH_ENTDIMREACTOR
  2
EntDimReactor
  3
PHOENIX7010
 90
    32768
280
     0
281
     0
  0
CLASS
  1
PH_DIMENTREACTOR
  2
DimEntReactor
  3
PHOENIX7010
 90
    32768
280
     0
281
     0
  0
CLASS
  1
ACDBDICTIONARYWDFLT
  2
AcDbDictionaryWithDefault
  3
ObjectDBX Classes
 90
        0
280
     0
281
     0
  0
CLASS
  1
MATERIAL
  2
AcDbMaterial
  3
ObjectDBX Classes
 90
     1153
280
     0
281
     0
  0
CLASS
  1
VISUALSTYLE
  2
AcDbVisualStyle
  3
ObjectDBX Classes
 90
     4095
280
     0
281
     0
  0
CLASS
  1
TABLESTYLE
  2
AcDbTableStyle
  3
ObjectDBX Classes
 90
     4095
280
     0
281
     0
  0
CLASS
  1
SCALE
  2
AcDbScale
  3
ObjectDBX Classes
 90
     1153
280
     0
281
     0
  0
CLASS
  1
MLEADERSTYLE
  2
AcDbMLeaderStyle
  3
ACDB_MLEADERSTYLE_CLASS
 90
     4095
280
     0
281
     0
  0
CLASS
  1
PH_GROUP
  2
PhGroup
  3
PHOENIX7010
 90
        0
280
     0
281
     0
  0
CLASS
  1
DICTIONARYVAR
  2
AcDbDictionaryVar
  3
ObjectDBX Classes
 90
        0
280
     0
281
     0
  0
CLASS
  1
CELLSTYLEMAP
  2
AcDbCellStyleMap
  3
ObjectDBX Classes
 90
     1152
280
     0
281
     0
  0
CLASS
  1
PDFDEFINITION
  2
AcDbPdfDefinition
  3
ObjectDBX Classes
 90
     1153
280
     0
281
     0
  0
CLASS
  1
PDFUNDERLAY
  2
AcDbPdfReference
  3
ObjectDBX Classes
 90
     1153
280
     0
281
     1
  0
CLASS
  1
ACDBPLACEHOLDER
  2
AcDbPlaceHolder
  3
ObjectDBX Classes
 90
        0
280
     0
281
     0
  0
CLASS
  1
LAYOUT
  2
AcDbLayout
  3
ObjectDBX Classes
 90
        0
280
     0
281
     0
  0
ENDSEC
  0
SECTION
  2
TABLES
  0
TABLE
  2
VPORT
  5
8
102
{ACAD_XDICTIONARY
360
F92
102
}
330
0
100
AcDbSymbolTable
 70
     1
  0
VPORT
  5
CD0
330
8
100
AcDbSymbolTableRecord
100
AcDbViewportTableRecord
  2
*ACTIVE
 70
     0
 10
0.0
 20
0.0
 11
1.0
 21
1.0
 12
296.9976667865386
 22
209.9954920039693
 13
0.0
 23
0.0
 14
10.0
 24
10.0
 15
10.0
 25
10.0
 16
0.0
 26
0.0
 36
1.0
 17
0.0
 27
0.0
 37
0.0
 40
420.9376096714147
 41
2.098493626882966
 42
50.0
 43
0.0
 44
0.0
 50
0.0
 51
0.0
 71
     0
 72
   800
 73
     1
 74
     3
 75
     0
 76
     0
 77
     0
 78
     0
281
     0
 65
     1
110
0.0
120
0.0
130
0.0
111
1.0
121
0.0
131
0.0
112
0.0
122
1.0
132
0.0
 79
     0
146
0.0
  0
ENDTAB
  0
TABLE
  2
LTYPE
  5
5
330
0
100
AcDbSymbolTable
 70
    11
  0
LTYPE
  5
14
330
5
100
AcDbSymbolTableRecord
100
AcDbLinetypeTableRecord
  2
BYBLOCK
 70
     0
  3

 72
    65
 73
     0
 40
0.0
  0
LTYPE
  5
15
330
5
100
AcDbSymbolTableRecord
100
AcDbLinetypeTableRecord
  2
BYLAYER
 70
     0
  3

 72
    65
 73
     0
 40
0.0
  0
LTYPE
  5
16
330
5
100
AcDbSymbolTableRecord
100
AcDbLinetypeTableRecord
  2
CONTINUOUS
 70
     0
  3
Solid line
 72
    65
 73
     0
 40
0.0
  0
LTYPE
  5
A8
330
5
100
AcDbSymbolTableRecord
100
AcDbLinetypeTableRecord
  2
PHANTOM2
 70
     0
  3
___ _ _ ___ _ _ ___ _ _ ___ _ _ ___ _ _ ___ _ _
 72
    65
 73
     6
 40
1.25
 49
0.625
 74
     0
 49
-0.125
 74
     0
 49
0.125
 74
     0
 49
-0.125
 74
     0
 49
0.125
 74
     0
 49
-0.125
 74
     0
  0
LTYPE
  5
D5
330
5
100
AcDbSymbolTableRecord
100
AcDbLinetypeTableRecord
  2
ASULTYPE
 70
     0
  3
Ausgezogene Linie
 72
    65
 73
     2
 40
3.0
 49
2.5
 74
     0
 49
0.5
 74
     0
  0
LTYPE
  5
D6
330
5
100
AcDbSymbolTableRecord
100
AcDbLinetypeTableRecord
  2
ASVLTYPE
 70
     0
  3
__ __ __ __ __ __ __ __ __ __ __ __ __ __ __ __ __ __ __ __ __
 72
    65
 73
     2
 40
0.75
 49
0.5
 74
     0
 49
-0.25
 74
     0
  0
LTYPE
  5
D8
330
5
100
AcDbSymbolTableRecord
100
AcDbLinetypeTableRecord
  2
VERDECKT
 70
     0
  3
__ __ __ __ __ __ __ __ __ __ __ __ __ __ __ __
 72
    65
 73
     2
 40
0.375
 49
0.25
 74
     0
 49
-0.125
 74
     0
  0
LTYPE
  5
D9
330
5
100
AcDbSymbolTableRecord
100
AcDbLinetypeTableRecord
  2
MITTE
 70
     0
  3
____ _ ____ _ ____ _ ____ _ ____ _ ____ _ ____ 
 72
    65
 73
     4
 40
2.0
 49
1.25
 74
     0
 49
-0.25
 74
     0
 49
0.25
 74
     0
 49
-0.25
 74
     0
  0
LTYPE
  5
684
330
5
100
AcDbSymbolTableRecord
100
AcDbLinetypeTableRecord
  2
ACAD_ISO02W100
 70
     0
  3
__ __ __ __ __ __ __ __ __ __ __ __ __ __ __ __
 72
    65
 73
     2
 40
15.0
 49
12.0
 74
     0
 49
-3.0
 74
     0
  0
LTYPE
  5
685
330
5
100
AcDbSymbolTableRecord
100
AcDbLinetypeTableRecord
  2
ACAD_ISO04W100
 70
     0
  3
____ . ____ . ____ . ____ . ____ . ____ . ____ 
 72
    65
 73
     4
 40
30.5
 49
24.0
 74
     0
 49
-3.0
 74
     0
 49
0.5
 74
     0
 49
-3.0
 74
     0
  0
LTYPE
  5
686
330
5
100
AcDbSymbolTableRecord
100
AcDbLinetypeTableRecord
  2
ACAD_ISO05W100
 70
     0
  3
____ .. ____ .. ____ .. ____ .. ____ .. ____ ..
 72
    65
 73
     6
 40
34.0
 49
24.0
 74
     0
 49
-3.0
 74
     0
 49
0.5
 74
     0
 49
-3.0
 74
     0
 49
0.5
 74
     0
 49
-3.0
 74
     0
  0
LTYPE
  5
687
330
5
100
AcDbSymbolTableRecord
100
AcDbLinetypeTableRecord
  2
ACAD_ISO07W100
 70
     0
  3
. . . . . . . . . . . . . . . . . . . . . . . .
 72
    65
 73
     2
 40
3.5
 49
0.5
 74
     0
 49
-3.0
 74
     0
  0
ENDTAB
  0
TABLE
  2
LAYER
  5
2
102
{ACAD_XDICTIONARY
360
E93
102
}
330
0
100
AcDbSymbolTable
 70
    17
  0
LAYER
  5
F
102
{ACAD_XDICTIONARY
360
D8B
102
}
330
2
100
AcDbSymbolTableRecord
100
AcDbLayerTableRecord
  2
0
 70
     0
 62
     7
  6
CONTINUOUS
370
    -3
390
CD3
  0
LAYER
  5
44
102
{ACAD_XDICTIONARY
360
D8D
102
}
330
2
100
AcDbSymbolTableRecord
100
AcDbLayerTableRecord
  2
4
 70
     0
 62
     7
  6
CONTINUOUS
370
    -3
390
CD3
  0
LAYER
  5
48
102
{ACAD_XDICTIONARY
360
D8F
102
}
330
2
100
AcDbSymbolTableRecord
100
AcDbLayerTableRecord
  2
2
 70
     0
 62
     7
  6
CONTINUOUS
370
    -3
390
CD3
  0
LAYER
  5
4A
102
{ACAD_XDICTIONARY
360
D91
102
}
330
2
100
AcDbSymbolTableRecord
100
AcDbLayerTableRecord
  2
3
 70
     0
 62
     7
  6
CONTINUOUS
370
    -3
390
CD3
  0
LAYER
  5
B6
102
{ACAD_XDICTIONARY
360
D93
102
}
330
2
100
AcDbSymbolTableRecord
100
AcDbLayerTableRecord
  2
AM_VIEWS
 70
     0
 62
    -7
  6
CONTINUOUS
370
    -3
390
CD3
  0
LAYER
  5
B7
102
{ACAD_XDICTIONARY
360
D95
102
}
330
2
100
AcDbSymbolTableRecord
100
AcDbLayerTableRecord
  2
AM_PARDIM
 70
     0
 62
     3
  6
CONTINUOUS
370
    -3
390
CD3
  0
LAYER
  5
B8
102
{ACAD_XDICTIONARY
360
D97
102
}
330
2
100
AcDbSymbolTableRecord
100
AcDbLayerTableRecord
  2
AM_REFDIM
 70
     0
 62
     4
  6
CONTINUOUS
370
    -3
390
CD3
  0
LAYER
  5
B9
102
{ACAD_XDICTIONARY
360
D99
102
}
330
2
100
AcDbSymbolTableRecord
100
AcDbLayerTableRecord
  2
AM_VIS
 70
     0
 62
     7
  6
CONTINUOUS
370
    -3
390
CD3
  0
LAYER
  5
BA
102
{ACAD_XDICTIONARY
360
D9B
102
}
330
2
100
AcDbSymbolTableRecord
100
AcDbLayerTableRecord
  2
AM_HID
 70
     0
 62
     7
  6
VERDECKT
370
    -3
390
CD3
  0
LAYER
  5
CB
102
{ACAD_XDICTIONARY
360
D9D
102
}
330
2
100
AcDbSymbolTableRecord
100
AcDbLayerTableRecord
  2
AM_TR
 70
     0
 62
     7
  6
CONTINUOUS
370
    -3
390
CD3
  0
LAYER
  5
CC
102
{ACAD_XDICTIONARY
360
D9F
102
}
330
2
100
AcDbSymbolTableRecord
100
AcDbLayerTableRecord
  2
AM_BM
 70
     0
 62
     7
  6
CONTINUOUS
370
    -3
390
CD3
  0
LAYER
  5
CD
102
{ACAD_XDICTIONARY
360
DA1
102
}
330
2
100
AcDbSymbolTableRecord
100
AcDbLayerTableRecord
  2
AM_BL
 70
     0
 62
     7
  6
CONTINUOUS
370
    -3
390
CD3
  0
LAYER
  5
EB
330
2
100
AcDbSymbolTableRecord
100
AcDbLayerTableRecord
  2
DEFPOINTS
 70
     0
 62
     7
  6
CONTINUOUS
290
     0
370
    -3
390
CD3
  0
LAYER
  5
688
102
{ACAD_XDICTIONARY
360
DA3
102
}
330
2
100
AcDbSymbolTableRecord
100
AcDbLayerTableRecord
  2
HAUPTEBENE
 70
     0
 62
     7
  6
CONTINUOUS
370
    -3
390
CD3
  0
LAYER
  5
74B
102
{ACAD_XDICTIONARY
360
DA5
102
}
330
2
100
AcDbSymbolTableRecord
100
AcDbLayerTableRecord
  2
BEMASSUNG2
 70
     0
 62
     7
  6
CONTINUOUS
370
    -3
390
CD3
  0
LAYER
  5
765
102
{ACAD_XDICTIONARY
360
DA7
102
}
330
2
100
AcDbSymbolTableRecord
100
AcDbLayerTableRecord
  2
BEMASSUNG
 70
     0
 62
     7
  6
CONTINUOUS
370
    -3
390
CD3
  0
LAYER
  5
DFA
330
2
100
AcDbSymbolTableRecord
100
AcDbLayerTableRecord
  2
PH_HILFSELEMENTE
 70
     0
 62
    -7
  6
CONTINUOUS
370
    -3
390
CD3
  0
ENDTAB
  0
TABLE
  2
STYLE
  5
3
330
0
100
AcDbSymbolTable
 70
     2
  0
STYLE
  5
10
330
3
100
AcDbSymbolTableRecord
100
AcDbTextStyleTableRecord
  2
STANDARD
 70
     0
 40
0.0
 41
1.199999999999999
 50
0.0
 71
     0
 42
2.5
  3
ISOCP.shx
  4

  0
STYLE
  5
68F
330
3
100
AcDbSymbolTableRecord
100
AcDbTextStyleTableRecord
  2
ISO3098-1
 70
     0
 40
0.0
 41
1.0
 50
0.0
 71
     0
 42
0.0
  3
isoct.shx
  4

  0
ENDTAB
  0
TABLE
  2
VIEW
  5
6
330
0
100
AcDbSymbolTable
 70
     0
  0
ENDTAB
  0
TABLE
  2
UCS
  5
7
330
0
100
AcDbSymbolTable
 70
     0
  0
ENDTAB
  0
TABLE
  2
APPID
  5
9
330
0
100
AcDbSymbolTable
 70
    12
  0
APPID
  5
11
330
9
100
AcDbSymbolTableRecord
100
AcDbRegAppTableRecord
  2
ACAD
 70
     0
  0
APPID
  5
32
330
9
100
AcDbSymbolTableRecord
100
AcDbRegAppTableRecord
  2
PHOENIX7010
 70
     0
  0
APPID
  5
B5
330
9
100
AcDbSymbolTableRecord
100
AcDbRegAppTableRecord
  2
AD_DRAW
 70
     0
  0
APPID
  5
CF
330
9
100
AcDbSymbolTableRecord
100
AcDbRegAppTableRecord
  2
DESIGNERASSEMBLIES
 70
     0
  0
APPID
  5
D1
330
9
100
AcDbSymbolTableRecord
100
AcDbRegAppTableRecord
  2
MCAD_NO_VIS
 70
     0
  0
APPID
  5
D7
330
9
100
AcDbSymbolTableRecord
100
AcDbRegAppTableRecord
  2
ASURF_PCURVE_APPNAME
 70
     0
  0
APPID
  5
E92
330
9
100
AcDbSymbolTableRecord
100
AcDbRegAppTableRecord
  2
ACAD_PSEXT
 70
     0
  0
APPID
  5
EE2
330
9
100
AcDbSymbolTableRecord
100
AcDbRegAppTableRecord
  2
AcadAnnoPO
 70
     0
  0
APPID
  5
EE3
330
9
100
AcDbSymbolTableRecord
100
AcDbRegAppTableRecord
  2
ACAD_EXEMPT_FROM_CAD_STANDARDS
 70
     0
  0
APPID
  5
EF4
330
9
100
AcDbSymbolTableRecord
100
AcDbRegAppTableRecord
  2
AdeskUnderlayLayerOverrideData
 70
     0
  0
APPID
  5
FBE
330
9
100
AcDbSymbolTableRecord
100
AcDbRegAppTableRecord
  2
ACAD_MLEADERVER
 70
     0
  0
APPID
  5
1259
330
9
100
AcDbSymbolTableRecord
100
AcDbRegAppTableRecord
  2
DCO15
 70
     0
  0
ENDTAB
  0
TABLE
  2
DIMSTYLE
  5
A
330
0
100
AcDbSymbolTable
 70
    10
100
AcDbDimStyleTable
 71
     1
340
33
  0
DIMSTYLE
105
1D
330
A
100
AcDbSymbolTableRecord
100
AcDbDimStyleTableRecord
  2
STANDARD
 70
     0
340
10
  0
DIMSTYLE
105
24
330
A
100
AcDbSymbolTableRecord
100
AcDbDimStyleTableRecord
  2
ISO-25
 70
     0
 41
2.5
 42
0.625
 43
3.75
 44
1.25
 74
     0
 77
     1
 78
     8
140
2.5
141
2.5
143
0.0394
145
1.0
147
0.625
172
     1
340
10
  0
DIMSTYLE
105
25
330
A
100
AcDbSymbolTableRecord
100
AcDbDimStyleTableRecord
  2
ISO-35
 70
     0
 41
3.5
 42
0.875
 43
5.25
 44
1.75
 74
     0
 77
     1
 78
     8
140
3.5
141
3.5
143
0.0394
145
1.399999999999999
147
0.875
172
     1
340
10
  0
DIMSTYLE
105
26
330
A
100
AcDbSymbolTableRecord
100
AcDbDimStyleTableRecord
  2
ISO-5
 70
     0
 41
5.0
 42
1.25
 43
7.5
 44
2.5
 74
     0
 77
     1
 78
     8
140
5.0
141
5.0
143
0.0394
145
2.0
147
1.25
172
     1
340
10
  0
DIMSTYLE
105
27
330
A
100
AcDbSymbolTableRecord
100
AcDbDimStyleTableRecord
  2
ISO-7
 70
     0
 41
7.0
 42
1.75
 43
10.5
 44
3.5
 74
     0
 77
     1
 78
     8
140
7.0
141
7.0
143
0.0394
145
2.799999999999999
147
1.75
172
     1
340
10
  0
DIMSTYLE
105
28
330
A
100
AcDbSymbolTableRecord
100
AcDbDimStyleTableRecord
  2
ISO1
 70
     0
 41
10.0
 42
2.5
 43
15.0
 44
5.0
 74
     0
 77
     1
 78
     8
140
10.0
141
10.0
143
0.0394
145
4.0
147
2.5
172
     1
340
10
  0
DIMSTYLE
105
29
330
A
100
AcDbSymbolTableRecord
100
AcDbDimStyleTableRecord
  2
ISO1-4
 70
     0
 41
14.0
 42
3.5
 43
21.0
 44
7.0
 74
     0
 77
     1
 78
     8
140
14.0
141
14.0
143
0.0394
145
5.599999999999999
147
3.5
172
     1
340
10
  0
DIMSTYLE
105
2A
330
A
100
AcDbSymbolTableRecord
100
AcDbDimStyleTableRecord
  2
ISO2
 70
     0
 41
20.0
 42
5.0
 43
30.0
 44
10.0
 74
     0
 77
     1
 78
     8
140
20.0
141
20.0
143
0.0394
145
8.0
147
5.0
172
     1
340
10
  0
DIMSTYLE
105
33
330
A
100
AcDbSymbolTableRecord
100
AcDbDimStyleTableRecord
  2
PHOENIX
 70
     0
  4
"
 41
3.72
 42
0.0
 43
7.0
 44
1.5
 73
     0
 74
     0
 77
     1
 78
     8
140
3.5
141
0.0
143
0.0393700787401575
146
0.6666666666666666
147
2.0
172
     1
173
     1
176
     1
177
     1
178
     5
271
     2
272
     2
284
     8
288
     1
289
     0
340
10
341
35
343
35
344
35
  0
DIMSTYLE
105
34
330
A
100
AcDbSymbolTableRecord
100
AcDbDimStyleTableRecord
  2
PHOENIX$4
 70
     0
  4
"
 41
3.72
 42
0.0
 43
7.0
 44
1.5
 73
     0
 74
     0
 77
     1
 78
     8
140
3.5
141
0.0
143
0.0393700787401575
146
0.6666666666666666
147
2.0
173
     1
176
     1
177
     1
178
     5
271
     2
272
     2
281
     1
284
     8
288
     1
289
     0
340
10
341
35
343
35
344
35
  0
ENDTAB
  0
TABLE
  2
BLOCK_RECORD
  5
1
330
0
100
AcDbSymbolTable
 70
     3
  0
BLOCK_RECORD
  5
1A
330
1
100
AcDbSymbolTableRecord
100
AcDbBlockTableRecord
  2
*MODEL_SPACE
340
D2A
  0
BLOCK_RECORD
  5
17
330
1
100
AcDbSymbolTableRecord
100
AcDbBlockTableRecord
  2
*PAPER_SPACE
340
D2B
  0
BLOCK_RECORD
  5
35
330
1
100
AcDbSymbolTableRecord
100
AcDbBlockTableRecord
  2
_OPEN15
340
0
  0
BLOCK_RECORD
  5
C3
330
1
100
AcDbSymbolTableRecord
100
AcDbBlockTableRecord
  2
*U1
340
0
  0
BLOCK_RECORD
  5
DE6
330
1
100
AcDbSymbolTableRecord
100
AcDbBlockTableRecord
  2
PH_GRPBLK
340
0
102
{BLKREFS
331
E0B
331
E9C
331
E9F
331
ED7
102
}
  0
ENDTAB
  0
ENDSEC
  0
SECTION
  2
BLOCKS
  0
BLOCK
  5
1B
330
1A
100
AcDbEntity
  8
0
100
AcDbBlockBegin
  2
*MODEL_SPACE
 70
     0
 10
0.0
 20
0.0
 30
0.0
  3
*MODEL_SPACE
  1

  0
ENDBLK
  5
1C
330
1A
100
AcDbEntity
  8
0
100
AcDbBlockEnd
  0
BLOCK
  5
18
330
17
100
AcDbEntity
 67
     1
  8
0
100
AcDbBlockBegin
  2
*PAPER_SPACE
 70
     0
 10
0.0
 20
0.0
 30
0.0
  3
*PAPER_SPACE
  1

  0
ENDBLK
  5
19
330
17
100
AcDbEntity
 67
     1
  8
0
100
AcDbBlockEnd
  0
BLOCK
  5
39
330
35
100
AcDbEntity
  8
0
  6
Continuous
 62
     7
100
AcDbBlockBegin
  2
_OPEN15
 70
     0
 10
1.0
 20
0.0
 30
0.0
  3
_OPEN15
  1

  0
LINE
  5
36
330
35
100
AcDbEntity
  8
0
  6
ByBlock
 62
     0
100
AcDbLine
 10
0.0
 20
0.0
 30
0.0
 11
1.0
 21
0.0
 31
0.0
  0
LINE
  5
37
330
35
100
AcDbEntity
  8
0
  6
ByBlock
 62
     0
100
AcDbLine
 10
1.0
 20
0.0
 30
0.0
 11
0.0
 21
0.1316524975873958
 31
0.0
  0
LINE
  5
38
330
35
100
AcDbEntity
  8
0
  6
ByBlock
 62
     0
100
AcDbLine
 10
1.0
 20
0.0
 30
0.0
 11
0.0
 21
-0.1316524975873958
 31
0.0
  0
ENDBLK
  5
3A
330
35
100
AcDbEntity
  8
0
  6
Continuous
 62
     7
100
AcDbBlockEnd
  0
BLOCK
  5
C4
330
C3
100
AcDbEntity
  8
0
  6
Continuous
 62
     7
100
AcDbBlockBegin
  2
*U1
 70
     1
 10
0.0
 20
0.0
 30
0.0
  3
*U1
  1

  0
ENDBLK
  5
C5
330
C3
100
AcDbEntity
  8
0
  6
Continuous
 62
     7
100
AcDbBlockEnd
  0
BLOCK
  5
DE7
330
DE6
100
AcDbEntity
  8
0
 62
     7
370
    50
100
AcDbBlockBegin
  2
PH_GRPBLK
 70
     0
 10
0.0
 20
0.0
 30
0.0
  3
PH_GRPBLK
  1

  0
POINT
  5
DE8
330
DE6
100
AcDbEntity
  8
DEFPOINTS
  6
Continuous
 62
     0
370
    50
100
AcDbPoint
 10
0.0
 20
0.0
 30
0.0
  0
ENDBLK
  5
DE9
330
DE6
100
AcDbEntity
  8
0
 62
     7
370
    50
100
AcDbBlockEnd
  0
ENDSEC
  0
SECTION
  2
ENTITIES
  0
CIRCLE
  5
689
330
1A
100
AcDbEntity
  8
HAUPTEBENE
  6
Continuous
 62
     5
100
AcDbCircle
 10
107.3647134513839
 20
284.5726066791672
 30
0.0
 40
1.5
1001
PHOENIX7010
1002
{
1070
    62
1070
     5
1070
    41
1040
1.0
1002
}
  0
TEXT
  5
6B8
330
1A
100
AcDbEntity
  8
HAUPTEBENE
  6
Continuous
 62
     5
100
AcDbText
 10
175.90002441
 20
50.49612716999999
 30
0.0
 40
3.49609375
  1

 41
1.5
100
AcDbText
1001
PHOENIX7010
1002
{
1070
    62
1070
     5
1070
    41
1040
1.0
1002
}
  0
TEXT
  5
6BA
330
1A
100
AcDbEntity
  8
HAUPTEBENE
  6
Continuous
 62
     5
100
AcDbText
 10
175.90002441
 20
57.49612716999999
 30
0.0
 40
3.49609375
  1

 41
1.5
100
AcDbText
1001
PHOENIX7010
1002
{
1070
    62
1070
     5
1070
    41
1040
1.0
1002
}
  0
TEXT
  5
6BC
330
1A
100
AcDbEntity
  8
HAUPTEBENE
  6
Continuous
 62
     5
100
AcDbText
 10
175.90002441
 20
64.49612716999999
 30
0.0
 40
3.49609375
  1

 41
1.5
100
AcDbText
1001
PHOENIX7010
1002
{
1070
    62
1070
     5
1070
    41
1040
1.0
1002
}
  0
TEXT
  5
6BE
330
1A
100
AcDbEntity
  8
HAUPTEBENE
  6
Continuous
 62
     5
100
AcDbText
 10
149.65002441
 20
50.49612716999999
 30
0.0
 40
3.49609375
  1

 41
1.5
100
AcDbText
1001
PHOENIX7010
1002
{
1070
    62
1070
     5
1070
    41
1040
1.0
1002
}
  0
TEXT
  5
6C0
330
1A
100
AcDbEntity
  8
HAUPTEBENE
  6
Continuous
 62
     5
100
AcDbText
 10
149.65002441
 20
57.49611953999999
 30
0.0
 40
3.49609375
  1

 41
1.5
100
AcDbText
1001
PHOENIX7010
1002
{
1070
    62
1070
     5
1070
    41
1040
1.0
1002
}
  0
TEXT
  5
6C2
330
1A
100
AcDbEntity
  8
HAUPTEBENE
  6
Continuous
 62
     5
100
AcDbText
 10
149.65002441
 20
64.49611953999999
 30
0.0
 40
3.49609375
  1

 41
1.5
100
AcDbText
1001
PHOENIX7010
1002
{
1070
    62
1070
     5
1070
    41
1040
1.0
1002
}
  0
TEXT
  5
6C4
330
1A
100
AcDbEntity
  8
HAUPTEBENE
  6
Continuous
 62
     5
100
AcDbText
 10
146.5
 20
100.00002579
 30
0.0
 40
2.5
  1

 41
1.5
100
AcDbText
1001
PHOENIX7010
1002
{
1070
    62
1070
     5
1070
    41
1040
1.0
1002
}
  0
TEXT
  5
6C6
330
1A
100
AcDbEntity
  8
HAUPTEBENE
  6
Continuous
 62
     5
100
AcDbText
 10
146.5
 20
103.50002579
 30
0.0
 40
2.5
  1

 41
1.5
100
AcDbText
1001
PHOENIX7010
1002
{
1070
    62
1070
     5
1070
    41
1040
1.0
1002
}
  0
TEXT
  5
6C8
330
1A
100
AcDbEntity
  8
HAUPTEBENE
  6
Continuous
 62
     5
100
AcDbText
 10
134.0
 20
16.49511952633972
 30
0.0
 40
2.828427076339721
  1

 41
1.5
100
AcDbText
1001
PHOENIX7010
1002
{
1070
    62
1070
     5
1070
    41
1040
1.0
1002
}
  0
TEXT
  5
6CA
330
1A
100
AcDbEntity
  8
HAUPTEBENE
  6
Continuous
 62
     5
100
AcDbText
 10
130.0
 20
15.00002578999999
 30
0.0
 40
4.0
  1

 41
1.5
100
AcDbText
1001
PHOENIX7010
1002
{
1070
    62
1070
     5
1070
    41
1040
1.0
1002
}
  0
TEXT
  5
6CB
330
1A
100
AcDbEntity
  8
HAUPTEBENE
  6
Continuous
 62
     5
100
AcDbText
 10
130.0
 20
11.00002578999999
 30
0.0
 40
4.0
  1
 
 41
1.5
100
AcDbText
1001
PHOENIX7010
1002
{
1070
    62
1070
     5
1070
    41
1040
1.0
1002
}
  0
TEXT
  5
6CE
102
{ACAD_REACTORS
330
D36
102
}
330
1A
100
AcDbEntity
  8
HAUPTEBENE
  6
Continuous
 62
     5
100
AcDbText
 10
125.6154456355714
 20
60.99047086453459
 30
0.0
 40
4.0
  1

 41
1.5
100
AcDbText
1001
PHOENIX7010
1002
{
1070
    62
1070
     5
1070
    41
1040
1.0
1002
}
  0
TEXT
  5
6CF
102
{ACAD_REACTORS
330
D36
102
}
330
1A
100
AcDbEntity
  8
HAUPTEBENE
  6
Continuous
 62
     5
100
AcDbText
 10
125.6154456355714
 20
56.99047086453458
 30
0.0
 40
4.0
  1
t
 41
1.5
100
AcDbText
1001
PHOENIX7010
1002
{
1070
    62
1070
     5
1070
    41
1040
1.0
1002
}
  0
TEXT
  5
6D0
102
{ACAD_REACTORS
330
D36
102
}
330
1A
100
AcDbEntity
  8
HAUPTEBENE
  6
Continuous
 62
     5
100
AcDbText
 10
125.6154456355714
 20
61.99047086453458
 30
0.0
 40
5.0
  1

 41
1.5
100
AcDbText
1001
PHOENIX7010
1002
{
1070
    62
1070
     5
1070
    41
1040
1.0
1002
}
  0
TEXT
  5
6D1
102
{ACAD_REACTORS
330
D36
102
}
330
1A
100
AcDbEntity
  8
HAUPTEBENE
  6
Continuous
 62
     5
100
AcDbText
 10
125.6154456355714
 20
56.99047086453458
 30
0.0
 40
5.0
  1
     Stecktiefe/Plug-in depth
 41
1.5
100
AcDbText
1001
PHOENIX7010
1002
{
1070
    62
1070
     5
1070
    41
1040
1.0
1002
}
  0
LINE
  5
6D2
102
{ACAD_REACTORS
330
D36
102
}
330
1A
100
AcDbEntity
  8
HAUPTEBENE
  6
Continuous
 62
     5
100
AcDbLine
 10
136.5154700455714
 20
60.19048306453459
 30
0.0
 11
135.3154578455714
 21
60.88329312453459
 31
0.0
1001
PHOENIX7010
1002
{
1070
    62
1070
     5
1070
    41
1040
1.0
1002
}
  0
LINE
  5
6D3
102
{ACAD_REACTORS
330
D36
102
}
330
1A
100
AcDbEntity
  8
HAUPTEBENE
  6
Continuous
 62
     5
100
AcDbLine
 10
134.1154456355714
 20
60.19048306453459
 30
0.0
 11
135.3154578455714
 21
60.88329312453459
 31
0.0
1001
PHOENIX7010
1002
{
1070
    62
1070
     5
1070
    41
1040
1.0
1002
}
  0
LINE
  5
6D4
102
{ACAD_REACTORS
330
D36
102
}
330
1A
100
AcDbEntity
  8
HAUPTEBENE
  6
Continuous
 62
     5
100
AcDbLine
 10
136.5154700455714
 20
59.39048001453457
 30
0.0
 11
134.1154456355714
 21
59.39048001453457
 31
0.0
1001
PHOENIX7010
1002
{
1070
    62
1070
     5
1070
    41
1040
1.0
1002
}
  0
LINE
  5
6D5
102
{ACAD_REACTORS
330
D36
102
}
330
1A
100
AcDbEntity
  8
HAUPTEBENE
  6
Continuous
 62
     5
100
AcDbLine
 10
134.1154456355714
 20
58.19048306453459
 30
0.0
 11
136.5154700455714
 21
58.19048306453459
 31
0.0
1001
PHOENIX7010
1002
{
1070
    62
1070
     5
1070
    41
1040
1.0
1002
}
  0
LINE
  5
6D6
330
1A
100
AcDbEntity
  8
HAUPTEBENE
  6
Continuous
 62
     1
100
AcDbLine
 10
43.23290919915189
 20
147.5340184745554
 30
0.0
 11
302.0189453525561
 21
147.5340184745554
 31
0.0
1001
PHOENIX7010
1002
{
1070
    62
1070
     1
1070
    41
1040
1.0
1002
}
  0
TEXT
  5
6D7
330
1A
100
AcDbEntity
  8
HAUPTEBENE
  6
Continuous
 62
     7
100
AcDbText
 10
70.0
 20
114.00002579
 30
0.0
 40
5.0
  1

 41
1.5
100
AcDbText
1001
PHOENIX7010
1002
{
1070
    62
1070
     7
1070
    41
1040
1.0
1002
}
  0
TEXT
  5
6D8
330
1A
100
AcDbEntity
  8
HAUPTEBENE
  6
Continuous
 62
     7
100
AcDbText
 10
45.59828969518025
 20
150.0340184745554
 30
0.0
 40
5.0
  1
Erforderliche Verkleidungsbleche/Required cover panels
 41
1.5
100
AcDbText
1001
PHOENIX7010
1002
{
1070
    62
1070
     7
1070
    41
1040
1.0
1002
}
  0
TEXT
  5
6EE
330
1A
100
AcDbEntity
  8
HAUPTEBENE
  6
Continuous
 62
     7
100
AcDbText
 10
108.0
 20
96.99511952633971
 30
0.0
 40
2.828427076339721
  1

 41
1.5
100
AcDbText
1001
PHOENIX7010
1002
{
1070
    62
1070
     7
1070
    41
1040
1.0
1002
}
  0
TEXT
  5
6F0
330
1A
100
AcDbEntity
  8
HAUPTEBENE
  6
Continuous
 62
     7
100
AcDbText
 10
104.0
 20
95.50002578999999
 30
0.0
 40
4.0
  1

 41
1.5
100
AcDbText
1001
PHOENIX7010
1002
{
1070
    62
1070
     7
1070
    41
1040
1.0
1002
}
  0
TEXT
  5
6F4
330
1A
100
AcDbEntity
  8
HAUPTEBENE
  6
Continuous
 62
     5
100
AcDbText
 10
175.90002441
 20
71.49611954
 30
0.0
 40
3.49609375
  1

 41
1.5
100
AcDbText
1001
PHOENIX7010
1002
{
1070
    62
1070
     5
1070
    41
1040
1.0
1002
}
  0
TEXT
  5
6F6
330
1A
100
AcDbEntity
  8
HAUPTEBENE
  6
Continuous
 62
     5
100
AcDbText
 10
175.90002441
 20
78.49611954
 30
0.0
 40
3.49609375
  1

 41
1.5
100
AcDbText
1001
PHOENIX7010
1002
{
1070
    62
1070
     5
1070
    41
1040
1.0
1002
}
  0
TEXT
  5
6F8
330
1A
100
AcDbEntity
  8
HAUPTEBENE
  6
Continuous
 62
     5
100
AcDbText
 10
175.90002441
 20
85.49611953999999
 30
0.0
 40
3.49609375
  1

 41
1.5
100
AcDbText
1001
PHOENIX7010
1002
{
1070
    62
1070
     5
1070
    41
1040
1.0
1002
}
  0
TEXT
  5
6FA
330
1A
100
AcDbEntity
  8
HAUPTEBENE
  6
Continuous
 62
     5
100
AcDbText
 10
149.65002441
 20
71.49611954
 30
0.0
 40
3.49609375
  1

 41
1.5
100
AcDbText
1001
PHOENIX7010
1002
{
1070
    62
1070
     5
1070
    41
1040
1.0
1002
}
  0
TEXT
  5
6FC
330
1A
100
AcDbEntity
  8
HAUPTEBENE
  6
Continuous
 62
     5
100
AcDbText
 10
149.65002441
 20
78.49611954
 30
0.0
 40
3.49609375
  1

 41
1.5
100
AcDbText
1001
PHOENIX7010
1002
{
1070
    62
1070
     5
1070
    41
1040
1.0
1002
}
  0
TEXT
  5
6FE
330
1A
100
AcDbEntity
  8
HAUPTEBENE
  6
Continuous
 62
     5
100
AcDbText
 10
149.65002441
 20
85.49611953999999
 30
0.0
 40
3.49609375
  1

 41
1.5
100
AcDbText
1001
PHOENIX7010
1002
{
1070
    62
1070
     5
1070
    41
1040
1.0
1002
}
  0
LINE
  5
713
330
1A
100
AcDbEntity
  8
HAUPTEBENE
  6
Continuous
 62
     5
100
AcDbLine
 10
103.2447183313839
 20
288.8226677191672
 30
0.0
 11
186.6845376713839
 21
288.8226677191672
 31
0.0
1001
PHOENIX7010
1002
{
1070
    62
1070
     5
1070
    41
1040
1.0
1002
}
  0
CIRCLE
  5
716
102
{ACAD_REACTORS
330
D3F
102
}
330
1A
100
AcDbEntity
  8
HAUPTEBENE
  6
Continuous
 62
     5
100
AcDbCircle
 10
112.3647134513839
 20
284.5726066791672
 30
0.0
 40
2.0
1001
PHOENIX7010
1002
{
1070
    62
1070
     5
1070
    41
1040
1.0
1002
}
  0
CIRCLE
  5
717
102
{ACAD_REACTORS
330
D3F
102
}
330
1A
100
AcDbEntity
  8
HAUPTEBENE
  6
Continuous
 62
     5
100
AcDbCircle
 10
162.3645913813839
 20
284.5726677191672
 30
0.0
 40
2.0
1001
PHOENIX7010
1002
{
1070
    62
1070
     5
1070
    41
1040
1.0
1002
}
  0
ARC
  5
718
102
{ACAD_REACTORS
330
D3F
102
}
330
1A
100
AcDbEntity
  8
HAUPTEBENE
  6
Continuous
 62
     5
100
AcDbCircle
 10
172.3645913813839
 20
284.5726677191672
 30
0.0
 40
2.000012949999993
100
AcDbArc
 50
315.8203716405662
 51
44.17962810967208
1001
PHOENIX7010
1002
{
1070
    62
1070
     5
1070
    41
1040
1.0
1002
}
  0
ARC
  5
719
102
{ACAD_REACTORS
330
D3F
102
}
330
1A
100
AcDbEntity
  8
HAUPTEBENE
  6
Continuous
 62
     5
100
AcDbCircle
 10
172.3645913813839
 20
284.5726677191672
 30
0.0
 40
2.00000279000001
100
AcDbArc
 50
92.00421972903582
 51
267.9957810055196
1001
PHOENIX7010
1002
{
1070
    62
1070
     5
1070
    41
1040
1.0
1002
}
  0
CIRCLE
  5
71A
102
{ACAD_REACTORS
330
D3F
102
}
330
1A
100
AcDbEntity
  8
HAUPTEBENE
  6
Continuous
 62
     5
100
AcDbCircle
 10
167.3645913813839
 20
284.5726677191672
 30
0.0
 40
1.5
1001
PHOENIX7010
1002
{
1070
    62
1070
     5
1070
    41
1040
1.0
1002
}
  0
CIRCLE
  5
71B
102
{ACAD_REACTORS
330
D3F
102
}
330
1A
100
AcDbEntity
  8
HAUPTEBENE
  6
Continuous
 62
     5
100
AcDbCircle
 10
232.3645303413839
 20
284.5726677191672
 30
0.0
 40
2.0
1001
PHOENIX7010
1002
{
1070
    62
1070
     5
1070
    41
1040
1.0
1002
}
  0
CIRCLE
  5
71C
102
{ACAD_REACTORS
330
D3F
102
}
330
1A
100
AcDbEntity
  8
HAUPTEBENE
  6
Continuous
 62
     5
100
AcDbCircle
 10
227.3645303413839
 20
284.5726677191672
 30
0.0
 40
1.5
1001
PHOENIX7010
1002
{
1070
    62
1070
     5
1070
    41
1040
1.0
1002
}
  0
CIRCLE
  5
71D
102
{ACAD_REACTORS
330
D3F
102
}
330
1A
100
AcDbEntity
  8
HAUPTEBENE
  6
Continuous
 62
     5
100
AcDbCircle
 10
222.3645303413839
 20
284.5726677191672
 30
0.0
 40
2.0
1001
PHOENIX7010
1002
{
1070
    62
1070
     5
1070
    41
1040
1.0
1002
}
  0
CIRCLE
  5
71E
102
{ACAD_REACTORS
330
D3F
102
}
330
1A
100
AcDbEntity
  8
HAUPTEBENE
  6
Continuous
 62
     5
100
AcDbCircle
 10
217.3645303413839
 20
284.5726677191672
 30
0.0
 40
1.5
1001
PHOENIX7010
1002
{
1070
    62
1070
     5
1070
    41
1040
1.0
1002
}
  0
ARC
  5
71F
102
{ACAD_REACTORS
330
D3F
102
}
330
1A
100
AcDbEntity
  8
HAUPTEBENE
  6
Continuous
 62
     5
100
AcDbCircle
 10
182.3645303413839
 20
284.5726677191672
 30
0.0
 40
1.999999590000014
100
AcDbArc
 50
134.008360733508
 51
293.5790186376045
1001
PHOENIX7010
1002
{
1070
    62
1070
     5
1070
    41
1040
1.0
1002
}
  0
CIRCLE
  5
720
102
{ACAD_REACTORS
330
D3F
102
}
330
1A
100
AcDbEntity
  8
HAUPTEBENE
  6
Continuous
 62
     5
100
AcDbCircle
 10
187.3645303413839
 20
284.5726677191672
 30
0.0
 40
1.5
1001
PHOENIX7010
1002
{
1070
    62
1070
     5
1070
    41
1040
1.0
1002
}
  0
ARC
  5
721
102
{ACAD_REACTORS
330
D3F
102
}
330
1A
100
AcDbEntity
  8
HAUPTEBENE
  6
Continuous
 62
     5
100
AcDbCircle
 10
192.3645303413839
 20
284.5726677191672
 30
0.0
 40
1.999970650000003
100
AcDbArc
 50
244.0628892876562
 51
295.9402562065568
1001
PHOENIX7010
1002
{
1070
    62
1070
     5
1070
    41
1040
1.0
1002
}
  0
ARC
  5
722
102
{ACAD_REACTORS
330
D3F
102
}
330
1A
100
AcDbEntity
  8
HAUPTEBENE
  6
Continuous
 62
     5
100
AcDbCircle
 10
322.3645303413839
 20
284.5726677191672
 30
0.0
 40
2.000006050000003
100
AcDbArc
 50
246.4241864442189
 51
45.99163922240913
1001
PHOENIX7010
1002
{
1070
    62
1070
     5
1070
    41
1040
1.0
1002
}
  0
CIRCLE
  5
723
102
{ACAD_REACTORS
330
D3F
102
}
330
1A
100
AcDbEntity
  8
HAUPTEBENE
  6
Continuous
 62
     5
100
AcDbCircle
 10
317.3645303413839
 20
284.5726677191672
 30
0.0
 40
1.5
1001
PHOENIX7010
1002
{
1070
    62
1070
     5
1070
    41
1040
1.0
1002
}
  0
ARC
  5
724
102
{ACAD_REACTORS
330
D3F
102
}
330
1A
100
AcDbEntity
  8
HAUPTEBENE
  6
Continuous
 62
     5
100
AcDbCircle
 10
312.3645303413839
 20
284.5726677191672
 30
0.0
 40
2.000025539999976
100
AcDbArc
 50
244.0636536133558
 51
295.9363457696047
1001
PHOENIX7010
1002
{
1070
    62
1070
     5
1070
    41
1040
1.0
1002
}
  0
CIRCLE
  5
725
102
{ACAD_REACTORS
330
D3F
102
}
330
1A
100
AcDbEntity
  8
HAUPTEBENE
  6
Continuous
 62
     5
100
AcDbCircle
 10
252.3645303413839
 20
284.5726677191672
 30
0.0
 40
2.0
1001
PHOENIX7010
1002
{
1070
    62
1070
     5
1070
    41
1040
1.0
1002
}
  0
CIRCLE
  5
726
102
{ACAD_REACTORS
330
D3F
102
}
330
1A
100
AcDbEntity
  8
HAUPTEBENE
  6
Continuous
 62
     5
100
AcDbCircle
 10
257.3645303413839
 20
284.5726677191672
 30
0.0
 40
1.5
1001
PHOENIX7010
1002
{
1070
    62
1070
     5
1070
    41
1040
1.0
1002
}
  0
CIRCLE
  5
727
102
{ACAD_REACTORS
330
D3F
102
}
330
1A
100
AcDbEntity
  8
HAUPTEBENE
  6
Continuous
 62
     5
100
AcDbCircle
 10
262.3645303413839
 20
284.5726677191672
 30
0.0
 40
2.0
1001
PHOENIX7010
1002
{
1070
    62
1070
     5
1070
    41
1040
1.0
1002
}
  0
CIRCLE
  5
728
102
{ACAD_REACTORS
330
D3F
102
}
330
1A
100
AcDbEntity
  8
HAUPTEBENE
  6
Continuous
 62
     5
100
AcDbCircle
 10
237.3645303413839
 20
284.5726677191672
 30
0.0
 40
1.5
1001
PHOENIX7010
1002
{
1070
    62
1070
     5
1070
    41
1040
1.0
1002
}
  0
CIRCLE
  5
729
102
{ACAD_REACTORS
330
D3F
102
}
330
1A
100
AcDbEntity
  8
HAUPTEBENE
  6
Continuous
 62
     5
100
AcDbCircle
 10
242.3645303413839
 20
284.5726677191672
 30
0.0
 40
2.0
1001
PHOENIX7010
1002
{
1070
    62
1070
     5
1070
    41
1040
1.0
1002
}
  0
CIRCLE
  5
72A
102
{ACAD_REACTORS
330
D3F
102
}
330
1A
100
AcDbEntity
  8
HAUPTEBENE
  6
Continuous
 62
     5
100
AcDbCircle
 10
247.3645303413839
 20
284.5726677191672
 30
0.0
 40
1.5
1001
PHOENIX7010
1002
{
1070
    62
1070
     5
1070
    41
1040
1.0
1002
}
  0
CIRCLE
  5
72B
102
{ACAD_REACTORS
330
D3F
102
}
330
1A
100
AcDbEntity
  8
HAUPTEBENE
  6
Continuous
 62
     5
100
AcDbCircle
 10
267.3645303413839
 20
284.5726677191672
 30
0.0
 40
1.5
1001
PHOENIX7010
1002
{
1070
    62
1070
     5
1070
    41
1040
1.0
1002
}
  0
CIRCLE
  5
72C
102
{ACAD_REACTORS
330
D3F
102
}
330
1A
100
AcDbEntity
  8
HAUPTEBENE
  6
Continuous
 62
     5
100
AcDbCircle
 10
272.3645303413839
 20
284.5726677191672
 30
0.0
 40
2.0
1001
PHOENIX7010
1002
{
1070
    62
1070
     5
1070
    41
1040
1.0
1002
}
  0
CIRCLE
  5
72D
102
{ACAD_REACTORS
330
D3F
102
}
330
1A
100
AcDbEntity
  8
HAUPTEBENE
  6
Continuous
 62
     5
100
AcDbCircle
 10
277.3645303413839
 20
284.5726677191672
 30
0.0
 40
1.5
1001
PHOENIX7010
1002
{
1070
    62
1070
     5
1070
    41
1040
1.0
1002
}
  0
CIRCLE
  5
72E
102
{ACAD_REACTORS
330
D3F
102
}
330
1A
100
AcDbEntity
  8
HAUPTEBENE
  6
Continuous
 62
     5
100
AcDbCircle
 10
282.3645303413839
 20
284.5726677191672
 30
0.0
 40
2.0
1001
PHOENIX7010
1002
{
1070
    62
1070
     5
1070
    41
1040
1.0
1002
}
  0
CIRCLE
  5
72F
102
{ACAD_REACTORS
330
D3F
102
}
330
1A
100
AcDbEntity
  8
HAUPTEBENE
  6
Continuous
 62
     5
100
AcDbCircle
 10
287.3645303413839
 20
284.5726677191672
 30
0.0
 40
1.5
1001
PHOENIX7010
1002
{
1070
    62
1070
     5
1070
    41
1040
1.0
1002
}
  0
CIRCLE
  5
730
102
{ACAD_REACTORS
330
D3F
102
}
330
1A
100
AcDbEntity
  8
HAUPTEBENE
  6
Continuous
 62
     5
100
AcDbCircle
 10
292.3645303413839
 20
284.5726677191672
 30
0.0
 40
2.0
1001
PHOENIX7010
1002
{
1070
    62
1070
     5
1070
    41
1040
1.0
1002
}
  0
CIRCLE
  5
731
102
{ACAD_REACTORS
330
D3F
102
}
330
1A
100
AcDbEntity
  8
HAUPTEBENE
  6
Continuous
 62
     5
100
AcDbCircle
 10
297.3645303413839
 20
284.5726677191672
 30
0.0
 40
1.5
1001
PHOENIX7010
1002
{
1070
    62
1070
     5
1070
    41
1040
1.0
1002
}
  0
ARC
  5
732
102
{ACAD_REACTORS
330
D3F
102
}
330
1A
100
AcDbEntity
  8
HAUPTEBENE
  6
Continuous
 62
     5
100
AcDbCircle
 10
302.3645303413839
 20
284.5726677191672
 30
0.0
 40
1.999986460000012
100
AcDbArc
 50
309.1950452233373
 51
230.8049548941786
1001
PHOENIX7010
1002
{
1070
    62
1070
     5
1070
    41
1040
1.0
1002
}
  0
CIRCLE
  5
733
102
{ACAD_REACTORS
330
D3F
102
}
330
1A
100
AcDbEntity
  8
HAUPTEBENE
  6
Continuous
 62
     5
100
AcDbCircle
 10
307.3645303413839
 20
284.5726677191672
 30
0.0
 40
1.5
1001
PHOENIX7010
1002
{
1070
    62
1070
     5
1070
    41
1040
1.0
1002
}
  0
CIRCLE
  5
734
102
{ACAD_REACTORS
330
D3F
102
}
330
1A
100
AcDbEntity
  8
HAUPTEBENE
  6
Continuous
 62
     5
100
AcDbCircle
 10
327.3645303413839
 20
284.5726677191672
 30
0.0
 40
1.5
1001
PHOENIX7010
1002
{
1070
    62
1070
     5
1070
    41
1040
1.0
1002
}
  0
CIRCLE
  5
735
102
{ACAD_REACTORS
330
D3F
102
}
330
1A
100
AcDbEntity
  8
HAUPTEBENE
  6
Continuous
 62
     5
100
AcDbCircle
 10
197.3645303413839
 20
284.5726677191672
 30
0.0
 40
1.5
1001
PHOENIX7010
1002
{
1070
    62
1070
     5
1070
    41
1040
1.0
1002
}
  0
CIRCLE
  5
736
102
{ACAD_REACTORS
330
D3F
102
}
330
1A
100
AcDbEntity
  8
HAUPTEBENE
  6
Continuous
 62
     5
100
AcDbCircle
 10
177.3645303413839
 20
284.5726677191672
 30
0.0
 40
1.5
1001
PHOENIX7010
1002
{
1070
    62
1070
     5
1070
    41
1040
1.0
1002
}
  0
CIRCLE
  5
737
102
{ACAD_REACTORS
330
D3F
102
}
330
1A
100
AcDbEntity
  8
HAUPTEBENE
  6
Continuous
 62
     5
100
AcDbCircle
 10
207.3645303413839
 20
284.5726677191672
 30
0.0
 40
1.5
1001
PHOENIX7010
1002
{
1070
    62
1070
     5
1070
    41
1040
1.0
1002
}
  0
ARC
  5
738
102
{ACAD_REACTORS
330
D3F
102
}
330
1A
100
AcDbEntity
  8
HAUPTEBENE
  6
Continuous
 62
     5
100
AcDbCircle
 10
202.3645303413839
 20
284.5726677191672
 30
0.0
 40
2.000003929999995
100
AcDbArc
 50
309.1901252347503
 51
230.8098754557226
1001
PHOENIX7010
1002
{
1070
    62
1070
     5
1070
    41
1040
1.0
1002
}
  0
CIRCLE
  5
739
102
{ACAD_REACTORS
330
D3F
102
}
330
1A
100
AcDbEntity
  8
HAUPTEBENE
  6
Continuous
 62
     5
100
AcDbCircle
 10
212.3645303413839
 20
284.5726677191672
 30
0.0
 40
2.0
1001
PHOENIX7010
1002
{
1070
    62
1070
     5
1070
    41
1040
1.0
1002
}
  0
CIRCLE
  5
73A
102
{ACAD_REACTORS
330
D3F
102
}
330
1A
100
AcDbEntity
  8
HAUPTEBENE
  6
Continuous
 62
     5
100
AcDbCircle
 10
117.3645913813839
 20
284.5726066791672
 30
0.0
 40
1.5
1001
PHOENIX7010
1002
{
1070
    62
1070
     5
1070
    41
1040
1.0
1002
}
  0
CIRCLE
  5
73B
102
{ACAD_REACTORS
330
D3F
102
}
330
1A
100
AcDbEntity
  8
HAUPTEBENE
  6
Continuous
 62
     5
100
AcDbCircle
 10
127.3645913813839
 20
284.5726677191672
 30
0.0
 40
1.5
1001
PHOENIX7010
1002
{
1070
    62
1070
     5
1070
    41
1040
1.0
1002
}
  0
CIRCLE
  5
73C
102
{ACAD_REACTORS
330
D3F
102
}
330
1A
100
AcDbEntity
  8
HAUPTEBENE
  6
Continuous
 62
     5
100
AcDbCircle
 10
122.3645913813839
 20
284.5726677191672
 30
0.0
 40
2.0
1001
PHOENIX7010
1002
{
1070
    62
1070
     5
1070
    41
1040
1.0
1002
}
  0
CIRCLE
  5
73D
102
{ACAD_REACTORS
330
D3F
102
}
330
1A
100
AcDbEntity
  8
HAUPTEBENE
  6
Continuous
 62
     5
100
AcDbCircle
 10
137.3645913813839
 20
284.5726677191672
 30
0.0
 40
1.5
1001
PHOENIX7010
1002
{
1070
    62
1070
     5
1070
    41
1040
1.0
1002
}
  0
CIRCLE
  5
73E
102
{ACAD_REACTORS
330
D3F
102
}
330
1A
100
AcDbEntity
  8
HAUPTEBENE
  6
Continuous
 62
     5
100
AcDbCircle
 10
132.3645913813839
 20
284.5726677191672
 30
0.0
 40
2.0
1001
PHOENIX7010
1002
{
1070
    62
1070
     5
1070
    41
1040
1.0
1002
}
  0
CIRCLE
  5
73F
102
{ACAD_REACTORS
330
D3F
102
}
330
1A
100
AcDbEntity
  8
HAUPTEBENE
  6
Continuous
 62
     5
100
AcDbCircle
 10
147.3645913813839
 20
284.5726677191672
 30
0.0
 40
1.5
1001
PHOENIX7010
1002
{
1070
    62
1070
     5
1070
    41
1040
1.0
1002
}
  0
CIRCLE
  5
740
102
{ACAD_REACTORS
330
D3F
102
}
330
1A
100
AcDbEntity
  8
HAUPTEBENE
  6
Continuous
 62
     5
100
AcDbCircle
 10
142.3645913813839
 20
284.5726677191672
 30
0.0
 40
2.0
1001
PHOENIX7010
1002
{
1070
    62
1070
     5
1070
    41
1040
1.0
1002
}
  0
CIRCLE
  5
741
102
{ACAD_REACTORS
330
D3F
102
}
330
1A
100
AcDbEntity
  8
HAUPTEBENE
  6
Continuous
 62
     5
100
AcDbCircle
 10
157.3645913813839
 20
284.5726677191672
 30
0.0
 40
1.5
1001
PHOENIX7010
1002
{
1070
    62
1070
     5
1070
    41
1040
1.0
1002
}
  0
CIRCLE
  5
742
102
{ACAD_REACTORS
330
D3F
102
}
330
1A
100
AcDbEntity
  8
HAUPTEBENE
  6
Continuous
 62
     5
100
AcDbCircle
 10
152.3645913813839
 20
284.5726677191672
 30
0.0
 40
2.0
1001
PHOENIX7010
1002
{
1070
    62
1070
     5
1070
    41
1040
1.0
1002
}
  0
TEXT
  5
743
330
1A
100
AcDbEntity
  8
HAUPTEBENE
  6
Continuous
 62
     5
100
AcDbText
 10
186.96990967
 20
233.27563004
 30
0.0
 40
3.5
  1

 41
1.5
100
AcDbText
1001
PHOENIX7010
1002
{
1070
    62
1070
     5
1070
    41
1040
1.0
1002
}
  0
TEXT
  5
744
330
1A
100
AcDbEntity
  8
HAUPTEBENE
  6
Continuous
 62
     5
100
AcDbText
 10
195.4139407762572
 20
294.0135160492364
 30
0.0
 40
5.0
  1
(Steckbereich/Plug-in area)
 41
1.5
100
AcDbText
1001
PHOENIX7010
1002
{
1070
    62
1070
     5
1070
    41
1040
1.0
1002
}
  0
TEXT
  5
747
102
{ACAD_REACTORS
330
D42
102
}
330
1A
100
AcDbEntity
  8
HAUPTEBENE
  6
Continuous
 62
     5
100
AcDbText
 10
229.7567170218179
 20
264.9257052691917
 30
0.0
 40
5.0
  1

 41
1.5
100
AcDbText
1001
PHOENIX7010
1002
{
1070
    62
1070
     5
1070
    41
1040
1.0
1002
}
  0
TEXT
  5
748
102
{ACAD_REACTORS
330
D42
102
}
330
1A
100
AcDbEntity
  8
HAUPTEBENE
  6
Continuous
 62
     5
100
AcDbText
 10
249.8646219013839
 20
269.9726921291671
 30
0.0
 40
5.0
  1
t
 41
1.5
100
AcDbText
1001
PHOENIX7010
1002
{
1070
    62
1070
     5
1070
    41
1040
1.0
1002
}
  0
LINE
  5
74C
102
{ACAD_REACTORS
330
D40
102
}
330
1A
100
AcDbEntity
  8
BEMASSUNG2
  6
Continuous
 62
     1
100
AcDbLine
 10
338.4845254613839
 20
267.4726921291671
 30
0.0
 11
335.5101908813839
 21
267.8642706991671
 31
0.0
1001
PHOENIX7010
1002
{
1070
    62
1070
     1
1070
    41
1040
1.0
1002
}
  0
LINE
  5
74D
102
{ACAD_REACTORS
330
D40
102
}
330
1A
100
AcDbEntity
  8
BEMASSUNG2
  6
Continuous
 62
     1
100
AcDbLine
 10
338.4845254613839
 20
267.4726921291671
 30
0.0
 11
335.5101908813839
 21
267.0811135691671
 31
0.0
1001
PHOENIX7010
1002
{
1070
    62
1070
     1
1070
    41
1040
1.0
1002
}
  0
LINE
  5
750
102
{ACAD_REACTORS
330
D41
102
}
330
1A
100
AcDbEntity
  8
BEMASSUNG2
  6
Continuous
 62
     1
100
AcDbLine
 10
166.2447183313839
 20
267.4726921291671
 30
0.0
 11
169.2190529213839
 21
267.0811135691671
 31
0.0
1001
PHOENIX7010
1002
{
1070
    62
1070
     1
1070
    41
1040
1.0
1002
}
  0
LINE
  5
751
102
{ACAD_REACTORS
330
D41
102
}
330
1A
100
AcDbEntity
  8
BEMASSUNG2
  6
Continuous
 62
     1
100
AcDbLine
 10
166.2447183313839
 20
267.4726921291671
 30
0.0
 11
169.2190529213839
 21
267.8642706991671
 31
0.0
1001
PHOENIX7010
1002
{
1070
    62
1070
     1
1070
    41
1040
1.0
1002
}
  0
LINE
  5
752
102
{ACAD_REACTORS
330
D42
102
}
330
1A
100
AcDbEntity
  8
BEMASSUNG2
  6
Continuous
 62
     1
100
AcDbLine
 10
166.2447183313839
 20
267.4726921291671
 30
0.0
 11
338.4845254613839
 21
267.4726921291671
 31
0.0
1001
PHOENIX7010
1002
{
1070
    62
1070
     1
1070
    41
1040
1.0
1002
}
  0
LINE
  5
753
102
{ACAD_REACTORS
330
D42
102
}
330
1A
100
AcDbEntity
  8
BEMASSUNG2
  6
Continuous
 62
     1
100
AcDbLine
 10
166.2447183313839
 20
279.4726310991671
 30
0.0
 11
166.2447183313839
 21
265.4726921291671
 31
0.0
1001
PHOENIX7010
1002
{
1070
    62
1070
     1
1070
    41
1040
1.0
1002
}
  0
LINE
  5
756
102
{ACAD_REACTORS
330
D43
102
}
330
1A
100
AcDbEntity
  8
HAUPTEBENE
  6
Continuous
 62
     7
100
AcDbLine
 10
199.5586831813838
 20
287.3726860291672
 30
0.0
 11
196.1445596413838
 21
287.3726555091671
 31
0.0
1001
PHOENIX7010
1002
{
1070
    62
1070
     7
1070
    41
1040
1.0
1002
}
  0
LINE
  5
757
102
{ACAD_REACTORS
330
D43
102
}
330
1A
100
AcDbEntity
  8
HAUPTEBENE
  6
Continuous
 62
     7
100
AcDbLine
 10
200.5586526613839
 20
288.3726555091671
 30
0.0
 11
199.5586831813838
 21
287.3726860291672
 31
0.0
1001
PHOENIX7010
1002
{
1070
    62
1070
     7
1070
    41
1040
1.0
1002
}
  0
LINE
  5
758
102
{ACAD_REACTORS
330
D43
102
}
330
1A
100
AcDbEntity
  8
HAUPTEBENE
  6
Continuous
 62
     7
100
AcDbLine
 10
314.7304055913839
 20
288.3726555091671
 30
0.0
 11
200.5586526613839
 21
288.3726555091671
 31
0.0
1001
PHOENIX7010
1002
{
1070
    62
1070
     7
1070
    41
1040
1.0
1002
}
  0
LINE
  5
759
102
{ACAD_REACTORS
330
D43
102
}
330
1A
100
AcDbEntity
  8
HAUPTEBENE
  6
Continuous
 62
     7
100
AcDbLine
 10
315.7304361113839
 20
287.3726555091671
 30
0.0
 11
314.7304055913839
 21
288.3726555091671
 31
0.0
1001
PHOENIX7010
1002
{
1070
    62
1070
     7
1070
    41
1040
1.0
1002
}
  0
LINE
  5
75A
102
{ACAD_REACTORS
330
D43
102
}
330
1A
100
AcDbEntity
  8
HAUPTEBENE
  6
Continuous
 62
     7
100
AcDbLine
 10
319.1445596413839
 20
287.3726555091671
 30
0.0
 11
315.7304361113839
 21
287.3726555091671
 31
0.0
1001
PHOENIX7010
1002
{
1070
    62
1070
     7
1070
    41
1040
1.0
1002
}
  0
LINE
  5
75B
102
{ACAD_REACTORS
330
D43
102
}
330
1A
100
AcDbEntity
  8
HAUPTEBENE
  6
Continuous
 62
     7
100
AcDbLine
 10
319.1445596413839
 20
288.3726555091671
 30
0.0
 11
319.1445596413839
 21
287.3726555091671
 31
0.0
1001
PHOENIX7010
1002
{
1070
    62
1070
     7
1070
    41
1040
1.0
1002
}
  0
LINE
  5
75C
102
{ACAD_REACTORS
330
D43
102
}
330
1A
100
AcDbEntity
  8
HAUPTEBENE
  6
Continuous
 62
     7
100
AcDbLine
 10
316.1445596413839
 20
288.3726555091671
 30
0.0
 11
319.1445596413839
 21
288.3726555091671
 31
0.0
1001
PHOENIX7010
1002
{
1070
    62
1070
     7
1070
    41
1040
1.0
1002
}
  0
LINE
  5
75D
102
{ACAD_REACTORS
330
D43
102
}
330
1A
100
AcDbEntity
  8
HAUPTEBENE
  6
Continuous
 62
     7
100
AcDbLine
 10
315.1445291213839
 20
289.3726860291671
 30
0.0
 11
316.1445596413839
 21
288.3726555091671
 31
0.0
1001
PHOENIX7010
1002
{
1070
    62
1070
     7
1070
    41
1040
1.0
1002
}
  0
LINE
  5
75E
102
{ACAD_REACTORS
330
D43
102
}
330
1A
100
AcDbEntity
  8
HAUPTEBENE
  6
Continuous
 62
     7
100
AcDbLine
 10
200.1445291213839
 20
289.3726860291671
 30
0.0
 11
315.1445291213839
 21
289.3726860291671
 31
0.0
1001
PHOENIX7010
1002
{
1070
    62
1070
     7
1070
    41
1040
1.0
1002
}
  0
LINE
  5
75F
102
{ACAD_REACTORS
330
D43
102
}
330
1A
100
AcDbEntity
  8
HAUPTEBENE
  6
Continuous
 62
     7
100
AcDbLine
 10
199.1445596413839
 20
288.3726555091671
 30
0.0
 11
200.1445291213839
 21
289.3726860291671
 31
0.0
1001
PHOENIX7010
1002
{
1070
    62
1070
     7
1070
    41
1040
1.0
1002
}
  0
LINE
  5
760
102
{ACAD_REACTORS
330
D43
102
}
330
1A
100
AcDbEntity
  8
HAUPTEBENE
  6
Continuous
 62
     7
100
AcDbLine
 10
196.1445596413838
 20
288.3726555091671
 30
0.0
 11
199.1445596413839
 21
288.3726555091671
 31
0.0
1001
PHOENIX7010
1002
{
1070
    62
1070
     7
1070
    41
1040
1.0
1002
}
  0
LINE
  5
761
102
{ACAD_REACTORS
330
D43
102
}
330
1A
100
AcDbEntity
  8
HAUPTEBENE
  6
Continuous
 62
     7
100
AcDbLine
 10
196.1445596413838
 20
287.3726555091671
 30
0.0
 11
196.1445596413838
 21
288.3726555091671
 31
0.0
1001
PHOENIX7010
1002
{
1070
    62
1070
     7
1070
    41
1040
1.0
1002
}
  0
LINE
  5
762
330
1A
100
AcDbEntity
  8
HAUPTEBENE
  6
ACAD_ISO04W100
 62
     1
100
AcDbLine
 10
192.3645303413839
 20
291.3726555091671
 30
0.0
 11
192.3645303413839
 21
285.3726555091671
 31
0.0
1001
PHOENIX7010
1002
{
1070
    62
1070
     1
1070
    41
1040
1.0
1002
}
  0
TEXT
  5
766
102
{ACAD_REACTORS
330
D44
102
}
330
1A
100
AcDbEntity
  8
BEMASSUNG
  6
Continuous
 62
     5
100
AcDbText
 10
236.8945596413839
 20
304.0727287591672
 30
0.0
 40
5.0
  1
a ( x b )
 41
1.5
100
AcDbText
1001
PHOENIX7010
1002
{
1070
    62
1070
     5
1070
    41
1040
1.0
1002
}
  0
LINE
  5
767
102
{ACAD_REACTORS
330
D44
102
}
330
1A
100
AcDbEntity
  8
BEMASSUNG
  6
Continuous
 62
     1
100
AcDbLine
 10
319.1445596413839
 20
301.5727287591671
 30
0.0
 11
316.173911652746
 21
301.9913581030999
 31
0.0
1001
PHOENIX7010
1002
{
1070
    62
1070
     1
1070
    41
1040
1.0
1002
}
  0
LINE
  5
768
102
{ACAD_REACTORS
330
D44
102
}
330
1A
100
AcDbEntity
  8
BEMASSUNG
  6
Continuous
 62
     1
100
AcDbLine
 10
319.1445596413839
 20
301.5727287591671
 30
0.0
 11
316.173911652746
 21
301.1540994152344
 31
0.0
1001
PHOENIX7010
1002
{
1070
    62
1070
     1
1070
    41
1040
1.0
1002
}
  0
LINE
  5
769
102
{ACAD_REACTORS
330
D44
102
}
330
1A
100
AcDbEntity
  8
BEMASSUNG
  6
Continuous
 62
     1
100
AcDbLine
 10
196.1445596413838
 20
301.5727287591671
 30
0.0
 11
199.1152076300218
 21
301.1540994152344
 31
0.0
1001
PHOENIX7010
1002
{
1070
    62
1070
     1
1070
    41
1040
1.0
1002
}
  0
LINE
  5
76A
102
{ACAD_REACTORS
330
D44
102
}
330
1A
100
AcDbEntity
  8
BEMASSUNG
  6
Continuous
 62
     1
100
AcDbLine
 10
196.1445596413838
 20
301.5727287591671
 30
0.0
 11
199.1152076300218
 21
301.9913581030999
 31
0.0
1001
PHOENIX7010
1002
{
1070
    62
1070
     1
1070
    41
1040
1.0
1002
}
  0
LINE
  5
76B
102
{ACAD_REACTORS
330
D44
102
}
330
1A
100
AcDbEntity
  8
BEMASSUNG
  6
Continuous
 62
     1
100
AcDbLine
 10
196.1445596413838
 20
301.5727287591671
 30
0.0
 11
319.1445596413839
 21
301.5727287591671
 31
0.0
1001
PHOENIX7010
1002
{
1070
    62
1070
     1
1070
    41
1040
1.0
1002
}
  0
LINE
  5
76C
102
{ACAD_REACTORS
330
D44
102
}
330
1A
100
AcDbEntity
  8
BEMASSUNG
  6
Continuous
 62
     1
100
AcDbLine
 10
319.1445596413839
 20
288.3726555091671
 30
0.0
 11
319.1445596413839
 21
303.5727287591671
 31
0.0
1001
PHOENIX7010
1002
{
1070
    62
1070
     1
1070
    41
1040
1.0
1002
}
  0
LINE
  5
76D
102
{ACAD_REACTORS
330
D44
102
}
330
1A
100
AcDbEntity
  8
BEMASSUNG
  6
Continuous
 62
     1
100
AcDbLine
 10
196.1445596413838
 20
288.3726555091671
 30
0.0
 11
196.1445596413838
 21
303.5727287591671
 31
0.0
1001
PHOENIX7010
1002
{
1070
    62
1070
     1
1070
    41
1040
1.0
1002
}
  0
LINE
  5
770
102
{ACAD_REACTORS
330
D45
102
}
330
1A
100
AcDbEntity
  8
HAUPTEBENE
  6
Continuous
 62
     1
100
AcDbLine
 10
197.9717996313839
 20
288.6130119591671
 30
0.0
 11
197.2121560813839
 21
289.3726555091671
 31
0.0
1001
PHOENIX7010
1002
{
1070
    62
1070
     1
1070
    41
1040
1.0
1002
}
  0
LINE
  5
771
102
{ACAD_REACTORS
330
D45
102
}
330
1A
100
AcDbEntity
  8
HAUPTEBENE
  6
Continuous
 62
     1
100
AcDbLine
 10
196.7979715113838
 20
288.3726555091671
 30
0.0
 11
195.7979715113838
 21
289.3726555091671
 31
0.0
1001
PHOENIX7010
1002
{
1070
    62
1070
     1
1070
    41
1040
1.0
1002
}
  0
LINE
  5
772
102
{ACAD_REACTORS
330
D45
102
}
330
1A
100
AcDbEntity
  8
HAUPTEBENE
  6
Continuous
 62
     1
100
AcDbLine
 10
195.6445596413839
 20
288.1118828091672
 30
0.0
 11
194.3837869413839
 21
289.3726555091671
 31
0.0
1001
PHOENIX7010
1002
{
1070
    62
1070
     1
1070
    41
1040
1.0
1002
}
  0
LINE
  5
773
102
{ACAD_REACTORS
330
D45
102
}
330
1A
100
AcDbEntity
  8
HAUPTEBENE
  6
Continuous
 62
     1
100
AcDbLine
 10
194.8920877213839
 20
287.4502006791671
 30
0.0
 11
192.9696023713839
 21
289.3726555091671
 31
0.0
1001
PHOENIX7010
1002
{
1070
    62
1070
     1
1070
    41
1040
1.0
1002
}
  0
LINE
  5
774
102
{ACAD_REACTORS
330
D45
102
}
330
1A
100
AcDbEntity
  8
HAUPTEBENE
  6
Continuous
 62
     1
100
AcDbLine
 10
193.1553933813838
 20
287.7726799291671
 30
0.0
 11
191.5554178013839
 21
289.3726555091671
 31
0.0
1001
PHOENIX7010
1002
{
1070
    62
1070
     1
1070
    41
1040
1.0
1002
}
  0
LINE
  5
775
102
{ACAD_REACTORS
330
D45
102
}
330
1A
100
AcDbEntity
  8
HAUPTEBENE
  6
Continuous
 62
     1
100
AcDbLine
 10
191.7412088113839
 20
287.7726799291671
 30
0.0
 11
190.1412332313839
 21
289.3726555091671
 31
0.0
1001
PHOENIX7010
1002
{
1070
    62
1070
     1
1070
    41
1040
1.0
1002
}
  0
LINE
  5
776
102
{ACAD_REACTORS
330
D45
102
}
330
1A
100
AcDbEntity
  8
HAUPTEBENE
  6
Continuous
 62
     1
100
AcDbLine
 10
190.5207803413839
 20
287.5789238191671
 30
0.0
 11
188.7270791713838
 21
289.3726555091671
 31
0.0
1001
PHOENIX7010
1002
{
1070
    62
1070
     1
1070
    41
1040
1.0
1002
}
  0
LINE
  5
777
102
{ACAD_REACTORS
330
D45
102
}
330
1A
100
AcDbEntity
  8
HAUPTEBENE
  6
Continuous
 62
     1
100
AcDbLine
 10
188.3128946013839
 20
288.3726555091671
 30
0.0
 11
187.3128946013839
 21
289.3726555091671
 31
0.0
1001
PHOENIX7010
1002
{
1070
    62
1070
     1
1070
    41
1040
1.0
1002
}
  0
LINE
  5
77A
102
{ACAD_REACTORS
330
D46
102
}
330
1A
100
AcDbEntity
  8
HAUPTEBENE
  6
Continuous
 62
     5
100
AcDbLine
 10
186.6845376713839
 20
288.8726555091671
 30
0.0
 11
186.6845376713839
 21
289.3726555091671
 31
0.0
1001
PHOENIX7010
1002
{
1070
    62
1070
     5
1070
    41
1040
1.0
1002
}
  0
ARC
  5
77B
102
{ACAD_REACTORS
330
D46
102
}
330
1A
100
AcDbEntity
  8
HAUPTEBENE
  6
Continuous
 62
     5
100
AcDbCircle
 10
187.1845376713839
 20
288.8726555091671
 30
0.0
 40
0.5
100
AcDbArc
 50
179.9999997943177
 51
269.9999999779606
1001
PHOENIX7010
1002
{
1070
    62
1070
     5
1070
    41
1040
1.0
1002
}
  0
LINE
  5
77C
102
{ACAD_REACTORS
330
D46
102
}
330
1A
100
AcDbEntity
  8
HAUPTEBENE
  6
Continuous
 62
     5
100
AcDbLine
 10
189.0845620813839
 20
288.3726555091671
 30
0.0
 11
187.1845376713839
 21
288.3726555091671
 31
0.0
1001
PHOENIX7010
1002
{
1070
    62
1070
     5
1070
    41
1040
1.0
1002
}
  0
LINE
  5
77D
102
{ACAD_REACTORS
330
D46
102
}
330
1A
100
AcDbEntity
  8
HAUPTEBENE
  6
Continuous
 62
     5
100
AcDbLine
 10
189.0845620813839
 20
287.7726494091671
 30
0.0
 11
189.0845620813839
 21
288.3726555091671
 31
0.0
1001
PHOENIX7010
1002
{
1070
    62
1070
     5
1070
    41
1040
1.0
1002
}
  0
LINE
  5
77E
102
{ACAD_REACTORS
330
D46
102
}
330
1A
100
AcDbEntity
  8
HAUPTEBENE
  6
Continuous
 62
     5
100
AcDbLine
 10
195.6445596413839
 20
288.3726555091671
 30
0.0
 11
195.6445596413839
 21
287.7726188891671
 31
0.0
1001
PHOENIX7010
1002
{
1070
    62
1070
     5
1070
    41
1040
1.0
1002
}
  0
LINE
  5
77F
102
{ACAD_REACTORS
330
D46
102
}
330
1A
100
AcDbEntity
  8
HAUPTEBENE
  6
Continuous
 62
     5
100
AcDbLine
 10
197.5445230213839
 20
288.3726555091671
 30
0.0
 11
195.6445596413839
 21
288.3726555091671
 31
0.0
1001
PHOENIX7010
1002
{
1070
    62
1070
     5
1070
    41
1040
1.0
1002
}
  0
ARC
  5
780
102
{ACAD_REACTORS
330
D46
102
}
330
1A
100
AcDbEntity
  8
HAUPTEBENE
  6
Continuous
 62
     5
100
AcDbCircle
 10
197.5445230213839
 20
288.8726555091671
 30
0.0
 40
0.5
100
AcDbArc
 50
269.9999999779574
 51
0.0000001616002685
1001
PHOENIX7010
1002
{
1070
    62
1070
     5
1070
    41
1040
1.0
1002
}
  0
LINE
  5
781
102
{ACAD_REACTORS
330
D46
102
}
330
1A
100
AcDbEntity
  8
HAUPTEBENE
  6
Continuous
 62
     5
100
AcDbLine
 10
198.0445230213839
 20
289.3726555091671
 30
0.0
 11
198.0445230213839
 21
288.8726555091671
 31
0.0
1001
PHOENIX7010
1002
{
1070
    62
1070
     5
1070
    41
1040
1.0
1002
}
  0
LINE
  5
782
102
{ACAD_REACTORS
330
D46
102
}
330
1A
100
AcDbEntity
  8
HAUPTEBENE
  6
Continuous
 62
     5
100
AcDbLine
 10
186.6845376713839
 20
289.3726555091671
 30
0.0
 11
198.0445230213839
 21
289.3726555091671
 31
0.0
1001
PHOENIX7010
1002
{
1070
    62
1070
     5
1070
    41
1040
1.0
1002
}
  0
LINE
  5
787
102
{ACAD_REACTORS
330
D47
102
}
330
1A
100
AcDbEntity
  8
HAUPTEBENE
  6
Continuous
 62
     1
100
AcDbLine
 10
338.4845254613839
 20
215.9572197191671
 30
0.0
 11
341.4845254613839
 21
215.5719352991671
 31
0.0
1001
PHOENIX7010
1002
{
1070
    62
1070
     1
1070
    41
1040
1.0
1002
}
  0
LINE
  5
788
102
{ACAD_REACTORS
330
D47
102
}
330
1A
100
AcDbEntity
  8
HAUPTEBENE
  6
Continuous
 62
     1
100
AcDbLine
 10
334.2371499713839
 20
216.5027214291671
 30
0.0
 11
338.4845254613839
 21
215.9572197191671
 31
0.0
1001
PHOENIX7010
1002
{
1070
    62
1070
     1
1070
    41
1040
1.0
1002
}
  0
LINE
  5
789
102
{ACAD_REACTORS
330
D47
102
}
330
1A
100
AcDbEntity
  8
HAUPTEBENE
  6
Continuous
 62
     1
100
AcDbLine
 10
327.2373330813839
 20
217.4607292391671
 30
0.0
 11
334.2371499713839
 21
216.5027214291671
 31
0.0
1001
PHOENIX7010
1002
{
1070
    62
1070
     1
1070
    41
1040
1.0
1002
}
  0
LINE
  5
78A
102
{ACAD_REACTORS
330
D47
102
}
330
1A
100
AcDbEntity
  8
HAUPTEBENE
  6
Continuous
 62
     1
100
AcDbLine
 10
324.2375161813839
 20
213.4187675691671
 30
0.0
 11
327.2373330813839
 21
217.4607292391671
 31
0.0
1001
PHOENIX7010
1002
{
1070
    62
1070
     1
1070
    41
1040
1.0
1002
}
  0
LINE
  5
78B
102
{ACAD_REACTORS
330
D47
102
}
330
1A
100
AcDbEntity
  8
HAUPTEBENE
  6
Continuous
 62
     1
100
AcDbLine
 10
319.2376992913839
 20
217.3768058991671
 30
0.0
 11
324.2375161813839
 21
213.4187675691671
 31
0.0
1001
PHOENIX7010
1002
{
1070
    62
1070
     1
1070
    41
1040
1.0
1002
}
  0
LINE
  5
78C
102
{ACAD_REACTORS
330
D47
102
}
330
1A
100
AcDbEntity
  8
HAUPTEBENE
  6
Continuous
 62
     1
100
AcDbLine
 10
315.2378824013839
 20
214.3348442291671
 30
0.0
 11
319.2376992913839
 21
217.3768058991671
 31
0.0
1001
PHOENIX7010
1002
{
1070
    62
1070
     1
1070
    41
1040
1.0
1002
}
  0
LINE
  5
78D
102
{ACAD_REACTORS
330
D47
102
}
330
1A
100
AcDbEntity
  8
HAUPTEBENE
  6
Continuous
 62
     1
100
AcDbLine
 10
307.2380655013839
 20
217.2928520491671
 30
0.0
 11
315.2378824013839
 21
214.3348442291671
 31
0.0
1001
PHOENIX7010
1002
{
1070
    62
1070
     1
1070
    41
1040
1.0
1002
}
  0
LINE
  5
78E
102
{ACAD_REACTORS
330
D47
102
}
330
1A
100
AcDbEntity
  8
HAUPTEBENE
  6
Continuous
 62
     1
100
AcDbLine
 10
301.2382486113839
 20
216.2508903791671
 30
0.0
 11
307.2380655013839
 21
217.2928520491671
 31
0.0
1001
PHOENIX7010
1002
{
1070
    62
1070
     1
1070
    41
1040
1.0
1002
}
  0
LINE
  5
78F
102
{ACAD_REACTORS
330
D47
102
}
330
1A
100
AcDbEntity
  8
HAUPTEBENE
  6
Continuous
 62
     1
100
AcDbLine
 10
297.2384317113839
 20
216.2089287091671
 30
0.0
 11
301.2382486113839
 21
216.2508903791671
 31
0.0
1001
PHOENIX7010
1002
{
1070
    62
1070
     1
1070
    41
1040
1.0
1002
}
  0
LINE
  5
790
102
{ACAD_REACTORS
330
D47
102
}
330
1A
100
AcDbEntity
  8
HAUPTEBENE
  6
Continuous
 62
     1
100
AcDbLine
 10
292.2386148213838
 20
214.1669670391671
 30
0.0
 11
297.2384317113839
 21
216.2089287091671
 31
0.0
1001
PHOENIX7010
1002
{
1070
    62
1070
     1
1070
    41
1040
1.0
1002
}
  0
LINE
  5
791
102
{ACAD_REACTORS
330
D47
102
}
330
1A
100
AcDbEntity
  8
HAUPTEBENE
  6
Continuous
 62
     1
100
AcDbLine
 10
290.2387979213839
 20
213.1249748491671
 30
0.0
 11
292.2386148213838
 21
214.1669670391671
 31
0.0
1001
PHOENIX7010
1002
{
1070
    62
1070
     1
1070
    41
1040
1.0
1002
}
  0
LINE
  5
792
102
{ACAD_REACTORS
330
D47
102
}
330
1A
100
AcDbEntity
  8
HAUPTEBENE
  6
Continuous
 62
     1
100
AcDbLine
 10
282.2389810313839
 20
216.0830131791671
 30
0.0
 11
290.2387979213839
 21
213.1249748491671
 31
0.0
1001
PHOENIX7010
1002
{
1070
    62
1070
     1
1070
    41
1040
1.0
1002
}
  0
LINE
  5
793
102
{ACAD_REACTORS
330
D47
102
}
330
1A
100
AcDbEntity
  8
HAUPTEBENE
  6
Continuous
 62
     1
100
AcDbLine
 10
279.2391641313839
 20
217.0410515091671
 30
0.0
 11
282.2389810313839
 21
216.0830131791671
 31
0.0
1001
PHOENIX7010
1002
{
1070
    62
1070
     1
1070
    41
1040
1.0
1002
}
  0
LINE
  5
794
102
{ACAD_REACTORS
330
D47
102
}
330
1A
100
AcDbEntity
  8
HAUPTEBENE
  6
Continuous
 62
     1
100
AcDbLine
 10
271.2393472413839
 20
215.9990898391671
 30
0.0
 11
279.2391641313839
 21
217.0410515091671
 31
0.0
1001
PHOENIX7010
1002
{
1070
    62
1070
     1
1070
    41
1040
1.0
1002
}
  0
LINE
  5
795
102
{ACAD_REACTORS
330
D47
102
}
330
1A
100
AcDbEntity
  8
HAUPTEBENE
  6
Continuous
 62
     1
100
AcDbLine
 10
270.2395303413839
 20
215.9571281691671
 30
0.0
 11
271.2393472413839
 21
215.9990898391671
 31
0.0
1001
PHOENIX7010
1002
{
1070
    62
1070
     1
1070
    41
1040
1.0
1002
}
  0
LINE
  5
796
102
{ACAD_REACTORS
330
D47
102
}
330
1A
100
AcDbEntity
  8
HAUPTEBENE
  6
Continuous
 62
     1
100
AcDbLine
 10
262.2397134513839
 20
212.9151359791671
 30
0.0
 11
270.2395303413839
 21
215.9571281691671
 31
0.0
1001
PHOENIX7010
1002
{
1070
    62
1070
     1
1070
    41
1040
1.0
1002
}
  0
LINE
  5
797
102
{ACAD_REACTORS
330
D47
102
}
330
1A
100
AcDbEntity
  8
HAUPTEBENE
  6
Continuous
 62
     1
100
AcDbLine
 10
260.2398965613839
 20
213.8731743091671
 30
0.0
 11
262.2397134513839
 21
212.9151359791671
 31
0.0
1001
PHOENIX7010
1002
{
1070
    62
1070
     1
1070
    41
1040
1.0
1002
}
  0
LINE
  5
798
102
{ACAD_REACTORS
330
D47
102
}
330
1A
100
AcDbEntity
  8
HAUPTEBENE
  6
Continuous
 62
     1
100
AcDbLine
 10
255.2400796613839
 20
213.8312126391671
 30
0.0
 11
260.2398965613839
 21
213.8731743091671
 31
0.0
1001
PHOENIX7010
1002
{
1070
    62
1070
     1
1070
    41
1040
1.0
1002
}
  0
LINE
  5
799
102
{ACAD_REACTORS
330
D47
102
}
330
1A
100
AcDbEntity
  8
HAUPTEBENE
  6
Continuous
 62
     1
100
AcDbLine
 10
250.2402627713839
 20
213.7892509691671
 30
0.0
 11
255.2400796613839
 21
213.8312126391671
 31
0.0
1001
PHOENIX7010
1002
{
1070
    62
1070
     1
1070
    41
1040
1.0
1002
}
  0
LINE
  5
79A
102
{ACAD_REACTORS
330
D47
102
}
330
1A
100
AcDbEntity
  8
HAUPTEBENE
  6
Continuous
 62
     1
100
AcDbLine
 10
245.2404458713839
 20
215.7472587791671
 30
0.0
 11
250.2402627713839
 21
213.7892509691671
 31
0.0
1001
PHOENIX7010
1002
{
1070
    62
1070
     1
1070
    41
1040
1.0
1002
}
  0
LINE
  5
79B
102
{ACAD_REACTORS
330
D47
102
}
330
1A
100
AcDbEntity
  8
HAUPTEBENE
  6
Continuous
 62
     1
100
AcDbLine
 10
236.2406289813839
 20
213.7052971091671
 30
0.0
 11
245.2404458713839
 21
215.7472587791671
 31
0.0
1001
PHOENIX7010
1002
{
1070
    62
1070
     1
1070
    41
1040
1.0
1002
}
  0
LINE
  5
79C
102
{ACAD_REACTORS
330
D47
102
}
330
1A
100
AcDbEntity
  8
HAUPTEBENE
  6
Continuous
 62
     1
100
AcDbLine
 10
232.2408120813839
 20
213.6633354391671
 30
0.0
 11
236.2406289813839
 21
213.7052971091671
 31
0.0
1001
PHOENIX7010
1002
{
1070
    62
1070
     1
1070
    41
1040
1.0
1002
}
  0
LINE
  5
79D
102
{ACAD_REACTORS
330
D47
102
}
330
1A
100
AcDbEntity
  8
HAUPTEBENE
  6
Continuous
 62
     1
100
AcDbLine
 10
230.2409951913839
 20
216.6213737691671
 30
0.0
 11
232.2408120813839
 21
213.6633354391671
 31
0.0
1001
PHOENIX7010
1002
{
1070
    62
1070
     1
1070
    41
1040
1.0
1002
}
  0
LINE
  5
79E
102
{ACAD_REACTORS
330
D47
102
}
330
1A
100
AcDbEntity
  8
HAUPTEBENE
  6
Continuous
 62
     1
100
AcDbLine
 10
224.2411782913839
 20
212.5793815891671
 30
0.0
 11
230.2409951913839
 21
216.6213737691671
 31
0.0
1001
PHOENIX7010
1002
{
1070
    62
1070
     1
1070
    41
1040
1.0
1002
}
  0
LINE
  5
79F
102
{ACAD_REACTORS
330
D47
102
}
330
1A
100
AcDbEntity
  8
HAUPTEBENE
  6
Continuous
 62
     1
100
AcDbLine
 10
220.2413614013839
 20
216.5374199191671
 30
0.0
 11
224.2411782913839
 21
212.5793815891671
 31
0.0
1001
PHOENIX7010
1002
{
1070
    62
1070
     1
1070
    41
1040
1.0
1002
}
  0
LINE
  5
7A0
102
{ACAD_REACTORS
330
D47
102
}
330
1A
100
AcDbEntity
  8
HAUPTEBENE
  6
Continuous
 62
     1
100
AcDbLine
 10
211.2415445113839
 20
215.4954277291671
 30
0.0
 11
220.2413614013839
 21
216.5374199191671
 31
0.0
1001
PHOENIX7010
1002
{
1070
    62
1070
     1
1070
    41
1040
1.0
1002
}
  0
LINE
  5
7A1
102
{ACAD_REACTORS
330
D47
102
}
330
1A
100
AcDbEntity
  8
HAUPTEBENE
  6
Continuous
 62
     1
100
AcDbLine
 10
209.2417276113839
 20
216.4534660591671
 30
0.0
 11
211.2415445113839
 21
215.4954277291671
 31
0.0
1001
PHOENIX7010
1002
{
1070
    62
1070
     1
1070
    41
1040
1.0
1002
}
  0
LINE
  5
7A2
102
{ACAD_REACTORS
330
D47
102
}
330
1A
100
AcDbEntity
  8
HAUPTEBENE
  6
Continuous
 62
     1
100
AcDbLine
 10
201.2419107213839
 20
213.4114738691671
 30
0.0
 11
209.2417276113839
 21
216.4534660591671
 31
0.0
1001
PHOENIX7010
1002
{
1070
    62
1070
     1
1070
    41
1040
1.0
1002
}
  0
LINE
  5
7A3
102
{ACAD_REACTORS
330
D47
102
}
330
1A
100
AcDbEntity
  8
HAUPTEBENE
  6
Continuous
 62
     1
100
AcDbLine
 10
196.2420938213839
 20
216.3695121991672
 30
0.0
 11
201.2419107213839
 21
213.4114738691671
 31
0.0
1001
PHOENIX7010
1002
{
1070
    62
1070
     1
1070
    41
1040
1.0
1002
}
  0
LINE
  5
7A4
102
{ACAD_REACTORS
330
D47
102
}
330
1A
100
AcDbEntity
  8
HAUPTEBENE
  6
Continuous
 62
     1
100
AcDbLine
 10
194.2422769313839
 20
213.3275200091671
 30
0.0
 11
196.2420938213839
 21
216.3695121991672
 31
0.0
1001
PHOENIX7010
1002
{
1070
    62
1070
     1
1070
    41
1040
1.0
1002
}
  0
LINE
  5
7A5
102
{ACAD_REACTORS
330
D47
102
}
330
1A
100
AcDbEntity
  8
HAUPTEBENE
  6
Continuous
 62
     1
100
AcDbLine
 10
189.2424600313839
 20
213.2855583391671
 30
0.0
 11
194.2422769313839
 21
213.3275200091671
 31
0.0
1001
PHOENIX7010
1002
{
1070
    62
1070
     1
1070
    41
1040
1.0
1002
}
  0
LINE
  5
7A6
102
{ACAD_REACTORS
330
D47
102
}
330
1A
100
AcDbEntity
  8
HAUPTEBENE
  6
Continuous
 62
     1
100
AcDbLine
 10
181.2426431413839
 20
215.2435661591671
 30
0.0
 11
189.2424600313839
 21
213.2855583391671
 31
0.0
1001
PHOENIX7010
1002
{
1070
    62
1070
     1
1070
    41
1040
1.0
1002
}
  0
LINE
  5
7A7
102
{ACAD_REACTORS
330
D47
102
}
330
1A
100
AcDbEntity
  8
HAUPTEBENE
  6
Continuous
 62
     1
100
AcDbLine
 10
179.2428262413839
 20
216.2016044891671
 30
0.0
 11
181.2426431413839
 21
215.2435661591671
 31
0.0
1001
PHOENIX7010
1002
{
1070
    62
1070
     1
1070
    41
1040
1.0
1002
}
  0
LINE
  5
7A8
102
{ACAD_REACTORS
330
D47
102
}
330
1A
100
AcDbEntity
  8
HAUPTEBENE
  6
Continuous
 62
     1
100
AcDbLine
 10
172.2430093513839
 20
215.1596122991671
 30
0.0
 11
179.2428262413839
 21
216.2016044891671
 31
0.0
1001
PHOENIX7010
1002
{
1070
    62
1070
     1
1070
    41
1040
1.0
1002
}
  0
LINE
  5
7A9
102
{ACAD_REACTORS
330
D47
102
}
330
1A
100
AcDbEntity
  8
HAUPTEBENE
  6
Continuous
 62
     1
100
AcDbLine
 10
169.2431314213839
 20
215.1176506291672
 30
0.0
 11
172.2430093513839
 21
215.1596122991671
 31
0.0
1001
PHOENIX7010
1002
{
1070
    62
1070
     1
1070
    41
1040
1.0
1002
}
  0
LINE
  5
7AA
102
{ACAD_REACTORS
330
D47
102
}
330
1A
100
AcDbEntity
  8
HAUPTEBENE
  6
Continuous
 62
     1
100
AcDbLine
 10
162.2432534913839
 20
213.0756584391671
 30
0.0
 11
169.2431314213839
 21
215.1176506291672
 31
0.0
1001
PHOENIX7010
1002
{
1070
    62
1070
     1
1070
    41
1040
1.0
1002
}
  0
LINE
  5
7AB
102
{ACAD_REACTORS
330
D47
102
}
330
1A
100
AcDbEntity
  8
HAUPTEBENE
  6
Continuous
 62
     1
100
AcDbLine
 10
157.2433755613839
 20
213.0336967691671
 30
0.0
 11
162.2432534913839
 21
213.0756584391671
 31
0.0
1001
PHOENIX7010
1002
{
1070
    62
1070
     1
1070
    41
1040
1.0
1002
}
  0
LINE
  5
7AC
102
{ACAD_REACTORS
330
D47
102
}
330
1A
100
AcDbEntity
  8
HAUPTEBENE
  6
Continuous
 62
     1
100
AcDbLine
 10
151.2434976313839
 20
215.9917045891671
 30
0.0
 11
157.2433755613839
 21
213.0336967691671
 31
0.0
1001
PHOENIX7010
1002
{
1070
    62
1070
     1
1070
    41
1040
1.0
1002
}
  0
LINE
  5
7AD
102
{ACAD_REACTORS
330
D47
102
}
330
1A
100
AcDbEntity
  8
HAUPTEBENE
  6
Continuous
 62
     1
100
AcDbLine
 10
149.2436197013839
 20
212.9497429191671
 30
0.0
 11
151.2434976313839
 21
215.9917045891671
 31
0.0
1001
PHOENIX7010
1002
{
1070
    62
1070
     1
1070
    41
1040
1.0
1002
}
  0
LINE
  5
7AE
102
{ACAD_REACTORS
330
D47
102
}
330
1A
100
AcDbEntity
  8
HAUPTEBENE
  6
Continuous
 62
     1
100
AcDbLine
 10
145.2437417713839
 20
212.9077507291671
 30
0.0
 11
149.2436197013839
 21
212.9497429191671
 31
0.0
1001
PHOENIX7010
1002
{
1070
    62
1070
     1
1070
    41
1040
1.0
1002
}
  0
LINE
  5
7AF
102
{ACAD_REACTORS
330
D47
102
}
330
1A
100
AcDbEntity
  8
HAUPTEBENE
  6
Continuous
 62
     1
100
AcDbLine
 10
139.2438638413838
 20
215.8657890591671
 30
0.0
 11
145.2437417713839
 21
212.9077507291671
 31
0.0
1001
PHOENIX7010
1002
{
1070
    62
1070
     1
1070
    41
1040
1.0
1002
}
  0
LINE
  5
7B0
102
{ACAD_REACTORS
330
D47
102
}
330
1A
100
AcDbEntity
  8
HAUPTEBENE
  6
Continuous
 62
     1
100
AcDbLine
 10
134.2439859113839
 20
212.8237968691671
 30
0.0
 11
139.2438638413838
 21
215.8657890591671
 31
0.0
1001
PHOENIX7010
1002
{
1070
    62
1070
     1
1070
    41
1040
1.0
1002
}
  0
LINE
  5
7B1
102
{ACAD_REACTORS
330
D47
102
}
330
1A
100
AcDbEntity
  8
HAUPTEBENE
  6
Continuous
 62
     1
100
AcDbLine
 10
126.2441079813839
 20
215.7818351991671
 30
0.0
 11
134.2439859113839
 21
212.8237968691671
 31
0.0
1001
PHOENIX7010
1002
{
1070
    62
1070
     1
1070
    41
1040
1.0
1002
}
  0
LINE
  5
7B2
102
{ACAD_REACTORS
330
D47
102
}
330
1A
100
AcDbEntity
  8
HAUPTEBENE
  6
Continuous
 62
     1
100
AcDbLine
 10
124.2442300513838
 20
214.7398430091671
 30
0.0
 11
126.2441079813839
 21
215.7818351991671
 31
0.0
1001
PHOENIX7010
1002
{
1070
    62
1070
     1
1070
    41
1040
1.0
1002
}
  0
LINE
  5
7B3
102
{ACAD_REACTORS
330
D47
102
}
330
1A
100
AcDbEntity
  8
HAUPTEBENE
  6
Continuous
 62
     1
100
AcDbLine
 10
117.2443521213839
 20
215.6978813391671
 30
0.0
 11
124.2442300513838
 21
214.7398430091671
 31
0.0
1001
PHOENIX7010
1002
{
1070
    62
1070
     1
1070
    41
1040
1.0
1002
}
  0
LINE
  5
7B4
102
{ACAD_REACTORS
330
D47
102
}
330
1A
100
AcDbEntity
  8
HAUPTEBENE
  6
Continuous
 62
     1
100
AcDbLine
 10
115.2444741913839
 20
211.6558891591671
 30
0.0
 11
117.2443521213839
 21
215.6978813391671
 31
0.0
1001
PHOENIX7010
1002
{
1070
    62
1070
     1
1070
    41
1040
1.0
1002
}
  0
LINE
  5
7B5
102
{ACAD_REACTORS
330
D47
102
}
330
1A
100
AcDbEntity
  8
HAUPTEBENE
  6
Continuous
 62
     1
100
AcDbLine
 10
106.2445962613839
 20
211.6139274891671
 30
0.0
 11
115.2444741913839
 21
211.6558891591671
 31
0.0
1001
PHOENIX7010
1002
{
1070
    62
1070
     1
1070
    41
1040
1.0
1002
}
  0
LINE
  5
7B6
102
{ACAD_REACTORS
330
D47
102
}
330
1A
100
AcDbEntity
  8
HAUPTEBENE
  6
Continuous
 62
     1
100
AcDbLine
 10
103.2447183313839
 20
213.5719352991671
 30
0.0
 11
106.2445962613839
 21
211.6139274891671
 31
0.0
1001
PHOENIX7010
1002
{
1070
    62
1070
     1
1070
    41
1040
1.0
1002
}
  0
ARC
  5
7B9
102
{ACAD_REACTORS
330
D48
102
}
330
1A
100
AcDbEntity
  8
HAUPTEBENE
  6
Continuous
 62
     5
100
AcDbCircle
 10
194.2793252713839
 20
281.9726921291671
 30
0.0
 40
0.499974619999996
100
AcDbArc
 50
210.0016788128582
 51
269.9999999779594
1001
PHOENIX7010
1002
{
1070
    62
1070
     5
1070
    41
1040
1.0
1002
}
  0
LINE
  5
7BA
102
{ACAD_REACTORS
330
D48
102
}
330
1A
100
AcDbEntity
  8
HAUPTEBENE
  6
Continuous
 62
     5
100
AcDbLine
 10
193.1413858113839
 20
282.9438225091672
 30
0.0
 11
193.8463418713839
 21
281.7226921291671
 31
0.0
1001
PHOENIX7010
1002
{
1070
    62
1070
     5
1070
    41
1040
1.0
1002
}
  0
ARC
  5
7BB
102
{ACAD_REACTORS
330
D48
102
}
330
1A
100
AcDbEntity
  8
HAUPTEBENE
  6
Continuous
 62
     5
100
AcDbCircle
 10
193.3146035913839
 20
283.0437980891671
 30
0.0
 40
0.2000732399999947
100
AcDbArc
 50
179.9999997943214
 51
209.9921247416271
1001
PHOENIX7010
1002
{
1070
    62
1070
     5
1070
    41
1040
1.0
1002
}
  0
ARC
  5
7BC
102
{ACAD_REACTORS
330
D48
102
}
330
1A
100
AcDbEntity
  8
HAUPTEBENE
  6
Continuous
 62
     5
100
AcDbCircle
 10
193.3146035913839
 20
283.0437980891671
 30
0.0
 40
0.20000532
100
AcDbArc
 50
121.8663789408005
 51
179.9999997943165
1001
PHOENIX7010
1002
{
1070
    62
1070
     5
1070
    41
1040
1.0
1002
}
  0
ARC
  5
7BD
102
{ACAD_REACTORS
330
D48
102
}
330
1A
100
AcDbEntity
  8
HAUPTEBENE
  6
Continuous
 62
     5
100
AcDbCircle
 10
192.3645303413839
 20
284.5726677191672
 30
0.0
 40
1.600017329999988
100
AcDbArc
 50
301.856646474009
 51
11.78915053336164
1001
PHOENIX7010
1002
{
1070
    62
1070
     5
1070
    41
1040
1.0
1002
}
  0
ARC
  5
7BE
102
{ACAD_REACTORS
330
D48
102
}
330
1A
100
AcDbEntity
  8
HAUPTEBENE
  6
Continuous
 62
     5
100
AcDbCircle
 10
193.6808145213839
 20
285.3325554191671
 30
0.0
 40
0.4999746200000007
100
AcDbArc
 50
300.0016789964955
 51
119.9981820293938
1001
PHOENIX7010
1002
{
1070
    62
1070
     5
1070
    41
1040
1.0
1002
}
  0
ARC
  5
7BF
102
{ACAD_REACTORS
330
D48
102
}
330
1A
100
AcDbEntity
  8
HAUPTEBENE
  6
Continuous
 62
     5
100
AcDbCircle
 10
192.3645303413839
 20
284.5726677191672
 30
0.0
 40
1.600015320000002
100
AcDbArc
 50
48.20854913412812
 51
131.7881916762535
1001
PHOENIX7010
1002
{
1070
    62
1070
     5
1070
    41
1040
1.0
1002
}
  0
ARC
  5
7C0
102
{ACAD_REACTORS
330
D48
102
}
330
1A
100
AcDbEntity
  8
HAUPTEBENE
  6
Continuous
 62
     5
100
AcDbCircle
 10
191.0483682413839
 20
285.3325554191671
 30
0.0
 40
0.5000274800000037
100
AcDbArc
 50
60.00181792652277
 51
239.9948230520808
1001
PHOENIX7010
1002
{
1070
    62
1070
     5
1070
    41
1040
1.0
1002
}
  0
ARC
  5
7C1
102
{ACAD_REACTORS
330
D48
102
}
330
1A
100
AcDbEntity
  8
HAUPTEBENE
  6
Continuous
 62
     5
100
AcDbCircle
 10
192.3645303413839
 20
284.5726677191672
 30
0.0
 40
1.59992815
100
AcDbArc
 50
168.2078167569466
 51
238.1470668213784
1001
PHOENIX7010
1002
{
1070
    62
1070
     5
1070
    41
1040
1.0
1002
}
  0
ARC
  5
7C2
102
{ACAD_REACTORS
330
D48
102
}
330
1A
100
AcDbEntity
  8
HAUPTEBENE
  6
Continuous
 62
     5
100
AcDbCircle
 10
191.4145791713839
 20
283.0437980891671
 30
0.0
 40
0.1999511700000198
100
AcDbArc
 50
0.0
 51
58.13362085352065
1001
PHOENIX7010
1002
{
1070
    62
1070
     5
1070
    41
1040
1.0
1002
}
  0
ARC
  5
7C3
102
{ACAD_REACTORS
330
D48
102
}
330
1A
100
AcDbEntity
  8
HAUPTEBENE
  6
Continuous
 62
     5
100
AcDbCircle
 10
191.4145791713839
 20
283.0437980891671
 30
0.0
 40
0.1999987900000117
100
AcDbArc
 50
330.0078752142965
 51
0.0000001615994543
1001
PHOENIX7010
1002
{
1070
    62
1070
     5
1070
    41
1040
1.0
1002
}
  0
LINE
  5
7C4
102
{ACAD_REACTORS
330
D48
102
}
330
1A
100
AcDbEntity
  8
HAUPTEBENE
  6
Continuous
 62
     5
100
AcDbLine
 10
190.8827188213839
 20
281.7226921291671
 30
0.0
 11
191.5877969513839
 21
282.9438225091672
 31
0.0
1001
PHOENIX7010
1002
{
1070
    62
1070
     5
1070
    41
1040
1.0
1002
}
  0
ARC
  5
7C5
102
{ACAD_REACTORS
330
D48
102
}
330
1A
100
AcDbEntity
  8
HAUPTEBENE
  6
Continuous
 62
     5
100
AcDbCircle
 10
190.4497354213838
 20
281.9726921291671
 30
0.0
 40
0.5
100
AcDbArc
 50
269.9999999779606
 51
329.9983211430629
1001
PHOENIX7010
1002
{
1070
    62
1070
     5
1070
    41
1040
1.0
1002
}
  0
LINE
  5
7C6
102
{ACAD_REACTORS
330
D48
102
}
330
1A
100
AcDbEntity
  8
HAUPTEBENE
  6
Continuous
 62
     5
100
AcDbLine
 10
189.1645791713838
 20
281.4726921291671
 30
0.0
 11
190.4497354213838
 21
281.4726921291671
 31
0.0
1001
PHOENIX7010
1002
{
1070
    62
1070
     5
1070
    41
1040
1.0
1002
}
  0
LINE
  5
7C7
102
{ACAD_REACTORS
330
D48
102
}
330
1A
100
AcDbEntity
  8
HAUPTEBENE
  6
Continuous
 62
     5
100
AcDbLine
 10
189.1645791713838
 20
282.1726433091671
 30
0.0
 11
189.1645791713838
 21
281.4726921291671
 31
0.0
1001
PHOENIX7010
1002
{
1070
    62
1070
     5
1070
    41
1040
1.0
1002
}
  0
LINE
  5
7C8
102
{ACAD_REACTORS
330
D48
102
}
330
1A
100
AcDbEntity
  8
HAUPTEBENE
  6
Continuous
 62
     5
100
AcDbLine
 10
190.0646035913839
 20
282.1727043391671
 30
0.0
 11
189.1645791713838
 21
282.1726433091671
 31
0.0
1001
PHOENIX7010
1002
{
1070
    62
1070
     5
1070
    41
1040
1.0
1002
}
  0
LINE
  5
7C9
102
{ACAD_REACTORS
330
D48
102
}
330
1A
100
AcDbEntity
  8
HAUPTEBENE
  6
Continuous
 62
     5
100
AcDbLine
 10
190.0646035913839
 20
283.8726555091671
 30
0.0
 11
190.0646035913839
 21
282.1727043391671
 31
0.0
1001
PHOENIX7010
1002
{
1070
    62
1070
     5
1070
    41
1040
1.0
1002
}
  0
LINE
  5
7CA
102
{ACAD_REACTORS
330
D48
102
}
330
1A
100
AcDbEntity
  8
HAUPTEBENE
  6
Continuous
 62
     5
100
AcDbLine
 10
189.1645791713838
 20
283.8726555091671
 30
0.0
 11
190.0646035913839
 21
283.8726555091671
 31
0.0
1001
PHOENIX7010
1002
{
1070
    62
1070
     5
1070
    41
1040
1.0
1002
}
  0
LINE
  5
7CB
102
{ACAD_REACTORS
330
D48
102
}
330
1A
100
AcDbEntity
  8
HAUPTEBENE
  6
Continuous
 62
     5
100
AcDbLine
 10
189.1645791713838
 20
284.5726677191672
 30
0.0
 11
189.1645791713838
 21
283.8726555091671
 31
0.0
1001
PHOENIX7010
1002
{
1070
    62
1070
     5
1070
    41
1040
1.0
1002
}
  0
LINE
  5
7CC
102
{ACAD_REACTORS
330
D48
102
}
330
1A
100
AcDbEntity
  8
HAUPTEBENE
  6
Continuous
 62
     5
100
AcDbLine
 10
188.9145791713838
 20
284.5726677191672
 30
0.0
 11
189.1645791713838
 21
284.5726677191672
 31
0.0
1001
PHOENIX7010
1002
{
1070
    62
1070
     5
1070
    41
1040
1.0
1002
}
  0
ARC
  5
7CD
102
{ACAD_REACTORS
330
D48
102
}
330
1A
100
AcDbEntity
  8
HAUPTEBENE
  6
Continuous
 62
     5
100
AcDbCircle
 10
187.3645303413839
 20
284.5726677191672
 30
0.0
 40
1.55004882999998
100
AcDbArc
 50
0.0
 51
179.9999997943202
1001
PHOENIX7010
1002
{
1070
    62
1070
     5
1070
    41
1040
1.0
1002
}
  0
LINE
  5
7CE
102
{ACAD_REACTORS
330
D48
102
}
330
1A
100
AcDbEntity
  8
HAUPTEBENE
  6
Continuous
 62
     5
100
AcDbLine
 10
185.5646035913839
 20
284.5726677191672
 30
0.0
 11
185.8146035913839
 21
284.5726677191672
 31
0.0
1001
PHOENIX7010
1002
{
1070
    62
1070
     5
1070
    41
1040
1.0
1002
}
  0
LINE
  5
7CF
102
{ACAD_REACTORS
330
D48
102
}
330
1A
100
AcDbEntity
  8
HAUPTEBENE
  6
Continuous
 62
     5
100
AcDbLine
 10
185.5646035913839
 20
283.8726555091671
 30
0.0
 11
185.5646035913839
 21
284.5726677191672
 31
0.0
1001
PHOENIX7010
1002
{
1070
    62
1070
     5
1070
    41
1040
1.0
1002
}
  0
LINE
  5
7D0
102
{ACAD_REACTORS
330
D48
102
}
330
1A
100
AcDbEntity
  8
HAUPTEBENE
  6
Continuous
 62
     5
100
AcDbLine
 10
184.6645791713839
 20
283.8726555091671
 30
0.0
 11
185.5646035913839
 21
283.8726555091671
 31
0.0
1001
PHOENIX7010
1002
{
1070
    62
1070
     5
1070
    41
1040
1.0
1002
}
  0
LINE
  5
7D1
102
{ACAD_REACTORS
330
D48
102
}
330
1A
100
AcDbEntity
  8
HAUPTEBENE
  6
Continuous
 62
     5
100
AcDbLine
 10
184.6645791713839
 20
282.1726433091671
 30
0.0
 11
184.6645791713839
 21
283.8726555091671
 31
0.0
1001
PHOENIX7010
1002
{
1070
    62
1070
     5
1070
    41
1040
1.0
1002
}
  0
LINE
  5
7D2
102
{ACAD_REACTORS
330
D48
102
}
330
1A
100
AcDbEntity
  8
HAUPTEBENE
  6
Continuous
 62
     5
100
AcDbLine
 10
185.5646035913839
 20
282.1726433091671
 30
0.0
 11
184.6645791713839
 21
282.1726433091671
 31
0.0
1001
PHOENIX7010
1002
{
1070
    62
1070
     5
1070
    41
1040
1.0
1002
}
  0
LINE
  5
7D3
102
{ACAD_REACTORS
330
D48
102
}
330
1A
100
AcDbEntity
  8
HAUPTEBENE
  6
Continuous
 62
     5
100
AcDbLine
 10
185.5646035913839
 20
281.4726921291671
 30
0.0
 11
185.5646035913839
 21
282.1726433091671
 31
0.0
1001
PHOENIX7010
1002
{
1070
    62
1070
     5
1070
    41
1040
1.0
1002
}
  0
LINE
  5
7D4
102
{ACAD_REACTORS
330
D48
102
}
330
1A
100
AcDbEntity
  8
HAUPTEBENE
  6
Continuous
 62
     5
100
AcDbLine
 10
182.3645303413839
 20
281.4726921291671
 30
0.0
 11
185.5646035913839
 21
281.4726921291671
 31
0.0
1001
PHOENIX7010
1002
{
1070
    62
1070
     5
1070
    41
1040
1.0
1002
}
  0
LINE
  5
7D5
102
{ACAD_REACTORS
330
D48
102
}
330
1A
100
AcDbEntity
  8
HAUPTEBENE
  6
Continuous
 62
     5
100
AcDbLine
 10
182.3645303413839
 20
282.4726921291671
 30
0.0
 11
182.3645303413839
 21
281.4726921291671
 31
0.0
1001
PHOENIX7010
1002
{
1070
    62
1070
     5
1070
    41
1040
1.0
1002
}
  0
LINE
  5
7D6
102
{ACAD_REACTORS
330
D48
102
}
330
1A
100
AcDbEntity
  8
HAUPTEBENE
  6
Continuous
 62
     5
100
AcDbLine
 10
183.1645791713839
 20
282.4726921291671
 30
0.0
 11
182.3645303413839
 21
282.4726921291671
 31
0.0
1001
PHOENIX7010
1002
{
1070
    62
1070
     5
1070
    41
1040
1.0
1002
}
  0
LINE
  5
7D7
102
{ACAD_REACTORS
330
D48
102
}
330
1A
100
AcDbEntity
  8
HAUPTEBENE
  6
Continuous
 62
     5
100
AcDbLine
 10
183.1645791713839
 20
283.1227165491672
 30
0.0
 11
183.1645791713839
 21
282.4726921291671
 31
0.0
1001
PHOENIX7010
1002
{
1070
    62
1070
     5
1070
    41
1040
1.0
1002
}
  0
ARC
  5
7D8
102
{ACAD_REACTORS
330
D48
102
}
330
1A
100
AcDbEntity
  8
HAUPTEBENE
  6
Continuous
 62
     5
100
AcDbCircle
 10
180.1645791713839
 20
283.1227165491672
 30
0.0
 40
3.0
100
AcDbArc
 50
0.0
 51
90.00000018363861
1001
PHOENIX7010
1002
{
1070
    62
1070
     5
1070
    41
1040
1.0
1002
}
  0
LINE
  5
7D9
102
{ACAD_REACTORS
330
D48
102
}
330
1A
100
AcDbEntity
  8
HAUPTEBENE
  6
Continuous
 62
     5
100
AcDbLine
 10
177.3645303413839
 20
286.1227165491671
 30
0.0
 11
180.1645791713839
 21
286.1227165491671
 31
0.0
1001
PHOENIX7010
1002
{
1070
    62
1070
     5
1070
    41
1040
1.0
1002
}
  0
ARC
  5
7DA
102
{ACAD_REACTORS
330
D48
102
}
330
1A
100
AcDbEntity
  8
HAUPTEBENE
  6
Continuous
 62
     5
100
AcDbCircle
 10
177.3645303413839
 20
284.5726677191672
 30
0.0
 40
1.550048830000008
100
AcDbArc
 50
90.00000018363962
 51
229.8220685533455
1001
PHOENIX7010
1002
{
1070
    62
1070
     5
1070
    41
1040
1.0
1002
}
  0
LINE
  5
7DB
102
{ACAD_REACTORS
330
D48
102
}
330
1A
100
AcDbEntity
  8
HAUPTEBENE
  6
Continuous
 62
     5
100
AcDbLine
 10
176.3645303413839
 20
282.8527580491672
 30
0.0
 11
176.3645303413839
 21
283.3884025791671
 31
0.0
1001
PHOENIX7010
1002
{
1070
    62
1070
     5
1070
    41
1040
1.0
1002
}
  0
LINE
  5
7DC
102
{ACAD_REACTORS
330
D48
102
}
330
1A
100
AcDbEntity
  8
HAUPTEBENE
  6
Continuous
 62
     5
100
AcDbLine
 10
174.9847085713839
 20
281.4726921291671
 30
0.0
 11
176.3645303413839
 21
282.8527580491672
 31
0.0
1001
PHOENIX7010
1002
{
1070
    62
1070
     5
1070
    41
1040
1.0
1002
}
  0
LINE
  5
7DD
102
{ACAD_REACTORS
330
D48
102
}
330
1A
100
AcDbEntity
  8
HAUPTEBENE
  6
Continuous
 62
     5
100
AcDbLine
 10
173.7846353313839
 20
281.4726921291671
 30
0.0
 11
174.9847085713839
 21
281.4726921291671
 31
0.0
1001
PHOENIX7010
1002
{
1070
    62
1070
     5
1070
    41
1040
1.0
1002
}
  0
ARC
  5
7DE
102
{ACAD_REACTORS
330
D48
102
}
330
1A
100
AcDbEntity
  8
HAUPTEBENE
  6
Continuous
 62
     5
100
AcDbCircle
 10
173.7846353313839
 20
280.8726555091671
 30
0.0
 40
0.6000366199999974
100
AcDbArc
 50
90.00000018363921
 51
269.9999999779576
1001
PHOENIX7010
1002
{
1070
    62
1070
     5
1070
    41
1040
1.0
1002
}
  0
LINE
  5
7DF
102
{ACAD_REACTORS
330
D48
102
}
330
1A
100
AcDbEntity
  8
HAUPTEBENE
  6
Continuous
 62
     5
100
AcDbLine
 10
174.9847085713839
 20
280.2726799291671
 30
0.0
 11
173.7846353313839
 21
280.2726799291671
 31
0.0
1001
PHOENIX7010
1002
{
1070
    62
1070
     5
1070
    41
1040
1.0
1002
}
  0
LINE
  5
7E0
102
{ACAD_REACTORS
330
D48
102
}
330
1A
100
AcDbEntity
  8
HAUPTEBENE
  6
Continuous
 62
     5
100
AcDbLine
 10
174.9847085713839
 20
279.4726921291671
 30
0.0
 11
174.9847085713839
 21
280.2726799291671
 31
0.0
1001
PHOENIX7010
1002
{
1070
    62
1070
     5
1070
    41
1040
1.0
1002
}
  0
LINE
  5
7E1
102
{ACAD_REACTORS
330
D48
102
}
330
1A
100
AcDbEntity
  8
HAUPTEBENE
  6
Continuous
 62
     5
100
AcDbLine
 10
166.2447183313839
 20
279.4726310991671
 30
0.0
 11
174.9847085713839
 21
279.4726921291671
 31
0.0
1001
PHOENIX7010
1002
{
1070
    62
1070
     5
1070
    41
1040
1.0
1002
}
  0
LINE
  5
7E2
102
{ACAD_REACTORS
330
D48
102
}
330
1A
100
AcDbEntity
  8
HAUPTEBENE
  6
Continuous
 62
     5
100
AcDbLine
 10
166.2447183313839
 20
280.2226310991671
 30
0.0
 11
166.2447183313839
 21
279.4726310991671
 31
0.0
1001
PHOENIX7010
1002
{
1070
    62
1070
     5
1070
    41
1040
1.0
1002
}
  0
LINE
  5
7E3
102
{ACAD_REACTORS
330
D48
102
}
330
1A
100
AcDbEntity
  8
HAUPTEBENE
  6
Continuous
 62
     5
100
AcDbLine
 10
167.9446695113839
 20
280.2226310991671
 30
0.0
 11
166.2447183313839
 21
280.2226310991671
 31
0.0
1001
PHOENIX7010
1002
{
1070
    62
1070
     5
1070
    41
1040
1.0
1002
}
  0
LINE
  5
7E4
102
{ACAD_REACTORS
330
D48
102
}
330
1A
100
AcDbEntity
  8
HAUPTEBENE
  6
Continuous
 62
     5
100
AcDbLine
 10
167.9446695113839
 20
281.1226555091671
 30
0.0
 11
167.9446695113839
 21
280.2226310991671
 31
0.0
1001
PHOENIX7010
1002
{
1070
    62
1070
     5
1070
    41
1040
1.0
1002
}
  0
LINE
  5
7E5
102
{ACAD_REACTORS
330
D48
102
}
330
1A
100
AcDbEntity
  8
HAUPTEBENE
  6
Continuous
 62
     5
100
AcDbLine
 10
166.2447183313839
 20
281.1226555091671
 30
0.0
 11
167.9446695113839
 21
281.1226555091671
 31
0.0
1001
PHOENIX7010
1002
{
1070
    62
1070
     5
1070
    41
1040
1.0
1002
}
  0
LINE
  5
7E6
102
{ACAD_REACTORS
330
D48
102
}
330
1A
100
AcDbEntity
  8
HAUPTEBENE
  6
Continuous
 62
     5
100
AcDbLine
 10
166.2447183313839
 20
282.7726799291671
 30
0.0
 11
166.2447183313839
 21
281.1226555091671
 31
0.0
1001
PHOENIX7010
1002
{
1070
    62
1070
     5
1070
    41
1040
1.0
1002
}
  0
LINE
  5
7E7
102
{ACAD_REACTORS
330
D48
102
}
330
1A
100
AcDbEntity
  8
HAUPTEBENE
  6
Continuous
 62
     5
100
AcDbLine
 10
167.3946206813839
 20
282.7726799291671
 30
0.0
 11
166.2447183313839
 21
282.7726799291671
 31
0.0
1001
PHOENIX7010
1002
{
1070
    62
1070
     5
1070
    41
1040
1.0
1002
}
  0
LINE
  5
7E8
102
{ACAD_REACTORS
330
D48
102
}
330
1A
100
AcDbEntity
  8
HAUPTEBENE
  6
Continuous
 62
     5
100
AcDbLine
 10
167.3947427513839
 20
281.8726555091671
 30
0.0
 11
167.3946206813839
 21
282.7726799291671
 31
0.0
1001
PHOENIX7010
1002
{
1070
    62
1070
     5
1070
    41
1040
1.0
1002
}
  0
LINE
  5
7E9
102
{ACAD_REACTORS
330
D48
102
}
330
1A
100
AcDbEntity
  8
HAUPTEBENE
  6
Continuous
 62
     5
100
AcDbLine
 10
169.3947427513839
 20
281.8726555091671
 30
0.0
 11
167.3947427513839
 21
281.8726555091671
 31
0.0
1001
PHOENIX7010
1002
{
1070
    62
1070
     5
1070
    41
1040
1.0
1002
}
  0
LINE
  5
7EA
102
{ACAD_REACTORS
330
D48
102
}
330
1A
100
AcDbEntity
  8
HAUPTEBENE
  6
Continuous
 62
     5
100
AcDbLine
 10
169.3947427513839
 20
282.7726799291671
 30
0.0
 11
169.3947427513839
 21
281.8726555091671
 31
0.0
1001
PHOENIX7010
1002
{
1070
    62
1070
     5
1070
    41
1040
1.0
1002
}
  0
LINE
  5
7EB
102
{ACAD_REACTORS
330
D48
102
}
330
1A
100
AcDbEntity
  8
HAUPTEBENE
  6
Continuous
 62
     5
100
AcDbLine
 10
170.2946450913839
 20
282.7726799291671
 30
0.0
 11
169.3947427513839
 21
282.7726799291671
 31
0.0
1001
PHOENIX7010
1002
{
1070
    62
1070
     5
1070
    41
1040
1.0
1002
}
  0
LINE
  5
7EC
102
{ACAD_REACTORS
330
D48
102
}
330
1A
100
AcDbEntity
  8
HAUPTEBENE
  6
Continuous
 62
     5
100
AcDbLine
 10
170.2946450913839
 20
281.8726555091671
 30
0.0
 11
170.2946450913839
 21
282.7726799291671
 31
0.0
1001
PHOENIX7010
1002
{
1070
    62
1070
     5
1070
    41
1040
1.0
1002
}
  0
LINE
  5
7ED
102
{ACAD_REACTORS
330
D48
102
}
330
1A
100
AcDbEntity
  8
HAUPTEBENE
  6
Continuous
 62
     5
100
AcDbLine
 10
172.2946450913839
 20
281.8726555091671
 30
0.0
 11
170.2946450913839
 21
281.8726555091671
 31
0.0
1001
PHOENIX7010
1002
{
1070
    62
1070
     5
1070
    41
1040
1.0
1002
}
  0
LINE
  5
7EE
102
{ACAD_REACTORS
330
D48
102
}
330
1A
100
AcDbEntity
  8
HAUPTEBENE
  6
Continuous
 62
     5
100
AcDbLine
 10
172.2946450913839
 20
282.7726799291671
 30
0.0
 11
172.2946450913839
 21
281.8726555091671
 31
0.0
1001
PHOENIX7010
1002
{
1070
    62
1070
     5
1070
    41
1040
1.0
1002
}
  0
LINE
  5
7EF
102
{ACAD_REACTORS
330
D48
102
}
330
1A
100
AcDbEntity
  8
HAUPTEBENE
  6
Continuous
 62
     5
100
AcDbLine
 10
173.6253335713839
 20
283.1217399891672
 30
0.0
 11
172.2946450913839
 21
282.7726799291671
 31
0.0
1001
PHOENIX7010
1002
{
1070
    62
1070
     5
1070
    41
1040
1.0
1002
}
  0
ARC
  5
7F0
102
{ACAD_REACTORS
330
D48
102
}
330
1A
100
AcDbEntity
  8
HAUPTEBENE
  6
Continuous
 62
     5
100
AcDbCircle
 10
173.2447183313839
 20
284.5726677191672
 30
0.0
 40
1.500019750000001
100
AcDbArc
 50
284.6989457331426
 51
75.30046215169268
1001
PHOENIX7010
1002
{
1070
    62
1070
     5
1070
    41
1040
1.0
1002
}
  0
LINE
  5
7F1
102
{ACAD_REACTORS
330
D48
102
}
330
1A
100
AcDbEntity
  8
HAUPTEBENE
  6
Continuous
 62
     5
100
AcDbLine
 10
172.2946450913839
 20
286.3726555091671
 30
0.0
 11
173.6253335713839
 21
286.0235344191671
 31
0.0
1001
PHOENIX7010
1002
{
1070
    62
1070
     5
1070
    41
1040
1.0
1002
}
  0
LINE
  5
7F2
102
{ACAD_REACTORS
330
D48
102
}
330
1A
100
AcDbEntity
  8
HAUPTEBENE
  6
Continuous
 62
     5
100
AcDbLine
 10
172.2946450913839
 20
287.2726188891671
 30
0.0
 11
172.2946450913839
 21
286.3726555091671
 31
0.0
1001
PHOENIX7010
1002
{
1070
    62
1070
     5
1070
    41
1040
1.0
1002
}
  0
LINE
  5
7F3
102
{ACAD_REACTORS
330
D48
102
}
330
1A
100
AcDbEntity
  8
HAUPTEBENE
  6
Continuous
 62
     5
100
AcDbLine
 10
170.2946450913839
 20
287.2726188891671
 30
0.0
 11
172.2946450913839
 21
287.2726188891671
 31
0.0
1001
PHOENIX7010
1002
{
1070
    62
1070
     5
1070
    41
1040
1.0
1002
}
  0
LINE
  5
7F4
102
{ACAD_REACTORS
330
D48
102
}
330
1A
100
AcDbEntity
  8
HAUPTEBENE
  6
Continuous
 62
     5
100
AcDbLine
 10
170.2946450913839
 20
286.3726555091671
 30
0.0
 11
170.2946450913839
 21
287.2726188891671
 31
0.0
1001
PHOENIX7010
1002
{
1070
    62
1070
     5
1070
    41
1040
1.0
1002
}
  0
LINE
  5
7F5
102
{ACAD_REACTORS
330
D48
102
}
330
1A
100
AcDbEntity
  8
HAUPTEBENE
  6
Continuous
 62
     5
100
AcDbLine
 10
169.3947427513839
 20
286.3726555091671
 30
0.0
 11
170.2946450913839
 21
286.3726555091671
 31
0.0
1001
PHOENIX7010
1002
{
1070
    62
1070
     5
1070
    41
1040
1.0
1002
}
  0
LINE
  5
7F6
102
{ACAD_REACTORS
330
D48
102
}
330
1A
100
AcDbEntity
  8
HAUPTEBENE
  6
Continuous
 62
     5
100
AcDbLine
 10
169.3947427513839
 20
287.2726188891671
 30
0.0
 11
169.3947427513839
 21
286.3726555091671
 31
0.0
1001
PHOENIX7010
1002
{
1070
    62
1070
     5
1070
    41
1040
1.0
1002
}
  0
LINE
  5
7F7
102
{ACAD_REACTORS
330
D48
102
}
330
1A
100
AcDbEntity
  8
HAUPTEBENE
  6
Continuous
 62
     5
100
AcDbLine
 10
167.3946206813839
 20
287.2726188891671
 30
0.0
 11
169.3947427513839
 21
287.2726188891671
 31
0.0
1001
PHOENIX7010
1002
{
1070
    62
1070
     5
1070
    41
1040
1.0
1002
}
  0
LINE
  5
7F8
102
{ACAD_REACTORS
330
D48
102
}
330
1A
100
AcDbEntity
  8
HAUPTEBENE
  6
Continuous
 62
     5
100
AcDbLine
 10
167.3946206813839
 20
286.3726555091671
 30
0.0
 11
167.3946206813839
 21
287.2726188891671
 31
0.0
1001
PHOENIX7010
1002
{
1070
    62
1070
     5
1070
    41
1040
1.0
1002
}
  0
LINE
  5
7F9
102
{ACAD_REACTORS
330
D48
102
}
330
1A
100
AcDbEntity
  8
HAUPTEBENE
  6
Continuous
 62
     5
100
AcDbLine
 10
166.2447183313839
 20
286.3726555091671
 30
0.0
 11
167.3946206813839
 21
286.3726555091671
 31
0.0
1001
PHOENIX7010
1002
{
1070
    62
1070
     5
1070
    41
1040
1.0
1002
}
  0
LINE
  5
7FA
102
{ACAD_REACTORS
330
D48
102
}
330
1A
100
AcDbEntity
  8
HAUPTEBENE
  6
Continuous
 62
     5
100
AcDbLine
 10
166.2447183313839
 20
288.3726555091671
 30
0.0
 11
166.2447183313839
 21
286.3726555091671
 31
0.0
1001
PHOENIX7010
1002
{
1070
    62
1070
     5
1070
    41
1040
1.0
1002
}
  0
LINE
  5
7FB
102
{ACAD_REACTORS
330
D48
102
}
330
1A
100
AcDbEntity
  8
HAUPTEBENE
  6
Continuous
 62
     5
100
AcDbLine
 10
173.5446450913839
 20
288.3726555091671
 30
0.0
 11
166.2447183313839
 21
288.3726555091671
 31
0.0
1001
PHOENIX7010
1002
{
1070
    62
1070
     5
1070
    41
1040
1.0
1002
}
  0
LINE
  5
7FC
102
{ACAD_REACTORS
330
D48
102
}
330
1A
100
AcDbEntity
  8
HAUPTEBENE
  6
Continuous
 62
     5
100
AcDbLine
 10
174.5446450913838
 20
287.3726555091671
 30
0.0
 11
173.5446450913839
 21
288.3726555091671
 31
0.0
1001
PHOENIX7010
1002
{
1070
    62
1070
     5
1070
    41
1040
1.0
1002
}
  0
LINE
  5
7FD
102
{ACAD_REACTORS
330
D48
102
}
330
1A
100
AcDbEntity
  8
HAUPTEBENE
  6
Continuous
 62
     5
100
AcDbLine
 10
189.0845010513839
 20
287.3726555091671
 30
0.0
 11
174.5446450913838
 21
287.3726555091671
 31
0.0
1001
PHOENIX7010
1002
{
1070
    62
1070
     5
1070
    41
1040
1.0
1002
}
  0
LINE
  5
7FE
102
{ACAD_REACTORS
330
D48
102
}
330
1A
100
AcDbEntity
  8
HAUPTEBENE
  6
Continuous
 62
     5
100
AcDbLine
 10
189.0845010513839
 20
287.7726188891671
 30
0.0
 11
189.0845010513839
 21
287.3726555091671
 31
0.0
1001
PHOENIX7010
1002
{
1070
    62
1070
     5
1070
    41
1040
1.0
1002
}
  0
LINE
  5
7FF
102
{ACAD_REACTORS
330
D48
102
}
330
1A
100
AcDbEntity
  8
HAUPTEBENE
  6
Continuous
 62
     5
100
AcDbLine
 10
189.5145547613839
 20
287.7726188891671
 30
0.0
 11
189.0845010513839
 21
287.7726188891671
 31
0.0
1001
PHOENIX7010
1002
{
1070
    62
1070
     5
1070
    41
1040
1.0
1002
}
  0
LINE
  5
800
102
{ACAD_REACTORS
330
D48
102
}
330
1A
100
AcDbEntity
  8
HAUPTEBENE
  6
Continuous
 62
     5
100
AcDbLine
 10
190.1145303413839
 20
287.1726433091671
 30
0.0
 11
189.5145547613839
 21
287.7726188891671
 31
0.0
1001
PHOENIX7010
1002
{
1070
    62
1070
     5
1070
    41
1040
1.0
1002
}
  0
LINE
  5
801
102
{ACAD_REACTORS
330
D48
102
}
330
1A
100
AcDbEntity
  8
HAUPTEBENE
  6
Continuous
 62
     5
100
AcDbLine
 10
190.7145059313839
 20
287.7726188891671
 30
0.0
 11
190.1145303413839
 21
287.1726433091671
 31
0.0
1001
PHOENIX7010
1002
{
1070
    62
1070
     5
1070
    41
1040
1.0
1002
}
  0
LINE
  5
802
102
{ACAD_REACTORS
330
D48
102
}
330
1A
100
AcDbEntity
  8
HAUPTEBENE
  6
Continuous
 62
     5
100
AcDbLine
 10
194.0145547613839
 20
287.7726188891671
 30
0.0
 11
190.7145059313839
 21
287.7726188891671
 31
0.0
1001
PHOENIX7010
1002
{
1070
    62
1070
     5
1070
    41
1040
1.0
1002
}
  0
LINE
  5
803
102
{ACAD_REACTORS
330
D48
102
}
330
1A
100
AcDbEntity
  8
HAUPTEBENE
  6
Continuous
 62
     5
100
AcDbLine
 10
194.6145303413839
 20
287.1726433091671
 30
0.0
 11
194.0145547613839
 21
287.7726188891671
 31
0.0
1001
PHOENIX7010
1002
{
1070
    62
1070
     5
1070
    41
1040
1.0
1002
}
  0
LINE
  5
804
102
{ACAD_REACTORS
330
D48
102
}
330
1A
100
AcDbEntity
  8
HAUPTEBENE
  6
Continuous
 62
     5
100
AcDbLine
 10
195.2145059313839
 20
287.7726188891671
 30
0.0
 11
194.6145303413839
 21
287.1726433091671
 31
0.0
1001
PHOENIX7010
1002
{
1070
    62
1070
     5
1070
    41
1040
1.0
1002
}
  0
LINE
  5
805
102
{ACAD_REACTORS
330
D48
102
}
330
1A
100
AcDbEntity
  8
HAUPTEBENE
  6
Continuous
 62
     5
100
AcDbLine
 10
195.6445596413839
 20
287.7726188891671
 30
0.0
 11
195.2145059313839
 21
287.7726188891671
 31
0.0
1001
PHOENIX7010
1002
{
1070
    62
1070
     5
1070
    41
1040
1.0
1002
}
  0
LINE
  5
806
102
{ACAD_REACTORS
330
D48
102
}
330
1A
100
AcDbEntity
  8
HAUPTEBENE
  6
Continuous
 62
     5
100
AcDbLine
 10
195.6445596413839
 20
287.3726555091671
 30
0.0
 11
195.6445596413839
 21
287.7726188891671
 31
0.0
1001
PHOENIX7010
1002
{
1070
    62
1070
     5
1070
    41
1040
1.0
1002
}
  0
LINE
  5
807
102
{ACAD_REACTORS
330
D48
102
}
330
1A
100
AcDbEntity
  8
HAUPTEBENE
  6
Continuous
 62
     5
100
AcDbLine
 10
197.5445840613839
 20
287.3726555091671
 30
0.0
 11
195.6445596413839
 21
287.3726555091671
 31
0.0
1001
PHOENIX7010
1002
{
1070
    62
1070
     5
1070
    41
1040
1.0
1002
}
  0
ARC
  5
808
102
{ACAD_REACTORS
330
D48
102
}
330
1A
100
AcDbEntity
  8
HAUPTEBENE
  6
Continuous
 62
     5
100
AcDbCircle
 10
197.5445840613839
 20
286.8726555091671
 30
0.0
 40
0.5
100
AcDbArc
 50
0.0
 51
90.00000018363962
1001
PHOENIX7010
1002
{
1070
    62
1070
     5
1070
    41
1040
1.0
1002
}
  0
LINE
  5
809
102
{ACAD_REACTORS
330
D48
102
}
330
1A
100
AcDbEntity
  8
HAUPTEBENE
  6
Continuous
 62
     5
100
AcDbLine
 10
198.0445840613839
 20
286.1226555091671
 30
0.0
 11
198.0445840613839
 21
286.8726555091671
 31
0.0
1001
PHOENIX7010
1002
{
1070
    62
1070
     5
1070
    41
1040
1.0
1002
}
  0
LINE
  5
80A
102
{ACAD_REACTORS
330
D48
102
}
330
1A
100
AcDbEntity
  8
HAUPTEBENE
  6
Continuous
 62
     5
100
AcDbLine
 10
197.3645303413839
 20
286.1226555091671
 30
0.0
 11
198.0445840613839
 21
286.1226555091671
 31
0.0
1001
PHOENIX7010
1002
{
1070
    62
1070
     5
1070
    41
1040
1.0
1002
}
  0
ARC
  5
80B
102
{ACAD_REACTORS
330
D48
102
}
330
1A
100
AcDbEntity
  8
HAUPTEBENE
  6
Continuous
 62
     5
100
AcDbCircle
 10
197.3645303413839
 20
284.5726677191672
 30
0.0
 40
1.549987789999988
100
AcDbArc
 50
90.00000018363943
 51
269.999999977958
1001
PHOENIX7010
1002
{
1070
    62
1070
     5
1070
    41
1040
1.0
1002
}
  0
LINE
  5
80C
102
{ACAD_REACTORS
330
D48
102
}
330
1A
100
AcDbEntity
  8
HAUPTEBENE
  6
Continuous
 62
     5
100
AcDbLine
 10
205.2445352313839
 20
283.0226188891671
 30
0.0
 11
197.3645303413839
 21
283.0226799291671
 31
0.0
1001
PHOENIX7010
1002
{
1070
    62
1070
     5
1070
    41
1040
1.0
1002
}
  0
ARC
  5
80D
102
{ACAD_REACTORS
330
D48
102
}
330
1A
100
AcDbEntity
  8
HAUPTEBENE
  6
Continuous
 62
     5
100
AcDbCircle
 10
205.2445352313839
 20
282.5226799291671
 30
0.0
 40
0.5
100
AcDbArc
 50
0.0
 51
90.00000018363962
1001
PHOENIX7010
1002
{
1070
    62
1070
     5
1070
    41
1040
1.0
1002
}
  0
LINE
  5
80E
102
{ACAD_REACTORS
330
D48
102
}
330
1A
100
AcDbEntity
  8
HAUPTEBENE
  6
Continuous
 62
     5
100
AcDbLine
 10
205.7445352313839
 20
281.9726921291671
 30
0.0
 11
205.7445352313839
 21
282.5226799291671
 31
0.0
1001
PHOENIX7010
1002
{
1070
    62
1070
     5
1070
    41
1040
1.0
1002
}
  0
ARC
  5
80F
102
{ACAD_REACTORS
330
D48
102
}
330
1A
100
AcDbEntity
  8
HAUPTEBENE
  6
Continuous
 62
     5
100
AcDbCircle
 10
205.2445352313839
 20
281.9726921291671
 30
0.0
 40
0.5
100
AcDbArc
 50
269.9999999779606
 51
0.0000001616002685
1001
PHOENIX7010
1002
{
1070
    62
1070
     5
1070
    41
1040
1.0
1002
}
  0
LINE
  5
810
102
{ACAD_REACTORS
330
D48
102
}
330
1A
100
AcDbEntity
  8
HAUPTEBENE
  6
Continuous
 62
     5
100
AcDbLine
 10
194.2793252713839
 20
281.4726921291671
 30
0.0
 11
205.2445352313839
 21
281.4726921291671
 31
0.0
1001
PHOENIX7010
1002
{
1070
    62
1070
     5
1070
    41
1040
1.0
1002
}
  0
LINE
  5
811
102
{ACAD_REACTORS
330
D4C
102
}
330
1A
100
AcDbEntity
  8
HAUPTEBENE
  6
ACAD_ISO04W100
 62
     1
100
AcDbLine
 10
96.2447183313839
 20
223.3226677191671
 30
0.0
 11
346.4845254613839
 21
223.3226677191671
 31
0.0
1001
PHOENIX7010
1002
{
1070
    62
1070
     1
1070
    41
1040
1.0
1002
}
  0
LINE
  5
814
102
{ACAD_REACTORS
330
D49
102
}
330
1A
100
AcDbEntity
  8
HAUPTEBENE
  6
Continuous
 62
     5
100
AcDbLine
 10
341.4845254613839
 20
288.0727287591671
 30
0.0
 11
341.4845254613839
 21
215.5719352991671
 31
0.0
1001
PHOENIX7010
1002
{
1070
    62
1070
     5
1070
    41
1040
1.0
1002
}
  0
LINE
  5
815
102
{ACAD_REACTORS
330
D49
102
}
330
1A
100
AcDbEntity
  8
HAUPTEBENE
  6
Continuous
 62
     5
100
AcDbLine
 10
338.4845254613839
 20
286.3727165491671
 30
0.0
 11
338.4845254613839
 21
215.9572197191671
 31
0.0
1001
PHOENIX7010
1002
{
1070
    62
1070
     5
1070
    41
1040
1.0
1002
}
  0
LINE
  5
818
102
{ACAD_REACTORS
330
D4A
102
}
330
1A
100
AcDbEntity
  8
HAUPTEBENE
  6
Continuous
 62
     5
100
AcDbLine
 10
341.4845254613839
 20
288.0727287591671
 30
0.0
 11
341.4845254613839
 21
289.5727287591672
 31
0.0
1001
PHOENIX7010
1002
{
1070
    62
1070
     5
1070
    41
1040
1.0
1002
}
  0
LINE
  5
819
102
{ACAD_REACTORS
330
D4A
102
}
330
1A
100
AcDbEntity
  8
HAUPTEBENE
  6
Continuous
 62
     5
100
AcDbLine
 10
338.4845254613839
 20
288.0727287591671
 30
0.0
 11
341.4845254613839
 21
288.0727287591671
 31
0.0
1001
PHOENIX7010
1002
{
1070
    62
1070
     5
1070
    41
1040
1.0
1002
}
  0
LINE
  5
81A
102
{ACAD_REACTORS
330
D4A
102
}
330
1A
100
AcDbEntity
  8
HAUPTEBENE
  6
Continuous
 62
     5
100
AcDbLine
 10
338.4845254613839
 20
286.3727165491671
 30
0.0
 11
338.4845254613839
 21
288.0727287591671
 31
0.0
1001
PHOENIX7010
1002
{
1070
    62
1070
     5
1070
    41
1040
1.0
1002
}
  0
LINE
  5
81B
102
{ACAD_REACTORS
330
D4A
102
}
330
1A
100
AcDbEntity
  8
HAUPTEBENE
  6
Continuous
 62
     5
100
AcDbLine
 10
336.6345498813839
 20
286.3727165491671
 30
0.0
 11
338.4845254613839
 21
286.3727165491671
 31
0.0
1001
PHOENIX7010
1002
{
1070
    62
1070
     5
1070
    41
1040
1.0
1002
}
  0
LINE
  5
81C
102
{ACAD_REACTORS
330
D4A
102
}
330
1A
100
AcDbEntity
  8
HAUPTEBENE
  6
Continuous
 62
     5
100
AcDbLine
 10
336.6345498813839
 20
287.1727043391672
 30
0.0
 11
336.6345498813839
 21
286.3727165491671
 31
0.0
1001
PHOENIX7010
1002
{
1070
    62
1070
     5
1070
    41
1040
1.0
1002
}
  0
LINE
  5
81D
102
{ACAD_REACTORS
330
D4A
102
}
330
1A
100
AcDbEntity
  8
HAUPTEBENE
  6
Continuous
 62
     5
100
AcDbLine
 10
335.0344522213839
 20
287.1727043391672
 30
0.0
 11
336.6345498813839
 21
287.1727043391672
 31
0.0
1001
PHOENIX7010
1002
{
1070
    62
1070
     5
1070
    41
1040
1.0
1002
}
  0
LINE
  5
81E
102
{ACAD_REACTORS
330
D4A
102
}
330
1A
100
AcDbEntity
  8
HAUPTEBENE
  6
Continuous
 62
     5
100
AcDbLine
 10
335.0344522213839
 20
286.9726921291671
 30
0.0
 11
335.0344522213839
 21
287.1727043391672
 31
0.0
1001
PHOENIX7010
1002
{
1070
    62
1070
     5
1070
    41
1040
1.0
1002
}
  0
ARC
  5
81F
102
{ACAD_REACTORS
330
D4A
102
}
330
1A
100
AcDbEntity
  8
HAUPTEBENE
  6
Continuous
 62
     5
100
AcDbCircle
 10
334.6844766313838
 20
286.9726921291671
 30
0.0
 40
0.3499755899999855
100
AcDbArc
 50
179.9999997943177
 51
359.9999995886404
1001
PHOENIX7010
1002
{
1070
    62
1070
     5
1070
    41
1040
1.0
1002
}
  0
LINE
  5
820
102
{ACAD_REACTORS
330
D4A
102
}
330
1A
100
AcDbEntity
  8
HAUPTEBENE
  6
Continuous
 62
     5
100
AcDbLine
 10
334.3345010513839
 20
287.0931144991671
 30
0.0
 11
334.3345010513839
 21
286.9726921291671
 31
0.0
1001
PHOENIX7010
1002
{
1070
    62
1070
     5
1070
    41
1040
1.0
1002
}
  0
ARC
  5
821
102
{ACAD_REACTORS
330
D4A
102
}
330
1A
100
AcDbEntity
  8
HAUPTEBENE
  6
Continuous
 62
     5
100
AcDbCircle
 10
334.8345010513839
 20
287.0931144991671
 30
0.0
 40
0.499930030000019
100
AcDbArc
 50
150.9440368910131
 51
179.9999997943181
1001
PHOENIX7010
1002
{
1070
    62
1070
     5
1070
    41
1040
1.0
1002
}
  0
LINE
  5
822
102
{ACAD_REACTORS
330
D4A
102
}
330
1A
100
AcDbEntity
  8
HAUPTEBENE
  6
Continuous
 62
     5
100
AcDbLine
 10
334.4586465613839
 20
287.4461418391671
 30
0.0
 11
334.3974893313839
 21
287.3359123491671
 31
0.0
1001
PHOENIX7010
1002
{
1070
    62
1070
     5
1070
    41
1040
1.0
1002
}
  0
ARC
  5
823
102
{ACAD_REACTORS
330
D4A
102
}
330
1A
100
AcDbEntity
  8
HAUPTEBENE
  6
Continuous
 62
     5
100
AcDbCircle
 10
333.5845010513839
 20
287.9317985791671
 30
0.0
 40
0.9999964200000139
100
AcDbArc
 50
330.9443770222659
 51
0.0000001615974187
1001
PHOENIX7010
1002
{
1070
    62
1070
     5
1070
    41
1040
1.0
1002
}
  0
LINE
  5
824
102
{ACAD_REACTORS
330
D4A
102
}
330
1A
100
AcDbEntity
  8
HAUPTEBENE
  6
Continuous
 62
     5
100
AcDbLine
 10
334.5845010513839
 20
288.1727043391671
 30
0.0
 11
334.5845010513839
 21
287.9317985791671
 31
0.0
1001
PHOENIX7010
1002
{
1070
    62
1070
     5
1070
    41
1040
1.0
1002
}
  0
LINE
  5
825
102
{ACAD_REACTORS
330
D4A
102
}
330
1A
100
AcDbEntity
  8
HAUPTEBENE
  6
Continuous
 62
     5
100
AcDbLine
 10
331.4845254613839
 20
288.1726433091671
 30
0.0
 11
334.5845010513839
 21
288.1727043391671
 31
0.0
1001
PHOENIX7010
1002
{
1070
    62
1070
     5
1070
    41
1040
1.0
1002
}
  0
LINE
  5
826
102
{ACAD_REACTORS
330
D4A
102
}
330
1A
100
AcDbEntity
  8
HAUPTEBENE
  6
Continuous
 62
     5
100
AcDbLine
 10
331.4845254613839
 20
287.6726433091672
 30
0.0
 11
331.4845254613839
 21
288.1726433091671
 31
0.0
1001
PHOENIX7010
1002
{
1070
    62
1070
     5
1070
    41
1040
1.0
1002
}
  0
ARC
  5
827
102
{ACAD_REACTORS
330
D4A
102
}
330
1A
100
AcDbEntity
  8
HAUPTEBENE
  6
Continuous
 62
     5
100
AcDbCircle
 10
330.9845254613839
 20
287.6726433091672
 30
0.0
 40
0.5
100
AcDbArc
 50
269.9999999779574
 51
0.0000001615970116
1001
PHOENIX7010
1002
{
1070
    62
1070
     5
1070
    41
1040
1.0
1002
}
  0
ARC
  5
828
102
{ACAD_REACTORS
330
D4A
102
}
330
1A
100
AcDbEntity
  8
HAUPTEBENE
  6
Continuous
 62
     5
100
AcDbCircle
 10
330.9845254613839
 20
286.1726433091671
 30
0.0
 40
1.0
100
AcDbArc
 50
90.00000018363962
 51
180.0000003672792
1001
PHOENIX7010
1002
{
1070
    62
1070
     5
1070
    41
1040
1.0
1002
}
  0
LINE
  5
829
102
{ACAD_REACTORS
330
D4A
102
}
330
1A
100
AcDbEntity
  8
HAUPTEBENE
  6
Continuous
 62
     5
100
AcDbLine
 10
329.9845254613839
 20
282.9726921291671
 30
0.0
 11
329.9845254613839
 21
286.1726433091671
 31
0.0
1001
PHOENIX7010
1002
{
1070
    62
1070
     5
1070
    41
1040
1.0
1002
}
  0
ARC
  5
82A
102
{ACAD_REACTORS
330
D4A
102
}
330
1A
100
AcDbEntity
  8
HAUPTEBENE
  6
Continuous
 62
     5
100
AcDbCircle
 10
330.9845254613839
 20
282.9726921291671
 30
0.0
 40
1.0
100
AcDbArc
 50
179.9999997943194
 51
269.9999999779574
1001
PHOENIX7010
1002
{
1070
    62
1070
     5
1070
    41
1040
1.0
1002
}
  0
ARC
  5
82B
102
{ACAD_REACTORS
330
D4A
102
}
330
1A
100
AcDbEntity
  8
HAUPTEBENE
  6
Continuous
 62
     5
100
AcDbCircle
 10
330.9845254613839
 20
281.4726921291671
 30
0.0
 40
0.5
100
AcDbArc
 50
0.0
 51
90.00000018363635
1001
PHOENIX7010
1002
{
1070
    62
1070
     5
1070
    41
1040
1.0
1002
}
  0
LINE
  5
82C
102
{ACAD_REACTORS
330
D4A
102
}
330
1A
100
AcDbEntity
  8
HAUPTEBENE
  6
Continuous
 62
     5
100
AcDbLine
 10
331.4845254613839
 20
280.9727531691672
 30
0.0
 11
331.4845254613839
 21
281.4726921291671
 31
0.0
1001
PHOENIX7010
1002
{
1070
    62
1070
     5
1070
    41
1040
1.0
1002
}
  0
LINE
  5
82D
102
{ACAD_REACTORS
330
D4A
102
}
330
1A
100
AcDbEntity
  8
HAUPTEBENE
  6
Continuous
 62
     5
100
AcDbLine
 10
334.5846231213839
 20
280.9727531691672
 30
0.0
 11
331.4845254613839
 21
280.9727531691672
 31
0.0
1001
PHOENIX7010
1002
{
1070
    62
1070
     5
1070
    41
1040
1.0
1002
}
  0
LINE
  5
82E
102
{ACAD_REACTORS
330
D4A
102
}
330
1A
100
AcDbEntity
  8
HAUPTEBENE
  6
Continuous
 62
     5
100
AcDbLine
 10
334.5846231213839
 20
281.2136589291672
 30
0.0
 11
334.5846231213839
 21
280.9727531691672
 31
0.0
1001
PHOENIX7010
1002
{
1070
    62
1070
     5
1070
    41
1040
1.0
1002
}
  0
ARC
  5
82F
102
{ACAD_REACTORS
330
D4A
102
}
330
1A
100
AcDbEntity
  8
HAUPTEBENE
  6
Continuous
 62
     5
100
AcDbCircle
 10
333.5846231213839
 20
281.2136589291672
 30
0.0
 40
1.0
100
AcDbArc
 50
0.0
 51
29.05256583653632
1001
PHOENIX7010
1002
{
1070
    62
1070
     5
1070
    41
1040
1.0
1002
}
  0
LINE
  5
830
102
{ACAD_REACTORS
330
D4A
102
}
330
1A
100
AcDbEntity
  8
HAUPTEBENE
  6
Continuous
 62
     5
100
AcDbLine
 10
334.3974893313839
 20
281.8094841291671
 30
0.0
 11
334.4587686313839
 21
281.6992546291671
 31
0.0
1001
PHOENIX7010
1002
{
1070
    62
1070
     5
1070
    41
1040
1.0
1002
}
  0
ARC
  5
831
102
{ACAD_REACTORS
330
D4A
102
}
330
1A
100
AcDbEntity
  8
HAUPTEBENE
  6
Continuous
 62
     5
100
AcDbCircle
 10
334.8345010513839
 20
282.0523430091671
 30
0.0
 40
0.5
100
AcDbArc
 50
179.9999997943177
 51
209.0620773032148
1001
PHOENIX7010
1002
{
1070
    62
1070
     5
1070
    41
1040
1.0
1002
}
  0
LINE
  5
832
102
{ACAD_REACTORS
330
D4A
102
}
330
1A
100
AcDbEntity
  8
HAUPTEBENE
  6
Continuous
 62
     5
100
AcDbLine
 10
334.3345010513839
 20
282.1727653791671
 30
0.0
 11
334.3345010513839
 21
282.0523430091671
 31
0.0
1001
PHOENIX7010
1002
{
1070
    62
1070
     5
1070
    41
1040
1.0
1002
}
  0
ARC
  5
833
102
{ACAD_REACTORS
330
D4A
102
}
330
1A
100
AcDbEntity
  8
HAUPTEBENE
  6
Continuous
 62
     5
100
AcDbCircle
 10
334.6844766313838
 20
282.1727653791671
 30
0.0
 40
0.3499755900000423
100
AcDbArc
 50
0.0
 51
179.9999997943177
1001
PHOENIX7010
1002
{
1070
    62
1070
     5
1070
    41
1040
1.0
1002
}
  0
LINE
  5
834
102
{ACAD_REACTORS
330
D4A
102
}
330
1A
100
AcDbEntity
  8
HAUPTEBENE
  6
Continuous
 62
     5
100
AcDbLine
 10
335.0344522213839
 20
281.9727531691672
 30
0.0
 11
335.0344522213839
 21
282.1727653791671
 31
0.0
1001
PHOENIX7010
1002
{
1070
    62
1070
     5
1070
    41
1040
1.0
1002
}
  0
LINE
  5
835
102
{ACAD_REACTORS
330
D4A
102
}
330
1A
100
AcDbEntity
  8
HAUPTEBENE
  6
Continuous
 62
     5
100
AcDbLine
 10
336.6345498813839
 20
281.9727531691672
 30
0.0
 11
335.0344522213839
 21
281.9727531691672
 31
0.0
1001
PHOENIX7010
1002
{
1070
    62
1070
     5
1070
    41
1040
1.0
1002
}
  0
LINE
  5
836
102
{ACAD_REACTORS
330
D4A
102
}
330
1A
100
AcDbEntity
  8
HAUPTEBENE
  6
Continuous
 62
     5
100
AcDbLine
 10
336.6345498813839
 20
282.7727409591671
 30
0.0
 11
336.6345498813839
 21
281.9727531691672
 31
0.0
1001
PHOENIX7010
1002
{
1070
    62
1070
     5
1070
    41
1040
1.0
1002
}
  0
LINE
  5
837
102
{ACAD_REACTORS
330
D4A
102
}
330
1A
100
AcDbEntity
  8
HAUPTEBENE
  6
Continuous
 62
     5
100
AcDbLine
 10
338.4845254613839
 20
282.7727409591671
 30
0.0
 11
336.6345498813839
 21
282.7727409591671
 31
0.0
1001
PHOENIX7010
1002
{
1070
    62
1070
     5
1070
    41
1040
1.0
1002
}
  0
LINE
  5
838
102
{ACAD_REACTORS
330
D4A
102
}
330
1A
100
AcDbEntity
  8
HAUPTEBENE
  6
Continuous
 62
     5
100
AcDbLine
 10
338.4845254613839
 20
282.2227531691672
 30
0.0
 11
338.4845254613839
 21
282.7727409591671
 31
0.0
1001
PHOENIX7010
1002
{
1070
    62
1070
     5
1070
    41
1040
1.0
1002
}
  0
LINE
  5
839
102
{ACAD_REACTORS
330
D4A
102
}
330
1A
100
AcDbEntity
  8
HAUPTEBENE
  6
Continuous
 62
     5
100
AcDbLine
 10
338.0845010513839
 20
282.2227531691672
 30
0.0
 11
338.4845254613839
 21
282.2227531691672
 31
0.0
1001
PHOENIX7010
1002
{
1070
    62
1070
     5
1070
    41
1040
1.0
1002
}
  0
LINE
  5
83A
102
{ACAD_REACTORS
330
D4A
102
}
330
1A
100
AcDbEntity
  8
HAUPTEBENE
  6
Continuous
 62
     5
100
AcDbLine
 10
338.0845010513839
 20
280.0226799291671
 30
0.0
 11
338.0845010513839
 21
282.2227531691672
 31
0.0
1001
PHOENIX7010
1002
{
1070
    62
1070
     5
1070
    41
1040
1.0
1002
}
  0
LINE
  5
83B
102
{ACAD_REACTORS
330
D4A
102
}
330
1A
100
AcDbEntity
  8
HAUPTEBENE
  6
Continuous
 62
     5
100
AcDbLine
 10
338.4845254613839
 20
280.0226799291671
 30
0.0
 11
338.0845010513839
 21
280.0226799291671
 31
0.0
1001
PHOENIX7010
1002
{
1070
    62
1070
     5
1070
    41
1040
1.0
1002
}
  0
LINE
  5
83C
102
{ACAD_REACTORS
330
D4A
102
}
330
1A
100
AcDbEntity
  8
HAUPTEBENE
  6
Continuous
 62
     5
100
AcDbLine
 10
338.4845254613839
 20
279.4726921291671
 30
0.0
 11
338.4845254613839
 21
280.0226799291671
 31
0.0
1001
PHOENIX7010
1002
{
1070
    62
1070
     5
1070
    41
1040
1.0
1002
}
  0
LINE
  5
83D
102
{ACAD_REACTORS
330
D4A
102
}
330
1A
100
AcDbEntity
  8
HAUPTEBENE
  6
Continuous
 62
     5
100
AcDbLine
 10
327.3645303413839
 20
279.4726921291671
 30
0.0
 11
338.4845254613839
 21
279.4726921291671
 31
0.0
1001
PHOENIX7010
1002
{
1070
    62
1070
     5
1070
    41
1040
1.0
1002
}
  0
LINE
  5
83E
102
{ACAD_REACTORS
330
D4A
102
}
330
1A
100
AcDbEntity
  8
HAUPTEBENE
  6
Continuous
 62
     5
100
AcDbLine
 10
327.3645303413839
 20
280.2726799291671
 30
0.0
 11
327.3645303413839
 21
279.4726921291671
 31
0.0
1001
PHOENIX7010
1002
{
1070
    62
1070
     5
1070
    41
1040
1.0
1002
}
  0
LINE
  5
83F
102
{ACAD_REACTORS
330
D4A
102
}
330
1A
100
AcDbEntity
  8
HAUPTEBENE
  6
Continuous
 62
     5
100
AcDbLine
 10
329.0846231213838
 20
280.2726799291671
 30
0.0
 11
327.3645303413839
 21
280.2726799291671
 31
0.0
1001
PHOENIX7010
1002
{
1070
    62
1070
     5
1070
    41
1040
1.0
1002
}
  0
LINE
  5
840
102
{ACAD_REACTORS
330
D4A
102
}
330
1A
100
AcDbEntity
  8
HAUPTEBENE
  6
Continuous
 62
     5
100
AcDbLine
 10
329.0846231213838
 20
281.4726921291671
 30
0.0
 11
329.0846231213838
 21
280.2726799291671
 31
0.0
1001
PHOENIX7010
1002
{
1070
    62
1070
     5
1070
    41
1040
1.0
1002
}
  0
LINE
  5
841
102
{ACAD_REACTORS
330
D4A
102
}
330
1A
100
AcDbEntity
  8
HAUPTEBENE
  6
Continuous
 62
     5
100
AcDbLine
 10
328.5646035913839
 20
281.4726921291671
 30
0.0
 11
329.0846231213838
 21
281.4726921291671
 31
0.0
1001
PHOENIX7010
1002
{
1070
    62
1070
     5
1070
    41
1040
1.0
1002
}
  0
LINE
  5
842
102
{ACAD_REACTORS
330
D4A
102
}
330
1A
100
AcDbEntity
  8
HAUPTEBENE
  6
Continuous
 62
     5
100
AcDbLine
 10
327.3645303413839
 20
282.4227043391671
 30
0.0
 11
328.5646035913839
 21
281.4726921291671
 31
0.0
1001
PHOENIX7010
1002
{
1070
    62
1070
     5
1070
    41
1040
1.0
1002
}
  0
LINE
  5
843
102
{ACAD_REACTORS
330
D4A
102
}
330
1A
100
AcDbEntity
  8
HAUPTEBENE
  6
Continuous
 62
     5
100
AcDbLine
 10
327.3645303413839
 20
283.0227409591671
 30
0.0
 11
327.3645303413839
 21
282.4227043391671
 31
0.0
1001
PHOENIX7010
1002
{
1070
    62
1070
     5
1070
    41
1040
1.0
1002
}
  0
ARC
  5
844
102
{ACAD_REACTORS
330
D4A
102
}
330
1A
100
AcDbEntity
  8
HAUPTEBENE
  6
Continuous
 62
     5
100
AcDbCircle
 10
327.3645303413839
 20
284.5727287591671
 30
0.0
 40
1.549987789999988
100
AcDbArc
 50
269.999999977958
 51
89.99999977227879
1001
PHOENIX7010
1002
{
1070
    62
1070
     5
1070
    41
1040
1.0
1002
}
  0
LINE
  5
845
102
{ACAD_REACTORS
330
D4A
102
}
330
1A
100
AcDbEntity
  8
HAUPTEBENE
  6
Continuous
 62
     5
100
AcDbLine
 10
324.5644815213839
 20
286.1227165491671
 30
0.0
 11
327.3645303413839
 21
286.1227165491671
 31
0.0
1001
PHOENIX7010
1002
{
1070
    62
1070
     5
1070
    41
1040
1.0
1002
}
  0
ARC
  5
846
102
{ACAD_REACTORS
330
D4A
102
}
330
1A
100
AcDbEntity
  8
HAUPTEBENE
  6
Continuous
 62
     5
100
AcDbCircle
 10
324.5644815213839
 20
283.1227165491672
 30
0.0
 40
3.0
100
AcDbArc
 50
90.00000018363861
 51
180.000000367278
1001
PHOENIX7010
1002
{
1070
    62
1070
     5
1070
    41
1040
1.0
1002
}
  0
LINE
  5
847
102
{ACAD_REACTORS
330
D4A
102
}
330
1A
100
AcDbEntity
  8
HAUPTEBENE
  6
Continuous
 62
     5
100
AcDbLine
 10
321.5646035913839
 20
282.4726921291671
 30
0.0
 11
321.5644815213839
 21
283.1227165491672
 31
0.0
1001
PHOENIX7010
1002
{
1070
    62
1070
     5
1070
    41
1040
1.0
1002
}
  0
LINE
  5
848
102
{ACAD_REACTORS
330
D4A
102
}
330
1A
100
AcDbEntity
  8
HAUPTEBENE
  6
Continuous
 62
     5
100
AcDbLine
 10
322.3645303413839
 20
282.4726921291671
 30
0.0
 11
321.5646035913839
 21
282.4726921291671
 31
0.0
1001
PHOENIX7010
1002
{
1070
    62
1070
     5
1070
    41
1040
1.0
1002
}
  0
LINE
  5
849
102
{ACAD_REACTORS
330
D4A
102
}
330
1A
100
AcDbEntity
  8
HAUPTEBENE
  6
Continuous
 62
     5
100
AcDbLine
 10
322.3645303413839
 20
281.4726921291671
 30
0.0
 11
322.3645303413839
 21
282.4726921291671
 31
0.0
1001
PHOENIX7010
1002
{
1070
    62
1070
     5
1070
    41
1040
1.0
1002
}
  0
LINE
  5
84A
102
{ACAD_REACTORS
330
D4A
102
}
330
1A
100
AcDbEntity
  8
HAUPTEBENE
  6
Continuous
 62
     5
100
AcDbLine
 10
319.1645791713839
 20
281.4726921291671
 30
0.0
 11
322.3645303413839
 21
281.4726921291671
 31
0.0
1001
PHOENIX7010
1002
{
1070
    62
1070
     5
1070
    41
1040
1.0
1002
}
  0
LINE
  5
84B
102
{ACAD_REACTORS
330
D4A
102
}
330
1A
100
AcDbEntity
  8
HAUPTEBENE
  6
Continuous
 62
     5
100
AcDbLine
 10
319.1645791713839
 20
282.1727043391671
 30
0.0
 11
319.1645791713839
 21
281.4726921291671
 31
0.0
1001
PHOENIX7010
1002
{
1070
    62
1070
     5
1070
    41
1040
1.0
1002
}
  0
LINE
  5
84C
102
{ACAD_REACTORS
330
D4A
102
}
330
1A
100
AcDbEntity
  8
HAUPTEBENE
  6
Continuous
 62
     5
100
AcDbLine
 10
320.0646035913839
 20
282.1727043391671
 30
0.0
 11
319.1645791713839
 21
282.1727043391671
 31
0.0
1001
PHOENIX7010
1002
{
1070
    62
1070
     5
1070
    41
1040
1.0
1002
}
  0
LINE
  5
84D
102
{ACAD_REACTORS
330
D4A
102
}
330
1A
100
AcDbEntity
  8
HAUPTEBENE
  6
Continuous
 62
     5
100
AcDbLine
 10
320.0644815213839
 20
283.8727165491672
 30
0.0
 11
320.0646035913839
 21
282.1727043391671
 31
0.0
1001
PHOENIX7010
1002
{
1070
    62
1070
     5
1070
    41
1040
1.0
1002
}
  0
LINE
  5
84E
102
{ACAD_REACTORS
330
D4A
102
}
330
1A
100
AcDbEntity
  8
HAUPTEBENE
  6
Continuous
 62
     5
100
AcDbLine
 10
319.1644571013839
 20
283.8727165491672
 30
0.0
 11
320.0644815213839
 21
283.8727165491672
 31
0.0
1001
PHOENIX7010
1002
{
1070
    62
1070
     5
1070
    41
1040
1.0
1002
}
  0
LINE
  5
84F
102
{ACAD_REACTORS
330
D4A
102
}
330
1A
100
AcDbEntity
  8
HAUPTEBENE
  6
Continuous
 62
     5
100
AcDbLine
 10
319.1644571013839
 20
284.5727287591671
 30
0.0
 11
319.1644571013839
 21
283.8727165491672
 31
0.0
1001
PHOENIX7010
1002
{
1070
    62
1070
     5
1070
    41
1040
1.0
1002
}
  0
LINE
  5
850
102
{ACAD_REACTORS
330
D4A
102
}
330
1A
100
AcDbEntity
  8
HAUPTEBENE
  6
Continuous
 62
     5
100
AcDbLine
 10
318.9144571013839
 20
284.5727287591671
 30
0.0
 11
319.1644571013839
 21
284.5727287591671
 31
0.0
1001
PHOENIX7010
1002
{
1070
    62
1070
     5
1070
    41
1040
1.0
1002
}
  0
ARC
  5
851
102
{ACAD_REACTORS
330
D4A
102
}
330
1A
100
AcDbEntity
  8
HAUPTEBENE
  6
Continuous
 62
     5
100
AcDbCircle
 10
317.3645303413839
 20
284.5727287591671
 30
0.0
 40
1.549926760000005
100
AcDbArc
 50
0.0
 51
179.9999997943198
1001
PHOENIX7010
1002
{
1070
    62
1070
     5
1070
    41
1040
1.0
1002
}
  0
LINE
  5
852
102
{ACAD_REACTORS
330
D4A
102
}
330
1A
100
AcDbEntity
  8
HAUPTEBENE
  6
Continuous
 62
     5
100
AcDbLine
 10
315.5646035913839
 20
284.5727287591671
 30
0.0
 11
315.8146035913839
 21
284.5727287591671
 31
0.0
1001
PHOENIX7010
1002
{
1070
    62
1070
     5
1070
    41
1040
1.0
1002
}
  0
LINE
  5
853
102
{ACAD_REACTORS
330
D4A
102
}
330
1A
100
AcDbEntity
  8
HAUPTEBENE
  6
Continuous
 62
     5
100
AcDbLine
 10
315.5646035913839
 20
283.8727165491672
 30
0.0
 11
315.5646035913839
 21
284.5727287591671
 31
0.0
1001
PHOENIX7010
1002
{
1070
    62
1070
     5
1070
    41
1040
1.0
1002
}
  0
LINE
  5
854
102
{ACAD_REACTORS
330
D4A
102
}
330
1A
100
AcDbEntity
  8
HAUPTEBENE
  6
Continuous
 62
     5
100
AcDbLine
 10
314.6645791713839
 20
283.8727165491672
 30
0.0
 11
315.5646035913839
 21
283.8727165491672
 31
0.0
1001
PHOENIX7010
1002
{
1070
    62
1070
     5
1070
    41
1040
1.0
1002
}
  0
LINE
  5
855
102
{ACAD_REACTORS
330
D4A
102
}
330
1A
100
AcDbEntity
  8
HAUPTEBENE
  6
Continuous
 62
     5
100
AcDbLine
 10
314.6645791713839
 20
282.1727043391671
 30
0.0
 11
314.6645791713839
 21
283.8727165491672
 31
0.0
1001
PHOENIX7010
1002
{
1070
    62
1070
     5
1070
    41
1040
1.0
1002
}
  0
LINE
  5
856
102
{ACAD_REACTORS
330
D4A
102
}
330
1A
100
AcDbEntity
  8
HAUPTEBENE
  6
Continuous
 62
     5
100
AcDbLine
 10
315.5646035913839
 20
282.1727043391671
 30
0.0
 11
314.6645791713839
 21
282.1727043391671
 31
0.0
1001
PHOENIX7010
1002
{
1070
    62
1070
     5
1070
    41
1040
1.0
1002
}
  0
LINE
  5
857
102
{ACAD_REACTORS
330
D4A
102
}
330
1A
100
AcDbEntity
  8
HAUPTEBENE
  6
Continuous
 62
     5
100
AcDbLine
 10
315.5646035913839
 20
281.4726921291671
 30
0.0
 11
315.5646035913839
 21
282.1727043391671
 31
0.0
1001
PHOENIX7010
1002
{
1070
    62
1070
     5
1070
    41
1040
1.0
1002
}
  0
LINE
  5
858
102
{ACAD_REACTORS
330
D4A
102
}
330
1A
100
AcDbEntity
  8
HAUPTEBENE
  6
Continuous
 62
     5
100
AcDbLine
 10
314.2794473413839
 20
281.4726921291671
 30
0.0
 11
315.5646035913839
 21
281.4726921291671
 31
0.0
1001
PHOENIX7010
1002
{
1070
    62
1070
     5
1070
    41
1040
1.0
1002
}
  0
ARC
  5
859
102
{ACAD_REACTORS
330
D4A
102
}
330
1A
100
AcDbEntity
  8
HAUPTEBENE
  6
Continuous
 62
     5
100
AcDbCircle
 10
314.2794473413839
 20
281.9726921291671
 30
0.0
 40
0.5000803399999892
100
AcDbArc
 50
209.9946858629695
 51
269.9999999779545
1001
PHOENIX7010
1002
{
1070
    62
1070
     5
1070
    41
1040
1.0
1002
}
  0
LINE
  5
85A
102
{ACAD_REACTORS
330
D4A
102
}
330
1A
100
AcDbEntity
  8
HAUPTEBENE
  6
Continuous
 62
     5
100
AcDbLine
 10
313.1413858113839
 20
282.9438225091672
 30
0.0
 11
313.8463418713838
 21
281.7226921291671
 31
0.0
1001
PHOENIX7010
1002
{
1070
    62
1070
     5
1070
    41
1040
1.0
1002
}
  0
ARC
  5
85B
102
{ACAD_REACTORS
330
D4A
102
}
330
1A
100
AcDbEntity
  8
HAUPTEBENE
  6
Continuous
 62
     5
100
AcDbCircle
 10
313.3146035913839
 20
283.0437980891671
 30
0.0
 40
0.2000732399999947
100
AcDbArc
 50
179.9999997943214
 51
209.9921247416271
1001
PHOENIX7010
1002
{
1070
    62
1070
     5
1070
    41
1040
1.0
1002
}
  0
ARC
  5
85C
102
{ACAD_REACTORS
330
D4A
102
}
330
1A
100
AcDbEntity
  8
HAUPTEBENE
  6
Continuous
 62
     5
100
AcDbCircle
 10
313.3146035913839
 20
283.0437980891671
 30
0.0
 40
0.2000571500000035
100
AcDbArc
 50
121.8571503095939
 51
179.999999794321
1001
PHOENIX7010
1002
{
1070
    62
1070
     5
1070
    41
1040
1.0
1002
}
  0
ARC
  5
85D
102
{ACAD_REACTORS
330
D4A
102
}
330
1A
100
AcDbEntity
  8
HAUPTEBENE
  6
Continuous
 62
     5
100
AcDbCircle
 10
312.3645303413839
 20
284.5727287591671
 30
0.0
 40
1.600017330000018
100
AcDbArc
 50
301.8566464740108
 51
11.78915053336288
1001
PHOENIX7010
1002
{
1070
    62
1070
     5
1070
    41
1040
1.0
1002
}
  0
ARC
  5
85E
102
{ACAD_REACTORS
330
D4A
102
}
330
1A
100
AcDbEntity
  8
HAUPTEBENE
  6
Continuous
 62
     5
100
AcDbCircle
 10
313.6808145213839
 20
285.3326774891672
 30
0.0
 40
0.5000274799999915
100
AcDbArc
 50
299.9981822350686
 51
120.0016793637801
1001
PHOENIX7010
1002
{
1070
    62
1070
     5
1070
    41
1040
1.0
1002
}
  0
ARC
  5
85F
102
{ACAD_REACTORS
330
D4A
102
}
330
1A
100
AcDbEntity
  8
HAUPTEBENE
  6
Continuous
 62
     5
100
AcDbCircle
 10
312.3645303413839
 20
284.5727287591671
 30
0.0
 40
1.600015320000002
100
AcDbArc
 50
48.20854913412812
 51
131.7881916762525
1001
PHOENIX7010
1002
{
1070
    62
1070
     5
1070
    41
1040
1.0
1002
}
  0
ARC
  5
860
102
{ACAD_REACTORS
330
D4A
102
}
330
1A
100
AcDbEntity
  8
HAUPTEBENE
  6
Continuous
 62
     5
100
AcDbCircle
 10
311.0483682413839
 20
285.3326774891672
 30
0.0
 40
0.4999746200000264
100
AcDbArc
 50
59.99832116509313
 51
240.0018182938068
1001
PHOENIX7010
1002
{
1070
    62
1070
     5
1070
    41
1040
1.0
1002
}
  0
ARC
  5
861
102
{ACAD_REACTORS
330
D4A
102
}
330
1A
100
AcDbEntity
  8
HAUPTEBENE
  6
Continuous
 62
     5
100
AcDbCircle
 10
312.3645303413839
 20
284.5727287591671
 30
0.0
 40
1.599915679999981
100
AcDbArc
 50
168.2099561813525
 51
238.1470668213783
1001
PHOENIX7010
1002
{
1070
    62
1070
     5
1070
    41
1040
1.0
1002
}
  0
ARC
  5
862
102
{ACAD_REACTORS
330
D4A
102
}
330
1A
100
AcDbEntity
  8
HAUPTEBENE
  6
Continuous
 62
     5
100
AcDbCircle
 10
311.4145791713839
 20
283.0438591291671
 30
0.0
 40
0.1999511700000198
100
AcDbArc
 50
0.0
 51
58.13362085352505
1001
PHOENIX7010
1002
{
1070
    62
1070
     5
1070
    41
1040
1.0
1002
}
  0
ARC
  5
863
102
{ACAD_REACTORS
330
D4A
102
}
330
1A
100
AcDbEntity
  8
HAUPTEBENE
  6
Continuous
 62
     5
100
AcDbCircle
 10
311.4145791713839
 20
283.0438591291671
 30
0.0
 40
0.2000293000000146
100
AcDbArc
 50
329.9927336586485
 51
0.0000001615994543
1001
PHOENIX7010
1002
{
1070
    62
1070
     5
1070
    41
1040
1.0
1002
}
  0
LINE
  5
864
102
{ACAD_REACTORS
330
D4A
102
}
330
1A
100
AcDbEntity
  8
HAUPTEBENE
  6
Continuous
 62
     5
100
AcDbLine
 10
310.8827188213839
 20
281.7226921291671
 30
0.0
 11
311.5877969513839
 21
282.9438225091672
 31
0.0
1001
PHOENIX7010
1002
{
1070
    62
1070
     5
1070
    41
1040
1.0
1002
}
  0
ARC
  5
865
102
{ACAD_REACTORS
330
D4A
102
}
330
1A
100
AcDbEntity
  8
HAUPTEBENE
  6
Continuous
 62
     5
100
AcDbCircle
 10
310.4497354213839
 20
281.9726921291671
 30
0.0
 40
0.5
100
AcDbArc
 50
269.9999999779574
 51
329.9983211430596
1001
PHOENIX7010
1002
{
1070
    62
1070
     5
1070
    41
1040
1.0
1002
}
  0
LINE
  5
866
102
{ACAD_REACTORS
330
D4A
102
}
330
1A
100
AcDbEntity
  8
HAUPTEBENE
  6
Continuous
 62
     5
100
AcDbLine
 10
299.4845254613839
 20
281.4726921291671
 30
0.0
 11
310.4497354213839
 21
281.4726921291671
 31
0.0
1001
PHOENIX7010
1002
{
1070
    62
1070
     5
1070
    41
1040
1.0
1002
}
  0
ARC
  5
867
102
{ACAD_REACTORS
330
D4A
102
}
330
1A
100
AcDbEntity
  8
HAUPTEBENE
  6
Continuous
 62
     5
100
AcDbCircle
 10
299.4845254613839
 20
281.9726921291671
 30
0.0
 40
0.5
100
AcDbArc
 50
179.9999997943177
 51
269.9999999779574
1001
PHOENIX7010
1002
{
1070
    62
1070
     5
1070
    41
1040
1.0
1002
}
  0
LINE
  5
868
102
{ACAD_REACTORS
330
D4A
102
}
330
1A
100
AcDbEntity
  8
HAUPTEBENE
  6
Continuous
 62
     5
100
AcDbLine
 10
298.9845254613839
 20
282.5226799291671
 30
0.0
 11
298.9845254613839
 21
281.9726921291671
 31
0.0
1001
PHOENIX7010
1002
{
1070
    62
1070
     5
1070
    41
1040
1.0
1002
}
  0
ARC
  5
869
102
{ACAD_REACTORS
330
D4A
102
}
330
1A
100
AcDbEntity
  8
HAUPTEBENE
  6
Continuous
 62
     5
100
AcDbCircle
 10
299.4845254613839
 20
282.5226799291671
 30
0.0
 40
0.5
100
AcDbArc
 50
90.00000018363962
 51
180.0000003672792
1001
PHOENIX7010
1002
{
1070
    62
1070
     5
1070
    41
1040
1.0
1002
}
  0
LINE
  5
86A
102
{ACAD_REACTORS
330
D4A
102
}
330
1A
100
AcDbEntity
  8
HAUPTEBENE
  6
Continuous
 62
     5
100
AcDbLine
 10
307.3645303413839
 20
283.0226799291671
 30
0.0
 11
299.4845254613839
 21
283.0226799291671
 31
0.0
1001
PHOENIX7010
1002
{
1070
    62
1070
     5
1070
    41
1040
1.0
1002
}
  0
ARC
  5
86B
102
{ACAD_REACTORS
330
D4A
102
}
330
1A
100
AcDbEntity
  8
HAUPTEBENE
  6
Continuous
 62
     5
100
AcDbCircle
 10
307.3645303413839
 20
284.5727287591671
 30
0.0
 40
1.55004882999998
100
AcDbArc
 50
269.9999999779588
 51
89.9999997722792
1001
PHOENIX7010
1002
{
1070
    62
1070
     5
1070
    41
1040
1.0
1002
}
  0
LINE
  5
86C
102
{ACAD_REACTORS
330
D4A
102
}
330
1A
100
AcDbEntity
  8
HAUPTEBENE
  6
Continuous
 62
     5
100
AcDbLine
 10
306.6845987013839
 20
286.1227165491671
 30
0.0
 11
307.3645303413839
 21
286.1227165491671
 31
0.0
1001
PHOENIX7010
1002
{
1070
    62
1070
     5
1070
    41
1040
1.0
1002
}
  0
LINE
  5
86D
102
{ACAD_REACTORS
330
D4A
102
}
330
1A
100
AcDbEntity
  8
HAUPTEBENE
  6
Continuous
 62
     5
100
AcDbLine
 10
306.6845987013839
 20
286.8727165491671
 30
0.0
 11
306.6845987013839
 21
286.1227165491671
 31
0.0
1001
PHOENIX7010
1002
{
1070
    62
1070
     5
1070
    41
1040
1.0
1002
}
  0
ARC
  5
86E
102
{ACAD_REACTORS
330
D4A
102
}
330
1A
100
AcDbEntity
  8
HAUPTEBENE
  6
Continuous
 62
     5
100
AcDbCircle
 10
307.1845987013839
 20
286.8727165491671
 30
0.0
 40
0.5
100
AcDbArc
 50
90.00000018364287
 51
180.0000003672792
1001
PHOENIX7010
1002
{
1070
    62
1070
     5
1070
    41
1040
1.0
1002
}
  0
LINE
  5
86F
102
{ACAD_REACTORS
330
D4A
102
}
330
1A
100
AcDbEntity
  8
HAUPTEBENE
  6
Continuous
 62
     5
100
AcDbLine
 10
319.0785196013839
 20
287.3727165491672
 30
0.0
 11
307.1845987013839
 21
287.3727165491672
 31
0.0
1001
PHOENIX7010
1002
{
1070
    62
1070
     5
1070
    41
1040
1.0
1002
}
  0
ARC
  5
870
102
{ACAD_REACTORS
330
D4A
102
}
330
1A
100
AcDbEntity
  8
HAUPTEBENE
  6
Continuous
 62
     5
100
AcDbCircle
 10
319.0845010513839
 20
287.9726921291671
 30
0.0
 40
0.600005399999993
100
AcDbArc
 50
269.4288097576277
 51
89.99999977228043
1001
PHOENIX7010
1002
{
1070
    62
1070
     5
1070
    41
1040
1.0
1002
}
  0
LINE
  5
871
102
{ACAD_REACTORS
330
D4A
102
}
330
1A
100
AcDbEntity
  8
HAUPTEBENE
  6
Continuous
 62
     5
100
AcDbLine
 10
317.1844766313839
 20
288.5727287591672
 30
0.0
 11
319.0845010513839
 21
288.5727287591672
 31
0.0
1001
PHOENIX7010
1002
{
1070
    62
1070
     5
1070
    41
1040
1.0
1002
}
  0
ARC
  5
872
102
{ACAD_REACTORS
330
D4A
102
}
330
1A
100
AcDbEntity
  8
HAUPTEBENE
  6
Continuous
 62
     5
100
AcDbCircle
 10
317.1844766313839
 20
289.0727287591671
 30
0.0
 40
0.5
100
AcDbArc
 50
179.9999997943177
 51
269.9999999779574
1001
PHOENIX7010
1002
{
1070
    62
1070
     5
1070
    41
1040
1.0
1002
}
  0
LINE
  5
873
102
{ACAD_REACTORS
330
D4A
102
}
330
1A
100
AcDbEntity
  8
HAUPTEBENE
  6
Continuous
 62
     5
100
AcDbLine
 10
316.6844766313839
 20
289.5727287591672
 30
0.0
 11
316.6844766313839
 21
289.0727287591671
 31
0.0
1001
PHOENIX7010
1002
{
1070
    62
1070
     5
1070
    41
1040
1.0
1002
}
  0
LINE
  5
874
102
{ACAD_REACTORS
330
D4A
102
}
330
1A
100
AcDbEntity
  8
HAUPTEBENE
  6
Continuous
 62
     5
100
AcDbLine
 10
341.4845254613839
 20
289.5727287591672
 30
0.0
 11
316.6844766313839
 21
289.5727287591672
 31
0.0
1001
PHOENIX7010
1002
{
1070
    62
1070
     5
1070
    41
1040
1.0
1002
}
  0
LINE
  5
875
102
{ACAD_REACTORS
330
D4C
102
}
330
1A
100
AcDbEntity
  8
HAUPTEBENE
  6
ACAD_ISO04W100
 62
     1
100
AcDbLine
 10
343.4845254613839
 20
284.5726677191672
 30
0.0
 11
101.2447183313839
 21
284.5726066791672
 31
0.0
1001
PHOENIX7010
1002
{
1070
    62
1070
     1
1070
    41
1040
1.0
1002
}
  0
LINE
  5
878
102
{ACAD_REACTORS
330
D4B
102
}
330
1A
100
AcDbEntity
  8
HAUPTEBENE
  6
ACAD_ISO04W100
 62
     1
100
AcDbLine
 10
110.2447183313839
 20
260.9226433091671
 30
0.0
 11
110.2447183313839
 21
211.6325737291671
 31
0.0
1001
PHOENIX7010
1002
{
1070
    62
1070
     1
1070
    41
1040
1.0
1002
}
  0
CIRCLE
  5
879
102
{ACAD_REACTORS
330
D4B
102
}
330
1A
100
AcDbEntity
  8
HAUPTEBENE
  6
Continuous
 62
     5
100
AcDbCircle
 10
110.2447183313839
 20
251.9226433091672
 30
0.0
 40
4.29999924
1001
PHOENIX7010
1002
{
1070
    62
1070
     5
1070
    41
1040
1.0
1002
}
  0
CIRCLE
  5
87A
102
{ACAD_REACTORS
330
D4B
102
}
330
1A
100
AcDbEntity
  8
HAUPTEBENE
  6
Continuous
 62
     5
100
AcDbCircle
 10
110.2447183313839
 20
251.9226433091672
 30
0.0
 40
2.299999709999999
1001
PHOENIX7010
1002
{
1070
    62
1070
     5
1070
    41
1040
1.0
1002
}
  0
LINE
  5
87B
102
{ACAD_REACTORS
330
D4B
102
}
330
1A
100
AcDbEntity
  8
HAUPTEBENE
  6
ACAD_ISO04W100
 62
     1
100
AcDbLine
 10
119.2447183313839
 20
251.9226433091672
 30
0.0
 11
101.2447183313839
 21
251.9226433091672
 31
0.0
1001
PHOENIX7010
1002
{
1070
    62
1070
     1
1070
    41
1040
1.0
1002
}
  0
LINE
  5
87C
102
{ACAD_REACTORS
330
D4B
102
}
330
1A
100
AcDbEntity
  8
HAUPTEBENE
  6
Continuous
 62
     5
100
AcDbLine
 10
103.2447183313839
 20
288.8226677191672
 30
0.0
 11
103.2447183313839
 21
213.5719352991671
 31
0.0
1001
PHOENIX7010
1002
{
1070
    62
1070
     5
1070
    41
1040
1.0
1002
}
  0
LINE
  5
B54
330
1A
100
AcDbEntity
  8
0
  6
Continuous
 62
     1
100
AcDbLine
 10
108.9960535330087
 20
102.2919666801145
 30
0.0
 11
231.8324959288743
 21
102.2919666801145
 31
0.0
1001
PHOENIX7010
1002
{
1070
    41
1040
1.0
1070
    62
1070
     1
1002
}
  0
LINE
  5
B55
330
1A
100
AcDbEntity
  8
0
  6
Continuous
 62
     1
100
AcDbLine
 10
108.9960535330087
 20
93.96196668011453
 30
0.0
 11
231.8324959288743
 21
93.96196668011453
 31
0.0
1001
PHOENIX7010
1002
{
1070
    41
1040
1.0
1070
    62
1070
     1
1002
}
  0
LINE
  5
B56
330
1A
100
AcDbEntity
  8
0
  6
Continuous
 62
     1
100
AcDbLine
 10
108.9960535330087
 20
85.6319666801146
 30
0.0
 11
231.8324959288743
 21
85.6319666801146
 31
0.0
1001
PHOENIX7010
1002
{
1070
    41
1040
1.0
1070
    62
1070
     1
1002
}
  0
LINE
  5
B57
330
1A
100
AcDbEntity
  8
0
  6
Continuous
 62
     1
100
AcDbLine
 10
108.9960535330087
 20
77.30196668011456
 30
0.0
 11
231.8324959288743
 21
77.30196668011456
 31
0.0
1001
PHOENIX7010
1002
{
1070
    41
1040
1.0
1070
    62
1070
     1
1002
}
  0
LINE
  5
B5A
330
1A
100
AcDbEntity
  8
0
  6
Continuous
 62
     1
100
AcDbLine
 10
108.9960535330087
 20
110.6219666801146
 30
0.0
 11
231.8324959288743
 21
110.6219666801146
 31
0.0
1001
PHOENIX7010
1002
{
1070
    41
1040
1.0
1070
    62
1070
     1
1002
}
  0
LINE
  5
B5B
330
1A
100
AcDbEntity
  8
0
  6
Continuous
 62
     1
100
AcDbLine
 10
108.9960535330087
 20
118.9519666801145
 30
0.0
 11
231.8324959288743
 21
118.9519666801145
 31
0.0
1001
PHOENIX7010
1002
{
1070
    41
1040
1.0
1070
    62
1070
     1
1002
}
  0
MTEXT
  5
B5C
330
1A
100
AcDbEntity
  8
0
  6
Continuous
 62
     5
100
AcDbMText
 10
111.6139047511358
 20
126.0249954058606
 30
0.0
 40
5.0
 41
55.0
 71
     1
 72
     5
  1
{ t}\P{160}\P{160}\P{160}\P{220}\P{220}\P{220}
 73
     1
 44
1.0
1001
PHOENIX7010
1002
{
1070
    41
1040
1.0
1070
    62
1070
     5
1002
}
1001
ACAD
1000
MTEXTBEGIN
1070
    73
1070
     1
1070
    44
1040
1.0
1070
    74
1070
     0
1000
MTEXTEND
  0
LINE
  5
B5D
330
1A
100
AcDbEntity
  8
0
  6
Continuous
 62
     1
100
AcDbLine
 10
131.0888336803566
 20
68.97196668011452
 30
0.0
 11
131.0888336803566
 21
126.98783010578
 31
0.0
1001
PHOENIX7010
1002
{
1070
    41
1040
1.0
1070
    62
1070
     1
1002
}
  0
MTEXT
  5
B5E
330
1A
100
AcDbEntity
  8
0
  6
Continuous
 62
     5
100
AcDbMText
 10
135.3935180598539
 20
126.0249954058606
 30
0.0
 40
5.0
 41
55.0
 71
     1
 72
     5
  1
{TE}\P{42}\P{63}\P{84}\P{42}\P{63}\P{84}
 73
     1
 44
1.0
1001
PHOENIX7010
1002
{
1070
    41
1040
1.0
1070
    62
1070
     5
1002
}
1001
ACAD
1000
MTEXTBEGIN
1070
    73
1070
     1
1070
    44
1040
1.0
1070
    74
1070
     0
1000
MTEXTEND
  0
MTEXT
  5
B63
330
1A
100
AcDbEntity
  8
0
  6
Continuous
 62
     5
100
AcDbMText
 10
164.5553101433127
 20
126.0249954058606
 30
0.0
 40
5.0
 41
49.45386596685352
 71
     1
 72
     5
  1
{ a}\P{123}\P{123}\P{123}\P{183}\P{183}\P{183}
 73
     1
 44
1.0
1001
PHOENIX7010
1002
{
1070
    41
1040
1.0
1070
    62
1070
     5
1002
}
1001
ACAD
1000
MTEXTBEGIN
1070
    73
1070
     1
1070
    44
1040
1.0
1070
    74
1070
     0
1000
MTEXTEND
  0
LINE
  5
B64
330
1A
100
AcDbEntity
  8
0
  6
Continuous
 62
     1
100
AcDbLine
 10
154.7044917306689
 20
68.97196668011452
 30
0.0
 11
154.7044917306689
 21
140.9427637004771
 31
0.0
1001
PHOENIX7010
1002
{
1070
    41
1040
1.0
1070
    62
1070
     1
1002
}
  0
MTEXT
  5
B65
330
1A
100
AcDbEntity
  8
0
  6
Continuous
 62
     5
100
AcDbMText
 10
197.6773966468736
 20
126.0249954058606
 30
0.0
 40
5.0
 41
55.0
 71
     1
 72
     5
  1
{b = TE}\P{ 218}\P{ 324.7}\P{ 431.4}\P{ 218}\P{ 324.7}\P{ 431.4}
 73
     1
 44
1.0
1001
PHOENIX7010
1002
{
1070
    41
1040
1.0
1070
    62
1070
     5
1002
}
1001
ACAD
1000
MTEXTBEGIN
1070
    73
1070
     1
1070
    44
1040
1.0
1070
    74
1070
     0
1000
MTEXTEND
  0
LINE
  5
B66
330
1A
100
AcDbEntity
  8
0
  6
Continuous
 62
     1
100
AcDbLine
 10
193.3727122673763
 20
68.97196668011452
 30
0.0
 11
193.3727122673763
 21
141.8983315452302
 31
0.0
1001
PHOENIX7010
1002
{
1070
    41
1040
1.0
1070
    62
1070
     1
1002
}
  0
LINE
  5
B69
330
1A
100
AcDbEntity
  8
HAUPTEBENE
  6
Continuous
 62
     5
100
AcDbLine
 10
208.5015898488873
 20
124.5668208583715
 30
0.0
 11
207.3015776488873
 21
125.2596309183715
 31
0.0
1001
PHOENIX7010
1002
{
1070
    62
1070
     5
1070
    41
1040
1.0
1002
}
  0
LINE
  5
B6A
330
1A
100
AcDbEntity
  8
HAUPTEBENE
  6
Continuous
 62
     5
100
AcDbLine
 10
206.1015654388873
 20
124.5668208583715
 30
0.0
 11
207.3015776488873
 21
125.2596309183715
 31
0.0
1001
PHOENIX7010
1002
{
1070
    62
1070
     5
1070
    41
1040
1.0
1002
}
  0
LINE
  5
B6B
102
{ACAD_REACTORS
330
D70
102
}
330
1A
100
AcDbEntity
  8
0
  6
Continuous
 62
     5
100
AcDbLine
 10
120.634371299797
 20
122.8012682180413
 30
0.0
 11
123.325505368764
 21
124.1270877468026
 31
0.0
1001
PHOENIX7010
1002
{
1070
    41
1040
1.0
1070
    62
1070
     7
1002
}
  0
LINE
  5
B6C
102
{ACAD_REACTORS
330
D70
102
}
330
1A
100
AcDbEntity
  8
0
  6
Continuous
 62
     5
100
AcDbLine
 10
122.6428480986613
 20
122.1186109479383
 30
0.0
 11
121.3170285699
 21
124.8097450169053
 31
0.0
1001
PHOENIX7010
1002
{
1070
    41
1040
1.0
1070
    62
1070
     7
1002
}
  0
LINE
  5
B6D
102
{ACAD_REACTORS
330
D70
102
}
330
1A
100
AcDbEntity
  8
0
  6
Continuous
 62
     5
100
AcDbLine
 10
120.7330581206685
 20
124.2980183345892
 30
0.0
 11
123.2268185478929
 21
122.6303376302547
 31
0.0
1001
PHOENIX7010
1002
{
1070
    41
1040
1.0
1070
    62
1070
     7
1002
}
  0
LINE
  5
B6E
102
{ACAD_REACTORS
330
D70
102
}
330
1A
100
AcDbEntity
  8
0
  6
Continuous
 62
     5
100
AcDbLine
 10
121.1460979821135
 20
122.2172977688095
 30
0.0
 11
122.8137786864479
 21
124.711058196034
 31
0.0
1001
PHOENIX7010
1002
{
1070
    41
1040
1.0
1070
    62
1070
     7
1002
}
  0
LINE
  5
B6F
102
{ACAD_REACTORS
330
D70
102
}
330
1A
100
AcDbEntity
  8
0
  6
Continuous
 62
     5
100
AcDbLine
 10
120.4831882177327
 20
123.5628648032932
 30
0.0
 11
123.4766884508286
 21
123.3654911615506
 31
0.0
1001
PHOENIX7010
1002
{
1070
    41
1040
1.0
1070
    62
1070
     7
1002
}
  0
LINE
  5
B70
102
{ACAD_REACTORS
330
D70
102
}
330
1A
100
AcDbEntity
  8
0
  6
Continuous
 62
     5
100
AcDbLine
 10
121.8812515134094
 20
121.967427865874
 30
0.0
 11
122.0786251551519
 21
124.9609280989699
 31
0.0
1001
PHOENIX7010
1002
{
1070
    41
1040
1.0
1070
    62
1070
     7
1002
}
  0
LINE
  5
B73
102
{ACAD_REACTORS
330
D71
102
}
330
1A
100
AcDbEntity
  8
0
  6
Continuous
 62
     5
100
AcDbLine
 10
119.5300052773395
 20
58.46948679629964
 30
0.0
 11
122.2211393463066
 21
59.79530632506101
 31
0.0
1001
PHOENIX7010
1002
{
1070
    41
1040
1.0
1070
    62
1070
     7
1002
}
  0
LINE
  5
B74
102
{ACAD_REACTORS
330
D71
102
}
330
1A
100
AcDbEntity
  8
0
  6
Continuous
 62
     5
100
AcDbLine
 10
121.5384820762039
 20
57.7868295261967
 30
0.0
 11
120.2126625474425
 21
60.47796359516372
 31
0.0
1001
PHOENIX7010
1002
{
1070
    41
1040
1.0
1070
    62
1070
     7
1002
}
  0
LINE
  5
B75
102
{ACAD_REACTORS
330
D71
102
}
330
1A
100
AcDbEntity
  8
0
  6
Continuous
 62
     5
100
AcDbLine
 10
119.628692098211
 20
59.96623691284753
 30
0.0
 11
122.1224525254354
 21
58.29855620851311
 31
0.0
1001
PHOENIX7010
1002
{
1070
    41
1040
1.0
1070
    62
1070
     7
1002
}
  0
LINE
  5
B76
102
{ACAD_REACTORS
330
D71
102
}
330
1A
100
AcDbEntity
  8
0
  6
Continuous
 62
     5
100
AcDbLine
 10
120.0417319596559
 20
57.88551634706789
 30
0.0
 11
121.7094126639904
 21
60.37927677429241
 31
0.0
1001
PHOENIX7010
1002
{
1070
    41
1040
1.0
1070
    62
1070
     7
1002
}
  0
LINE
  5
B77
102
{ACAD_REACTORS
330
D71
102
}
330
1A
100
AcDbEntity
  8
0
  6
Continuous
 62
     5
100
AcDbLine
 10
119.3788221952752
 20
59.23108338155157
 30
0.0
 11
122.3723224283711
 21
59.03370973980895
 31
0.0
1001
PHOENIX7010
1002
{
1070
    41
1040
1.0
1070
    62
1070
     7
1002
}
  0
LINE
  5
B78
102
{ACAD_REACTORS
330
D71
102
}
330
1A
100
AcDbEntity
  8
0
  6
Continuous
 62
     5
100
AcDbLine
 10
120.7768854909519
 20
57.63564644413236
 30
0.0
 11
120.9742591326944
 21
60.62914667722828
 31
0.0
1001
PHOENIX7010
1002
{
1070
    41
1040
1.0
1070
    62
1070
     7
1002
}
  0
LINE
  5
CBD
330
1A
100
AcDbEntity
  8
0
  6
Continuous
 62
     1
100
AcDbLine
 10
284.2613305414898
 20
102.8707385757267
 30
0.0
 11
355.5275252628471
 21
102.8707385757267
 31
0.0
1001
PHOENIX7010
1002
{
1070
    41
1040
1.0
1070
    62
1070
     1
1002
}
  0
LINE
  5
CC3
330
1A
100
AcDbEntity
  8
0
  6
Continuous
 62
     1
100
AcDbLine
 10
284.2613305414898
 20
111.2007385757267
 30
0.0
 11
355.5275252628471
 21
111.2007385757267
 31
0.0
1001
PHOENIX7010
1002
{
1070
    41
1040
1.0
1070
    62
1070
     1
1002
}
  0
LINE
  5
CC4
330
1A
100
AcDbEntity
  8
0
  6
Continuous
 62
     1
100
AcDbLine
 10
284.2613305414898
 20
119.5307385757266
 30
0.0
 11
355.5275252628471
 21
119.5307385757266
 31
0.0
1001
PHOENIX7010
1002
{
1070
    41
1040
1.0
1070
    62
1070
     1
1002
}
  0
MTEXT
  5
CC5
330
1A
100
AcDbEntity
  8
0
  6
Continuous
 62
     5
100
AcDbMText
 10
286.8791817596168
 20
126.6037673014728
 30
0.0
 40
5.0
 41
55.0
 71
     1
 72
     5
  1
{Modell}\P{EPS 00042}\P{EPS 00063}\P{EPS 00084}
 73
     1
 44
1.0
1001
PHOENIX7010
1002
{
1070
    41
1040
1.0
1070
    62
1070
     5
1002
}
1001
ACAD
1000
MTEXTBEGIN
1070
    73
1070
     1
1070
    44
1040
1.0
1070
    74
1070
     0
1000
MTEXTEND
  0
LINE
  5
CC6
330
1A
100
AcDbEntity
  8
0
  6
Continuous
 62
     1
100
AcDbLine
 10
337.3142162705783
 20
94.54073857572666
 30
0.0
 11
337.3142162705783
 21
127.5666020013922
 31
0.0
1001
PHOENIX7010
1002
{
1070
    41
1040
1.0
1070
    62
1070
     1
1002
}
  0
MTEXT
  5
CC7
330
1A
100
AcDbEntity
  8
0
  6
Continuous
 62
     5
100
AcDbMText
 10
341.9666050579533
 20
126.6037673014728
 30
0.0
 40
5.0
 41
55.0
 71
     1
 72
     5
  1
{TE}\P{42}\P{63}\P{84}
 73
     1
 44
1.0
1001
PHOENIX7010
1002
{
1070
    41
1040
1.0
1070
    62
1070
     5
1002
}
1001
ACAD
1000
MTEXTBEGIN
1070
    73
1070
     1
1070
    44
1040
1.0
1070
    74
1070
     0
1000
MTEXTEND
  0
TEXT
  5
CCB
330
1A
100
AcDbEntity
  8
HAUPTEBENE
  6
Continuous
 62
     5
100
AcDbText
 10
154.8420784635339
 20
135.5937274267678
 30
0.0
 40
3.0
  1
Steckbereich/
 41
1.5
100
AcDbText
1001
PHOENIX7010
1002
{
1070
    62
1070
     5
1070
    41
1040
1.0
1002
}
  0
TEXT
  5
CCC
330
1A
100
AcDbEntity
  8
HAUPTEBENE
  6
Continuous
 62
     5
100
AcDbText
 10
156.9151900684921
 20
127.4117332281339
 30
0.0
 40
3.0
  1
Plug-in area
 41
1.5
100
AcDbText
1001
PHOENIX7010
1002
{
1070
    62
1070
     5
1070
    41
1040
1.0
1002
}
  0
LINE
  5
DFB
102
{ACAD_REACTORS
330
E0D
102
}
330
1A
100
AcDbEntity
  8
0
  6
Continuous
 62
     1
370
    50
100
AcDbLine
 10
403.0
 20
1.000000000000113
 30
0.0
 11
403.0
 21
5.000000000000113
 31
0.0
1001
PHOENIX7010
1002
{
1070
    62
1070
     1
1070
    41
1040
1.0
1002
}
  0
LINE
  5
DFC
102
{ACAD_REACTORS
330
E0D
102
}
330
1A
100
AcDbEntity
  8
0
  6
Continuous
 62
     3
370
    50
100
AcDbLine
 10
589.0
 20
415.0000000000001
 30
0.0
 11
589.0
 21
5.000000000000113
 31
0.0
1001
PHOENIX7010
1002
{
1070
    62
1070
     3
1070
    41
1040
1.0
1002
}
  0
LINE
  5
DFD
102
{ACAD_REACTORS
330
E0D
102
}
330
1A
100
AcDbEntity
  8
0
  6
Continuous
 62
     3
370
    50
100
AcDbLine
 10
20.0
 20
415.0000000000001
 30
0.0
 11
589.0
 21
415.0000000000001
 31
0.0
1001
PHOENIX7010
1002
{
1070
    62
1070
     3
1070
    41
1040
1.0
1002
}
  0
LINE
  5
DFE
102
{ACAD_REACTORS
330
E0D
102
}
330
1A
100
AcDbEntity
  8
0
  6
Continuous
 62
     1
370
    50
100
AcDbLine
 10
116.0
 20
5.000000000000113
 30
0.0
 11
116.0
 21
1.000000000000113
 31
0.0
1001
PHOENIX7010
1002
{
1070
    62
1070
     1
1070
    41
1040
1.0
1002
}
  0
LINE
  5
DFF
102
{ACAD_REACTORS
330
E0D
102
}
330
1A
100
AcDbEntity
  8
0
  6
Continuous
 62
     1
370
    50
100
AcDbLine
 10
116.0
 20
419.0000000000001
 30
0.0
 11
116.0
 21
415.0000000000001
 31
0.0
1001
PHOENIX7010
1002
{
1070
    62
1070
     1
1070
    41
1040
1.0
1002
}
  0
LINE
  5
E00
102
{ACAD_REACTORS
330
E0D
102
}
330
1A
100
AcDbEntity
  8
0
  6
Continuous
 62
     1
370
    50
100
AcDbLine
 10
213.0
 20
5.000000000000113
 30
0.0
 11
213.0
 21
1.000000000000113
 31
0.0
1001
PHOENIX7010
1002
{
1070
    62
1070
     1
1070
    41
1040
1.0
1002
}
  0
LINE
  5
E01
102
{ACAD_REACTORS
330
E0D
102
}
330
1A
100
AcDbEntity
  8
0
  6
Continuous
 62
     1
370
    50
100
AcDbLine
 10
213.0
 20
419.0000000000001
 30
0.0
 11
213.0
 21
415.0000000000001
 31
0.0
1001
PHOENIX7010
1002
{
1070
    62
1070
     1
1070
    41
1040
1.0
1002
}
  0
LINE
  5
E02
102
{ACAD_REACTORS
330
E0D
102
}
330
1A
100
AcDbEntity
  8
0
  6
Continuous
 62
     1
370
    50
100
AcDbLine
 10
403.0
 20
419.0000000000001
 30
0.0
 11
403.0
 21
415.0000000000001
 31
0.0
1001
PHOENIX7010
1002
{
1070
    62
1070
     1
1070
    41
1040
1.0
1002
}
  0
LINE
  5
E03
102
{ACAD_REACTORS
330
E0D
102
}
330
1A
100
AcDbEntity
  8
0
  6
Continuous
 62
     3
370
    50
100
AcDbLine
 10
20.0
 20
5.000000000000113
 30
0.0
 11
20.0
 21
415.0000000000001
 31
0.0
1001
PHOENIX7010
1002
{
1070
    62
1070
     3
1070
    41
1040
1.0
1002
}
  0
LINE
  5
E04
102
{ACAD_REACTORS
330
E0D
102
}
330
1A
100
AcDbEntity
  8
0
  6
Continuous
 62
     3
370
    50
100
AcDbLine
 10
589.0
 20
5.000000000000113
 30
0.0
 11
20.0
 21
5.000000000000113
 31
0.0
1001
PHOENIX7010
1002
{
1070
    62
1070
     3
1070
    41
1040
1.0
1002
}
  0
LINE
  5
E05
102
{ACAD_REACTORS
330
E0D
102
}
330
1A
100
AcDbEntity
  8
0
  6
Continuous
 62
     1
370
    50
100
AcDbLine
 10
1.0
 20
1.000000000000113
 30
0.0
 11
1.0
 21
419.0000000000001
 31
0.0
1001
PHOENIX7010
1002
{
1070
    62
1070
     1
1070
    41
1040
1.0
1002
}
  0
LINE
  5
E06
102
{ACAD_REACTORS
330
E0D
102
}
330
1A
100
AcDbEntity
  8
0
  6
Continuous
 62
     1
370
    50
100
AcDbLine
 10
1.0
 20
419.0000000000001
 30
0.0
 11
593.0
 21
419.0000000000001
 31
0.0
1001
PHOENIX7010
1002
{
1070
    62
1070
     1
1070
    41
1040
1.0
1002
}
  0
LINE
  5
E07
102
{ACAD_REACTORS
330
E0D
102
}
330
1A
100
AcDbEntity
  8
0
  6
Continuous
 62
     1
370
    50
100
AcDbLine
 10
593.0
 20
419.0000000000001
 30
0.0
 11
593.0
 21
1.000000000000113
 31
0.0
1001
PHOENIX7010
1002
{
1070
    62
1070
     1
1070
    41
1040
1.0
1002
}
  0
LINE
  5
E08
102
{ACAD_REACTORS
330
E0D
102
}
330
1A
100
AcDbEntity
  8
0
  6
Continuous
 62
     1
370
    50
100
AcDbLine
 10
593.0
 20
1.000000000000113
 30
0.0
 11
1.0
 21
1.000000000000113
 31
0.0
1001
PHOENIX7010
1002
{
1070
    62
1070
     1
1070
    41
1040
1.0
1002
}
  0
LINE
  5
E09
102
{ACAD_REACTORS
330
E0D
102
}
330
1A
100
AcDbEntity
  8
0
  6
Continuous
 62
     1
370
    50
100
AcDbLine
 10
589.0
 20
297.0000000000001
 30
0.0
 11
593.0
 21
297.0000000000001
 31
0.0
1001
PHOENIX7010
1002
{
1070
    62
1070
     1
1070
    41
1040
1.0
1002
}
  0
MTEXT
  5
E0A
102
{ACAD_REACTORS
330
E0D
102
}
330
1A
100
AcDbEntity
  8
0
  6
Continuous
 62
     7
370
    50
100
AcDbMText
 10
19.70248718641096
 20
55.39351207913353
 30
0.0
 40
2.0
 41
0.0
 71
     7
 72
     5
  1
{\T1.1;\C1;"Schutzvermerk nach DIN ISO 16016 beachten" \Q20;"Please pay attention to copyright note DIN ISO 16016"}
 11
0.0000000000000002
 21
1.0
 31
0.0
 73
     1
 44
1.0
1001
PHOENIX7010
1002
{
1070
    41
1040
1.0
1002
}
1001
ACAD
1000
MTEXTBEGIN
1070
    73
1070
     1
1070
    44
1040
1.0
1070
    74
1070
     0
1000
MTEXTEND
  0
INSERT
  5
E0B
102
{ACAD_REACTORS
330
E0D
102
}
330
1A
100
AcDbEntity
  8
0
  6
Continuous
 62
     1
370
    50
100
AcDbBlockReference
  2
PH_GRPBLK
 10
403.0
 20
1.000000000000113
 30
0.0
1001
PHOENIX7010
1002
{
1070
    41
1040
1.0
1002
}
  0
HATCH
  5
E95
102
{ACAD_REACTORS
330
EDD
102
}
330
1A
100
AcDbEntity
  8
0
  6
Continuous
 62
     1
370
    25
100
AcDbHatch
 10
0.0
 20
0.0
 30
0.0
210
0.0
220
0.0
230
1.0
  2
_U
 70
     0
 71
     1
 91
        1
 92
        0
 93
        5
 72
     1
 10
581.4334749940253
 20
35.16453811398049
 11
574.7334749940255
 21
27.36453811398042
 72
     1
 10
574.7334749940255
 20
27.36453811398042
 11
586.7334749940255
 21
27.36453811398042
 72
     1
 10
586.7334749940255
 20
27.36453811398042
 11
586.7334749940255
 21
35.16453811398049
 72
     1
 10
586.7334749940255
 20
35.16453811398037
 11
581.4334749940253
 21
28.26453811398051
 72
     1
 10
581.4334749940253
 20
28.26453811398051
 11
581.4334749940253
 21
35.16453811398049
 97
        1
330
ED8
 75
     0
 76
     0
 52
45.0
 41
0.1
 77
     0
 78
     1
 53
45.0
 43
174.0
 44
-32.08885297207042
 45
-0.0707106781186548
 46
0.0707106781186548
 79
     0
 98
        1
 10
174.0
 20
-32.08885297207042
1001
PHOENIX7010
1002
{
1070
    41
1040
1.0
1002
}
  0
HATCH
  5
E96
102
{ACAD_REACTORS
330
EDD
102
}
330
1A
100
AcDbEntity
  8
0
  6
Continuous
 62
     1
370
    25
100
AcDbHatch
 10
0.0
 20
0.0
 30
0.0
210
0.0
220
0.0
230
1.0
  2
_U
 70
     0
 71
     1
 91
        1
 92
        0
 93
        3
 72
     1
 10
573.8834749940256
 20
27.36453811398042
 11
573.8834749940256
 21
31.51453811398039
 72
     1
 10
573.8834749940256
 20
31.51453811398039
 11
578.0334749940257
 21
31.51453811398039
 72
     2
 10
573.8834749940256
 20
31.51453811398039
 40
4.149999999999977
 50
0.0000000000001962
 51
270.0
 73
     1
 97
        1
330
ED9
 75
     0
 76
     0
 52
45.0
 41
0.65
 77
     0
 78
     1
 53
45.0
 43
174.0
 44
-32.08885297207042
 45
-0.4596194077712559
 46
0.459619407771256
 79
     0
 98
        1
 10
174.0
 20
-32.08885297207042
1001
PHOENIX7010
1002
{
1070
    41
1040
1.0
1002
}
  0
LINE
  5
E97
102
{ACAD_REACTORS
330
EDD
102
}
330
1A
100
AcDbEntity
  8
0
  6
Continuous
 62
     7
370
    50
100
AcDbLine
 10
574.7334749940255
 20
27.36453811398042
 30
0.0
 11
586.7334749940255
 21
27.36453811398042
 31
0.0
1001
PHOENIX7010
1002
{
1070
    41
1040
1.0
1002
}
  0
LINE
  5
E98
102
{ACAD_REACTORS
330
EDD
102
}
330
1A
100
AcDbEntity
  8
0
  6
Continuous
 62
     7
370
    50
100
AcDbLine
 10
586.7334749940255
 20
27.36453811398042
 30
0.0
 11
586.7334749940255
 21
35.16453811398037
 31
0.0
1001
PHOENIX7010
1002
{
1070
    41
1040
1.0
1002
}
  0
LINE
  5
E99
102
{ACAD_REACTORS
330
EDD
102
}
330
1A
100
AcDbEntity
  8
0
  6
Continuous
 62
     7
370
    50
100
AcDbLine
 10
581.4334749940253
 20
28.26453811398039
 30
0.0
 11
581.4334749940253
 21
35.16453811398037
 31
0.0
1001
PHOENIX7010
1002
{
1070
    41
1040
1.0
1002
}
  0
LINE
  5
E9A
102
{ACAD_REACTORS
330
EDD
102
}
330
1A
100
AcDbEntity
  8
0
  6
Continuous
 62
     7
370
    50
100
AcDbLine
 10
581.4334749940253
 20
35.16453811398037
 30
0.0
 11
574.7334749940255
 21
27.36453811398042
 31
0.0
1001
PHOENIX7010
1002
{
1070
    41
1040
1.0
1002
}
  0
LINE
  5
E9B
102
{ACAD_REACTORS
330
EDD
102
}
330
1A
100
AcDbEntity
  8
0
  6
Continuous
 62
     7
370
    50
100
AcDbLine
 10
586.7334749940255
 20
35.16453811398037
 30
0.0
 11
581.4334749940253
 21
28.26453811398039
 31
0.0
1001
PHOENIX7010
1002
{
1070
    41
1040
1.0
1002
}
  0
INSERT
  5
E9C
102
{ACAD_REACTORS
330
EDD
102
}
330
1A
100
AcDbEntity
  8
0
  6
Continuous
 62
     1
370
    25
100
AcDbBlockReference
  2
PH_GRPBLK
 10
574.7334749940255
 20
27.36453811398042
 30
0.0
1001
PHOENIX7010
1002
{
1070
    41
1040
1.0
1002
}
  0
MTEXT
  5
E9D
102
{ACAD_REACTORS
330
EDE
102
}
330
1A
100
AcDbEntity
  8
0
  6
Continuous
 62
     7
370
    50
100
AcDbMText
 10
555.0842366554657
 20
17.88346060003152
 30
0.0
 40
1.6
 41
0.0
 71
     7
 72
     5
  1
{\fArial|b0|i0|c0|p34;\W1.1;\C1;A Phoenix Mecano Company}
 73
     1
 44
1.0
1001
PHOENIX7010
1002
{
1070
    41
1040
1.0
1002
}
1001
ACAD
1000
MTEXTBEGIN
1070
    73
1070
     1
1070
    44
1040
1.0
1070
    74
1070
     0
1000
MTEXTEND
  0
MTEXT
  5
E9E
102
{ACAD_XDICTIONARY
360
1450
102
}
102
{ACAD_REACTORS
330
EDE
102
}
330
1A
100
AcDbEntity
  8
0
  6
Continuous
 62
     7
370
    50
100
AcDbMText
 10
567.5658807175859
 20
21.46517927327739
 30
0.0
 40
3.7
 41
0.0
 71
     7
 72
     5
  1
{\fArial|b1|i0|c0|p34;\W1.1;BOPLA}
 73
     1
 44
1.135135135135135
1001
PHOENIX7010
1002
{
1070
    41
1040
1.0
1002
}
1001
ACAD
1000
MTEXTBEGIN
1070
    73
1070
     1
1070
    44
1040
1.135135135135135
1070
    74
1070
     0
1000
MTEXTEND
  0
INSERT
  5
E9F
102
{ACAD_REACTORS
330
EDE
102
}
330
1A
100
AcDbEntity
  8
0
  6
Continuous
 62
     7
370
    50
100
AcDbBlockReference
  2
PH_GRPBLK
 10
574.7334749940255
 20
27.36453811398042
 30
0.0
1001
PHOENIX7010
1002
{
1070
    41
1040
1.0
1002
}
  0
MTEXT
  5
EA0
102
{ACAD_REACTORS
330
EDF
102
}
330
1A
100
AcDbEntity
  8
0
  6
Continuous
 62
     5
370
    35
100
AcDbMText
 10
492.9304981780733
 20
52.18090043987126
 30
0.0
 40
3.5
 41
0.0
 71
     7
 72
     5
  1
{\C7;Katalogzeichnung/\Q20;Catalogue drawing}
 73
     1
 44
1.0
1001
PHOENIX7010
1002
{
1070
    41
1040
1.0
1002
}
1001
ACAD
1000
MTEXTBEGIN
1070
    73
1070
     1
1070
    44
1040
1.0
1070
    74
1070
     0
1000
MTEXTEND
  0
MTEXT
  5
EA1
102
{ACAD_REACTORS
330
EDF
102
}
330
1A
100
AcDbEntity
  8
0
  6
Continuous
 62
     5
370
    35
100
AcDbMText
 10
492.9304981780733
 20
59.18090043987127
 30
0.0
 40
4.0
 41
0.0
 71
     7
 72
     5
  1
{\C7;für Steckbereichabdeckung}
 73
     1
 44
1.0
1001
PHOENIX7010
1002
{
1070
    41
1040
1.0
1002
}
1001
ACAD
1000
MTEXTBEGIN
1070
    73
1070
     1
1070
    44
1040
1.0
1070
    74
1070
     0
1000
MTEXTEND
  0
MTEXT
  5
EA2
102
{ACAD_REACTORS
330
EDF
102
}
330
1A
100
AcDbEntity
  8
0
  6
Continuous
 62
     5
370
    35
100
AcDbMText
 10
492.9304981780733
 20
66.18090043987127
 30
0.0
 40
4.0
 41
0.0
 71
     7
 72
     5
  1
{\C7;Interzoll-Ergänzungsprofilsatz}
 73
     1
 44
1.0
1001
PHOENIX7010
1002
{
1070
    41
1040
1.0
1002
}
1001
ACAD
1000
MTEXTBEGIN
1070
    73
1070
     1
1070
    44
1040
1.0
1070
    74
1070
     0
1000
MTEXTEND
  0
MTEXT
  5
EA3
102
{ACAD_REACTORS
330
EDF
102
}
330
1A
100
AcDbEntity
  8
0
  6
Continuous
 62
     5
370
    35
100
AcDbMText
 10
514.3074630969176
 20
95.1987580068237
 30
0.0
 40
4.0
 41
0.0
 71
     7
 72
     5
  1
{\C7;2:1}
 73
     1
 44
1.0
1001
PHOENIX7010
1002
{
1070
    41
1040
1.0
1002
}
1001
ACAD
1000
MTEXTBEGIN
1070
    73
1070
     1
1070
    44
1040
1.0
1070
    74
1070
     0
1000
MTEXTEND
  0
MTEXT
  5
EA4
102
{ACAD_REACTORS
330
EDF
102
}
330
1A
100
AcDbEntity
  8
0
  6
Continuous
 62
     5
370
    35
100
AcDbMText
 10
493.2942762589885
 20
94.24669079255114
 30
0.0
 40
2.5
 41
0.0
 71
     7
 72
     5
  1
{\C1;Maßstab/\P\Q20;Scale:}
 73
     1
 44
1.0
1001
PHOENIX7010
1002
{
1070
    41
1040
1.0
1002
}
1001
ACAD
1000
MTEXTBEGIN
1070
    73
1070
     1
1070
    44
1040
1.0
1070
    74
1070
     0
1000
MTEXTEND
  0
MTEXT
  5
EA5
102
{ACAD_REACTORS
330
EDF
102
}
330
1A
100
AcDbEntity
  8
0
  6
Continuous
 62
     5
370
    35
100
AcDbMText
 10
493.5702130763932
 20
86.578461793006
 30
0.0
 40
3.0
 41
0.0
 71
     7
 72
     5
  1
Zeichnungs-Nr. / {\Q20;Drawing-No.:}
 73
     1
 44
1.0
1001
PHOENIX7010
1002
{
1070
    41
1040
1.0
1002
}
1001
ACAD
1000
MTEXTBEGIN
1070
    73
1070
     1
1070
    44
1040
1.0
1070
    74
1070
     0
1000
MTEXTEND
  0
MTEXT
  5
EA6
102
{ACAD_REACTORS
330
EDF
102
}
330
1A
100
AcDbEntity
  8
0
  6
Continuous
 62
     5
370
    35
100
AcDbMText
 10
514.6810942169349
 20
80.43630467405568
 30
0.0
 40
4.0
 41
0.0
 71
     7
 72
     5
  1
{\C7;2G 5045.476.02}
 73
     1
 44
1.0
1001
PHOENIX7010
1002
{
1070
    41
1040
1.0
1002
}
1001
ACAD
1000
MTEXTBEGIN
1070
    73
1070
     1
1070
    44
1040
1.0
1070
    74
1070
     0
1000
MTEXTEND
  0
MTEXT
  5
EA7
102
{ACAD_REACTORS
330
EDF
102
}
330
1A
100
AcDbEntity
  8
0
  6
Continuous
 62
     5
370
    35
100
AcDbMText
 10
492.8800602381663
 20
72.42896167163713
 30
0.0
 40
4.0
 41
0.0
 71
     7
 72
     5
  1
{\C7;Artikel / \Q20;Article:}
 73
     1
 44
1.0
1001
PHOENIX7010
1002
{
1070
    41
1040
1.0
1002
}
1001
ACAD
1000
MTEXTBEGIN
1070
    73
1070
     1
1070
    44
1040
1.0
1070
    74
1070
     0
1000
MTEXTEND
  0
MTEXT
  5
EA8
102
{ACAD_REACTORS
330
EDF
102
}
330
1A
100
AcDbEntity
  8
0
  6
Continuous
 62
     5
370
    35
100
AcDbMText
 10
503.5918340418984
 20
15.32304279191089
 30
0.0
 40
2.0
 41
0.0
 71
     7
 72
     5
  1
{\C1;Datum/\P\Q20;Date:}
 73
     1
 44
1.0
1001
PHOENIX7010
1002
{
1070
    41
1040
1.0
1002
}
1001
ACAD
1000
MTEXTBEGIN
1070
    73
1070
     1
1070
    44
1040
1.0
1070
    74
1070
     0
1000
MTEXTEND
  0
MTEXT
  5
EA9
102
{ACAD_REACTORS
330
EDF
102
}
330
1A
100
AcDbEntity
  8
0
  6
Continuous
 62
     5
370
    35
100
AcDbMText
 10
490.167758256943
 20
15.32303913053624
 30
0.0
 40
2.0
 41
0.0
 71
     7
 72
     5
  1
{\C1;Ä.Nr/\P\Q20;Alt-No.:}
 73
     1
 44
1.0
1001
PHOENIX7010
1002
{
1070
    41
1040
1.0
1002
}
1001
ACAD
1000
MTEXTBEGIN
1070
    73
1070
     1
1070
    44
1040
1.0
1070
    74
1070
     0
1000
MTEXTEND
  0
MTEXT
  5
EAA
102
{ACAD_REACTORS
330
EDF
102
}
330
1A
100
AcDbEntity
  8
0
  6
Continuous
 62
     5
370
    35
100
AcDbMText
 10
516.2178658257171
 20
10.60592166613935
 30
0.0
 40
2.5
 41
0.0
 71
     7
 72
     5
  1
2 900 491
 73
     1
 44
1.0
1001
PHOENIX7010
1002
{
1070
    41
1040
1.0
1002
}
1001
ACAD
1000
MTEXTBEGIN
1070
    73
1070
     1
1070
    44
1040
1.0
1070
    74
1070
     0
1000
MTEXTEND
  0
MTEXT
  5
EAB
102
{ACAD_REACTORS
330
EDF
102
}
330
1A
100
AcDbEntity
  8
0
  6
Continuous
 62
     5
370
    35
100
AcDbMText
 10
490.5289912646938
 20
10.49475527098116
 30
0.0
 40
2.5
 41
0.0
 71
     7
 72
     5
  1
DISK:
 73
     1
 44
1.0
1001
PHOENIX7010
1002
{
1070
    41
1040
1.0
1002
}
1001
ACAD
1000
MTEXTBEGIN
1070
    73
1070
     1
1070
    44
1040
1.0
1070
    74
1070
     0
1000
MTEXTEND
  0
MTEXT
  5
EAC
102
{ACAD_REACTORS
330
EDF
102
}
330
1A
100
AcDbEntity
  8
0
  6
Continuous
 62
     5
370
    35
100
AcDbMText
 10
516.2178658257171
 20
6.248887523187704
 30
0.0
 40
2.5
 41
0.0
 71
     7
 72
     5
  1
27.06.89 UN
 73
     1
 44
1.0
1001
PHOENIX7010
1002
{
1070
    41
1040
1.0
1002
}
1001
ACAD
1000
MTEXTBEGIN
1070
    73
1070
     1
1070
    44
1040
1.0
1070
    74
1070
     0
1000
MTEXTEND
  0
MTEXT
  5
EAD
102
{ACAD_REACTORS
330
EDF
102
}
330
1A
100
AcDbEntity
  8
0
  6
Continuous
 62
     5
370
    35
100
AcDbMText
 10
490.5289912646938
 20
6.248887523187704
 30
0.0
 40
2.5
 41
0.0
 71
     7
 72
     5
  1
Datum/{\Q20;Date:}
 73
     1
 44
1.0
1001
PHOENIX7010
1002
{
1070
    41
1040
1.0
1002
}
1001
ACAD
1000
MTEXTBEGIN
1070
    73
1070
     1
1070
    44
1040
1.0
1070
    74
1070
     0
1000
MTEXTEND
  0
LINE
  5
EAE
102
{ACAD_REACTORS
330
EDF
102
}
330
1A
100
AcDbEntity
  8
0
  6
Continuous
 62
     5
370
    35
100
AcDbLine
 10
488.9999999999997
 20
14.50000000000023
 30
0.0
 11
589.0
 21
14.50000000000023
 31
0.0
1001
PHOENIX7010
1002
{
1070
    41
1040
1.0
1002
}
  0
LINE
  5
EAF
102
{ACAD_REACTORS
330
EDF
102
}
330
1A
100
AcDbEntity
  8
0
  6
Continuous
 62
     5
100
AcDbLine
 10
579.4999999999999
 20
92.50000000000012
 30
0.0
 11
579.4999999999999
 21
99.50000000000011
 31
0.0
1001
PHOENIX7010
1002
{
1070
    62
1070
     5
1070
    41
1040
1.0
1002
}
  0
LINE
  5
EB0
102
{ACAD_REACTORS
330
EDF
102
}
330
1A
100
AcDbEntity
  8
0
  6
ACAD_ISO04W100
 62
     1
 48
0.1451612903225806
100
AcDbLine
 10
584.4999999999999
 20
91.50000000000011
 30
0.0
 11
584.4999999999999
 21
100.5000000000001
 31
0.0
1001
PHOENIX7010
1002
{
1070
    62
1070
     1
1070
    41
1040
1.0
1002
}
  0
CIRCLE
  5
EB1
102
{ACAD_REACTORS
330
EDF
102
}
330
1A
100
AcDbEntity
  8
0
  6
Continuous
 62
     5
100
AcDbCircle
 10
584.4999999999999
 20
96.00000000000012
 30
0.0
 40
1.75
1001
PHOENIX7010
1002
{
1070
    62
1070
     5
1070
    41
1040
1.0
1002
}
  0
CIRCLE
  5
EB2
102
{ACAD_REACTORS
330
EDF
102
}
330
1A
100
AcDbEntity
  8
0
  6
Continuous
 62
     5
100
AcDbCircle
 10
584.4999999999999
 20
96.00000000000012
 30
0.0
 40
3.5
1001
PHOENIX7010
1002
{
1070
    62
1070
     5
1070
    41
1040
1.0
1002
}
  0
LINE
  5
EB3
102
{ACAD_REACTORS
330
EDF
102
}
330
1A
100
AcDbEntity
  8
0
  6
Continuous
 62
     5
100
AcDbLine
 10
572.5
 20
94.25000000000011
 30
0.0
 11
572.5
 21
97.75000000000012
 31
0.0
1001
PHOENIX7010
1002
{
1070
    62
1070
     5
1070
    41
1040
1.0
1002
}
  0
LINE
  5
EB4
102
{ACAD_REACTORS
330
EDF
102
}
330
1A
100
AcDbEntity
  8
0
  6
ACAD_ISO04W100
 62
     1
 48
0.282258064516129
100
AcDbLine
 10
589.0
 20
96.00000000000012
 30
0.0
 11
571.4999999999999
 21
96.00000000000012
 31
0.0
1001
PHOENIX7010
1002
{
1070
    62
1070
     1
1070
    41
1040
1.0
1002
}
  0
LINE
  5
EB5
102
{ACAD_REACTORS
330
EDF
102
}
330
1A
100
AcDbEntity
  8
0
  6
Continuous
 62
     5
100
AcDbLine
 10
579.4999999999999
 20
92.50000000000012
 30
0.0
 11
572.5
 21
94.25000000000011
 31
0.0
1001
PHOENIX7010
1002
{
1070
    62
1070
     5
1070
    41
1040
1.0
1002
}
  0
LINE
  5
EB6
102
{ACAD_REACTORS
330
EDF
102
}
330
1A
100
AcDbEntity
  8
0
  6
Continuous
 62
     5
100
AcDbLine
 10
579.4999999999999
 20
99.50000000000011
 30
0.0
 11
572.5
 21
97.75000000000012
 31
0.0
1001
PHOENIX7010
1002
{
1070
    62
1070
     5
1070
    41
1040
1.0
1002
}
  0
ARC
  5
EB7
102
{ACAD_REACTORS
330
EDF
102
}
330
1A
100
AcDbEntity
  8
0
  6
Continuous
 62
     5
100
AcDbCircle
 10
491.4999999999998
 20
89.00000000000011
 30
0.0
 40
2.5
100
AcDbArc
 50
90.0
 51
180.0
1001
PHOENIX7010
1002
{
1070
    62
1070
     5
1070
    41
1040
1.0
1002
}
  0
ARC
  5
EB8
102
{ACAD_REACTORS
330
EDF
102
}
330
1A
100
AcDbEntity
  8
0
  6
Continuous
 62
     5
100
AcDbCircle
 10
491.4999999999998
 20
100.0000000000001
 30
0.0
 40
2.5
100
AcDbArc
 50
90.0
 51
180.0
1001
PHOENIX7010
1002
{
1070
    62
1070
     5
1070
    41
1040
1.0
1002
}
  0
LINE
  5
EB9
102
{ACAD_REACTORS
330
EDF
102
}
330
1A
100
AcDbEntity
  8
0
  6
Continuous
 62
     5
100
AcDbLine
 10
589.0
 20
91.50000000000011
 30
0.0
 11
491.4999999999998
 21
91.50000000000011
 31
0.0
1001
PHOENIX7010
1002
{
1070
    62
1070
     5
1070
    41
1040
1.0
1002
}
  0
LINE
  5
EBA
102
{ACAD_REACTORS
330
EDF
102
}
330
1A
100
AcDbEntity
  8
0
  6
Continuous
 62
     5
100
AcDbLine
 10
589.0
 20
102.5000000000001
 30
0.0
 11
491.4999999999998
 21
102.5000000000001
 31
0.0
1001
PHOENIX7010
1002
{
1070
    62
1070
     5
1070
    41
1040
1.0
1002
}
  0
LINE
  5
EBB
102
{ACAD_REACTORS
330
EDF
102
}
330
1A
100
AcDbEntity
  8
0
  6
Continuous
 62
     5
100
AcDbLine
 10
524.0
 20
48.00000000000022
 30
0.0
 11
524.0
 21
14.50000000000023
 31
0.0
1001
PHOENIX7010
1002
{
1070
    62
1070
     5
1070
    41
1040
1.0
1002
}
  0
TEXT
  5
EBC
102
{ACAD_REACTORS
330
EDF
102
}
330
1A
100
AcDbEntity
  8
0
  6
Continuous
 62
     1
100
AcDbText
 10
502.9999996997321
 20
42.74999981501366
 30
0.0
 40
2.0
  1
-
 41
1.5
100
AcDbText
1001
PHOENIX7010
1002
{
1070
    62
1070
     1
1070
    41
1040
1.0
1002
}
  0
TEXT
  5
EBD
102
{ACAD_REACTORS
330
EDF
102
}
330
1A
100
AcDbEntity
  8
0
  6
Continuous
 62
     1
100
AcDbText
 10
502.9999996997321
 20
40.24999981501366
 30
0.0
 40
2.0
  1
-
 41
1.5
100
AcDbText
1001
PHOENIX7010
1002
{
1070
    62
1070
     1
1070
    41
1040
1.0
1002
}
  0
TEXT
  5
EBE
102
{ACAD_REACTORS
330
EDF
102
}
330
1A
100
AcDbEntity
  8
0
  6
Continuous
 62
     1
100
AcDbText
 10
502.9999996997321
 20
45.24999981501366
 30
0.0
 40
2.0
  1
-
 41
1.5
100
AcDbText
1001
PHOENIX7010
1002
{
1070
    62
1070
     1
1070
    41
1040
1.0
1002
}
  0
TEXT
  5
EBF
102
{ACAD_REACTORS
330
EDF
102
}
330
1A
100
AcDbEntity
  8
0
  6
Continuous
 62
     1
100
AcDbText
 10
489.9999996997324
 20
42.74999981501366
 30
0.0
 40
2.0
  1
-
 41
1.5
100
AcDbText
1001
PHOENIX7010
1002
{
1070
    62
1070
     1
1070
    41
1040
1.0
1002
}
  0
TEXT
  5
EC0
102
{ACAD_REACTORS
330
EDF
102
}
330
1A
100
AcDbEntity
  8
0
  6
Continuous
 62
     1
100
AcDbText
 10
489.9999996997324
 20
40.24999981501366
 30
0.0
 40
2.0
  1
-
 41
1.5
100
AcDbText
1001
PHOENIX7010
1002
{
1070
    62
1070
     1
1070
    41
1040
1.0
1002
}
  0
TEXT
  5
EC1
102
{ACAD_REACTORS
330
EDF
102
}
330
1A
100
AcDbEntity
  8
0
  6
Continuous
 62
     1
100
AcDbText
 10
489.9999996997324
 20
45.24999981501366
 30
0.0
 40
2.0
  1
-
 41
1.5
100
AcDbText
1001
PHOENIX7010
1002
{
1070
    62
1070
     1
1070
    41
1040
1.0
1002
}
  0
ARC
  5
EC2
102
{ACAD_REACTORS
330
EDF
102
}
330
1A
100
AcDbEntity
  8
0
  6
Continuous
 62
     5
100
AcDbCircle
 10
491.4999999999998
 20
45.50000000000022
 30
0.0
 40
2.5
100
AcDbArc
 50
90.0
 51
180.0
1001
PHOENIX7010
1002
{
1070
    62
1070
     5
1070
    41
1040
1.0
1002
}
  0
ARC
  5
EC3
102
{ACAD_REACTORS
330
EDF
102
}
330
1A
100
AcDbEntity
  8
0
  6
Continuous
 62
     5
100
AcDbCircle
 10
491.4999999999998
 20
76.00000000000022
 30
0.0
 40
2.5
100
AcDbArc
 50
90.0
 51
180.0
1001
PHOENIX7010
1002
{
1070
    62
1070
     5
1070
    41
1040
1.0
1002
}
  0
TEXT
  5
EC4
102
{ACAD_REACTORS
330
EDF
102
}
330
1A
100
AcDbEntity
  8
0
  6
Continuous
 62
     1
100
AcDbText
 10
502.9999996997321
 20
25.24999981501367
 30
0.0
 40
2.0
  1
-
 41
1.5
100
AcDbText
1001
PHOENIX7010
1002
{
1070
    62
1070
     1
1070
    41
1040
1.0
1002
}
  0
TEXT
  5
EC5
102
{ACAD_REACTORS
330
EDF
102
}
330
1A
100
AcDbEntity
  8
0
  6
Continuous
 62
     1
100
AcDbText
 10
502.9999996997321
 20
22.74999981501367
 30
0.0
 40
2.0
  1
07.03.2014
 41
1.5
100
AcDbText
1001
PHOENIX7010
1002
{
1070
    62
1070
     1
1070
    41
1040
1.0
1002
}
  0
TEXT
  5
EC6
102
{ACAD_REACTORS
330
EDF
102
}
330
1A
100
AcDbEntity
  8
0
  6
Continuous
 62
     1
100
AcDbText
 10
502.9999996997321
 20
30.24999981501367
 30
0.0
 40
2.0
  1
-
 41
1.5
100
AcDbText
1001
PHOENIX7010
1002
{
1070
    62
1070
     1
1070
    41
1040
1.0
1002
}
  0
TEXT
  5
EC7
102
{ACAD_REACTORS
330
EDF
102
}
330
1A
100
AcDbEntity
  8
0
  6
Continuous
 62
     1
100
AcDbText
 10
502.9999996997321
 20
27.74999981501367
 30
0.0
 40
2.0
  1
-
 41
1.5
100
AcDbText
1001
PHOENIX7010
1002
{
1070
    62
1070
     1
1070
    41
1040
1.0
1002
}
  0
TEXT
  5
EC8
102
{ACAD_REACTORS
330
EDF
102
}
330
1A
100
AcDbEntity
  8
0
  6
Continuous
 62
     1
100
AcDbText
 10
502.9999996997321
 20
32.74999981501367
 30
0.0
 40
2.0
  1
-
 41
1.5
100
AcDbText
1001
PHOENIX7010
1002
{
1070
    62
1070
     1
1070
    41
1040
1.0
1002
}
  0
TEXT
  5
EC9
102
{ACAD_REACTORS
330
EDF
102
}
330
1A
100
AcDbEntity
  8
0
  6
Continuous
 62
     1
100
AcDbText
 10
502.9999996997321
 20
35.24999981501367
 30
0.0
 40
2.0
  1
-
 41
1.5
100
AcDbText
1001
PHOENIX7010
1002
{
1070
    62
1070
     1
1070
    41
1040
1.0
1002
}
  0
TEXT
  5
ECA
102
{ACAD_REACTORS
330
EDF
102
}
330
1A
100
AcDbEntity
  8
0
  6
Continuous
 62
     1
100
AcDbText
 10
502.9999996997321
 20
37.74999981501367
 30
0.0
 40
2.0
  1
-
 41
1.5
100
AcDbText
1001
PHOENIX7010
1002
{
1070
    62
1070
     1
1070
    41
1040
1.0
1002
}
  0
TEXT
  5
ECB
102
{ACAD_REACTORS
330
EDF
102
}
330
1A
100
AcDbEntity
  8
0
  6
Continuous
 62
     1
100
AcDbText
 10
489.9999996997324
 20
25.24999981501367
 30
0.0
 40
2.0
  1
-
 41
1.5
100
AcDbText
1001
PHOENIX7010
1002
{
1070
    62
1070
     1
1070
    41
1040
1.0
1002
}
  0
TEXT
  5
ECC
102
{ACAD_REACTORS
330
EDF
102
}
330
1A
100
AcDbEntity
  8
0
  6
Continuous
 62
     1
100
AcDbText
 10
489.9999996997324
 20
22.74999981501367
 30
0.0
 40
2.0
  1
4086
 41
1.5
100
AcDbText
1001
PHOENIX7010
1002
{
1070
    62
1070
     1
1070
    41
1040
1.0
1002
}
  0
TEXT
  5
ECD
102
{ACAD_REACTORS
330
EDF
102
}
330
1A
100
AcDbEntity
  8
0
  6
Continuous
 62
     1
100
AcDbText
 10
489.9999996997324
 20
30.24999981501367
 30
0.0
 40
2.0
  1
-
 41
1.5
100
AcDbText
1001
PHOENIX7010
1002
{
1070
    62
1070
     1
1070
    41
1040
1.0
1002
}
  0
TEXT
  5
ECE
102
{ACAD_REACTORS
330
EDF
102
}
330
1A
100
AcDbEntity
  8
0
  6
Continuous
 62
     1
100
AcDbText
 10
489.9999996997324
 20
27.74999981501367
 30
0.0
 40
2.0
  1
-
 41
1.5
100
AcDbText
1001
PHOENIX7010
1002
{
1070
    62
1070
     1
1070
    41
1040
1.0
1002
}
  0
TEXT
  5
ECF
102
{ACAD_REACTORS
330
EDF
102
}
330
1A
100
AcDbEntity
  8
0
  6
Continuous
 62
     1
100
AcDbText
 10
489.9999996997324
 20
32.74999981501367
 30
0.0
 40
2.0
  1
-
 41
1.5
100
AcDbText
1001
PHOENIX7010
1002
{
1070
    62
1070
     1
1070
    41
1040
1.0
1002
}
  0
TEXT
  5
ED0
102
{ACAD_REACTORS
330
EDF
102
}
330
1A
100
AcDbEntity
  8
0
  6
Continuous
 62
     1
100
AcDbText
 10
489.9999996997324
 20
35.24999981501367
 30
0.0
 40
2.0
  1
-
 41
1.5
100
AcDbText
1001
PHOENIX7010
1002
{
1070
    62
1070
     1
1070
    41
1040
1.0
1002
}
  0
TEXT
  5
ED1
102
{ACAD_REACTORS
330
EDF
102
}
330
1A
100
AcDbEntity
  8
0
  6
Continuous
 62
     1
100
AcDbText
 10
489.9999996997324
 20
37.74999981501367
 30
0.0
 40
2.0
  1
-
 41
1.5
100
AcDbText
1001
PHOENIX7010
1002
{
1070
    62
1070
     1
1070
    41
1040
1.0
1002
}
  0
LINE
  5
ED2
102
{ACAD_REACTORS
330
EDF
102
}
330
1A
100
AcDbEntity
  8
0
  6
Continuous
 62
     1
100
AcDbLine
 10
502.0
 20
48.00000000000022
 30
0.0
 11
502.0
 21
14.50000000000023
 31
0.0
1001
PHOENIX7010
1002
{
1070
    62
1070
     1
1070
    41
1040
1.0
1002
}
  0
LINE
  5
ED3
102
{ACAD_REACTORS
330
EDF
102
}
330
1A
100
AcDbEntity
  8
0
  6
Continuous
 62
     1
100
AcDbLine
 10
488.9999999999997
 20
21.50000000000023
 30
0.0
 11
524.0
 21
21.50000000000023
 31
0.0
1001
PHOENIX7010
1002
{
1070
    62
1070
     1
1070
    41
1040
1.0
1002
}
  0
LINE
  5
ED4
102
{ACAD_REACTORS
330
EDF
102
}
330
1A
100
AcDbEntity
  8
0
  6
Continuous
 62
     5
100
AcDbLine
 10
589.0
 20
78.50000000000022
 30
0.0
 11
491.4999999999998
 21
78.50000000000022
 31
0.0
1001
PHOENIX7010
1002
{
1070
    62
1070
     5
1070
    41
1040
1.0
1002
}
  0
LINE
  5
ED5
102
{ACAD_REACTORS
330
EDF
102
}
330
1A
100
AcDbEntity
  8
0
  6
Continuous
 62
     5
100
AcDbLine
 10
589.0
 20
48.00000000000022
 30
0.0
 11
491.4999999999998
 21
48.00000000000022
 31
0.0
1001
PHOENIX7010
1002
{
1070
    62
1070
     5
1070
    41
1040
1.0
1002
}
  0
LINE
  5
ED6
102
{ACAD_REACTORS
330
EDF
102
}
330
1A
100
AcDbEntity
  8
0
  6
Continuous
 62
     5
100
AcDbLine
 10
488.9999999999997
 20
100.0000000000001
 30
0.0
 11
488.9999999999997
 21
5.000000000000227
 31
0.0
1001
PHOENIX7010
1002
{
1070
    62
1070
     5
1070
    41
1040
1.0
1002
}
  0
INSERT
  5
ED7
102
{ACAD_REACTORS
330
EDF
102
}
330
1A
100
AcDbEntity
  8
0
  6
Continuous
 62
     5
370
    35
100
AcDbBlockReference
  2
PH_GRPBLK
 10
488.9999999999997
 20
14.50000000000023
 30
0.0
1001
PHOENIX7010
1002
{
1070
    41
1040
1.0
1002
}
  0
LWPOLYLINE
  5
ED8
102
{ACAD_REACTORS
330
E95
102
}
330
1A
100
AcDbEntity
  8
0
  6
Continuous
 62
     7
 60
     1
370
    50
100
AcDbPolyline
 90
        5
 70
     1
 43
0.0
 10
581.4334749940253
 20
35.16453811398049
 10
574.7334749940255
 20
27.36453811398042
 10
586.7334749940255
 20
27.36453811398042
 10
586.7334749940255
 20
35.16453811398037
 10
581.4334749940253
 20
28.26453811398051
1001
PHOENIX7010
1002
{
1070
    41
1040
1.0
1002
}
  0
LWPOLYLINE
  5
ED9
102
{ACAD_REACTORS
330
E96
102
}
330
1A
100
AcDbEntity
  8
0
  6
Continuous
 62
     7
 60
     1
370
    50
100
AcDbPolyline
 90
        3
 70
     1
 43
0.0
 10
573.8834749940256
 20
27.36453811398042
 10
573.8834749940256
 20
31.51453811398039
 10
578.0334749940257
 20
31.51453811398039
 42
2.414213562373094
1001
PHOENIX7010
1002
{
1070
    41
1040
1.0
1002
}
  0
PDFUNDERLAY
  5
11A8
330
1A
100
AcDbEntity
  8
0
  6
ACAD_ISO05W100
 62
     1
 92
        8
310
0800000000000000
100
AcDbUnderlayReference
340
11A7
 10
401.2966254476595
 20
224.6599826988659
 30
0.0
 41
15.0
 42
15.0
 43
15.0
281
   100
282
     0
  0
ENDSEC
  0
SECTION
  2
OBJECTS
  0
DICTIONARY
  5
C
330
0
100
AcDbDictionary
281
     1
  3
ACAD_COLOR
350
D01
  3
ACAD_GROUP
350
D
  3
ACAD_LAYOUT
350
D28
  3
ACAD_MATERIAL
350
CD4
  3
ACAD_MLEADERSTYLE
350
D26
  3
ACAD_MLINESTYLE
350
E
  3
ACAD_PDFDEFINITIONS
350
EF0
  3
ACAD_PLOTSETTINGS
350
D29
  3
ACAD_PLOTSTYLENAME
350
CD2
  3
ACAD_SCALELIST
350
D04
  3
ACAD_TABLESTYLE
350
D02
  3
ACAD_VISUALSTYLE
350
CED
  3
ACASAPPOBJECT
350
D4
  3
ACASGREF_MASTER
350
84
  3
ACCELVIEW
350
DA
  3
ACDB_RECOMPOSE_DATA
350
1452
  3
AcDbVariableDictionary
350
FCB
  3
ACDMSYSVARMGR
350
A0
  3
ACGREF_MASTER
350
82
  3
ACME_COMMAND_HISTORY
350
80
  3
ACME_SCOPE_NAME
350
7F
  3
AD_APPL
350
93
  3
AD_DRAWMGR_NAME
350
B4
  3
AD_GREF_MODULE
350
9B
  3
AD_HOLENOTE_REPOSITORY
350
9A
  3
ADSYSVARMGR
350
89
  3
AMI_MASTER
350
83
  3
ASE_INDEX_DICTIONARY
350
1258
  3
AUTOCAD_ASSEMBLIES_PROJECT
350
C0
  3
DESIGNER_ASSEMBLIES_SYSVARS
350
BB
  3
DWGPROPS
350
1453
  3
PH_OBJREACTOR_DICT
350
3C
  3
PH_ROOTGROUP_DICT
350
3B
  3
PH_VARS
350
31
  0
DICTIONARY
  5
F92
330
8
100
AcDbDictionary
280
     1
281
     1
  0
DICTIONARY
  5
E93
330
2
100
AcDbDictionary
280
     1
281
     1
  3
ACAD_LAYERSTATES
360
E94
  0
DICTIONARY
  5
D8B
330
F
100
AcDbDictionary
280
     1
281
     1
  3
ADSK_XREC_LAYER_RECONCILED
360
D8C
  0
DICTIONARY
  5
D8D
330
44
100
AcDbDictionary
280
     1
281
     1
  3
ADSK_XREC_LAYER_RECONCILED
360
D8E
  0
DICTIONARY
  5
D8F
330
48
100
AcDbDictionary
280
     1
281
     1
  3
ADSK_XREC_LAYER_RECONCILED
360
D90
  0
DICTIONARY
  5
D91
330
4A
100
AcDbDictionary
280
     1
281
     1
  3
ADSK_XREC_LAYER_RECONCILED
360
D92
  0
DICTIONARY
  5
D93
330
B6
100
AcDbDictionary
280
     1
281
     1
  3
ADSK_XREC_LAYER_RECONCILED
360
D94
  0
DICTIONARY
  5
D95
330
B7
100
AcDbDictionary
280
     1
281
     1
  3
ADSK_XREC_LAYER_RECONCILED
360
D96
  0
DICTIONARY
  5
D97
330
B8
100
AcDbDictionary
280
     1
281
     1
  3
ADSK_XREC_LAYER_RECONCILED
360
D98
  0
DICTIONARY
  5
D99
330
B9
100
AcDbDictionary
280
     1
281
     1
  3
ADSK_XREC_LAYER_RECONCILED
360
D9A
  0
DICTIONARY
  5
D9B
330
BA
100
AcDbDictionary
280
     1
281
     1
  3
ADSK_XREC_LAYER_RECONCILED
360
D9C
  0
DICTIONARY
  5
D9D
330
CB
100
AcDbDictionary
280
     1
281
     1
  3
ADSK_XREC_LAYER_RECONCILED
360
D9E
  0
DICTIONARY
  5
D9F
330
CC
100
AcDbDictionary
280
     1
281
     1
  3
ADSK_XREC_LAYER_RECONCILED
360
DA0
  0
DICTIONARY
  5
DA1
330
CD
100
AcDbDictionary
280
     1
281
     1
  3
ADSK_XREC_LAYER_RECONCILED
360
DA2
  0
DICTIONARY
  5
DA3
330
688
100
AcDbDictionary
280
     1
281
     1
  3
ADSK_XREC_LAYER_RECONCILED
360
DA4
  0
DICTIONARY
  5
DA5
330
74B
100
AcDbDictionary
280
     1
281
     1
  3
ADSK_XREC_LAYER_RECONCILED
360
DA6
  0
DICTIONARY
  5
DA7
330
765
100
AcDbDictionary
280
     1
281
     1
  3
ADSK_XREC_LAYER_RECONCILED
360
DA8
  0
DICTIONARY
  5
1450
330
E9E
100
AcDbDictionary
280
     1
281
     1
  3
ACAD_MTEXT_2008_RT
360
1451
  0
DICTIONARY
  5
D01
102
{ACAD_REACTORS
330
C
102
}
330
C
100
AcDbDictionary
281
     1
  0
DICTIONARY
  5
D
102
{ACAD_REACTORS
330
C
102
}
330
C
100
AcDbDictionary
281
     1
  3
*A1
350
B7D
  3
PH_BOUNDARYLIST
350
3D
  0
DICTIONARY
  5
D28
102
{ACAD_REACTORS
330
C
102
}
330
C
100
AcDbDictionary
281
     1
  3
Layout1
350
D2B
  3
Model
350
D2A
  0
DICTIONARY
  5
CD4
102
{ACAD_REACTORS
330
C
102
}
330
C
100
AcDbDictionary
281
     1
  3
ByBlock
350
CDD
  3
ByLayer
350
CD5
  3
Global
350
CE5
  0
DICTIONARY
  5
D26
102
{ACAD_REACTORS
330
C
102
}
330
C
100
AcDbDictionary
281
     1
  3
Standard
350
D27
  0
DICTIONARY
  5
E
102
{ACAD_REACTORS
330
C
102
}
330
C
100
AcDbDictionary
281
     1
  3
STANDARD
350
13
  0
DICTIONARY
  5
EF0
102
{ACAD_REACTORS
330
C
102
}
330
C
100
AcDbDictionary
281
     1
  3
2900491-EPS-IZ-Ergänzugsprofilsatz - 1
350
EF2
  3
2900491_IZEPS-Ergänzugsprofilsatz - 1
350
11A7
  0
DICTIONARY
  5
D29
102
{ACAD_REACTORS
330
C
102
}
330
C
100
AcDbDictionary
281
     1
  0
ACDBDICTIONARYWDFLT
  5
CD2
102
{ACAD_REACTORS
330
C
102
}
330
C
100
AcDbDictionary
281
     1
  3
Normal
350
CD3
100
AcDbDictionaryWithDefault
340
CD3
  0
DICTIONARY
  5
D04
102
{ACAD_REACTORS
330
C
102
}
330
C
100
AcDbDictionary
281
     1
  3
A0
350
D05
  3
A1
350
D06
  3
A2
350
D07
  3
A3
350
D08
  3
A4
350
D09
  3
A5
350
D0A
  3
A6
350
D0B
  3
A7
350
D0C
  3
A8
350
D0D
  3
A9
350
D0E
  3
B0
350
D0F
  3
B1
350
D10
  3
B2
350
D11
  3
B3
350
D12
  3
B4
350
D13
  3
B5
350
D14
  3
B6
350
D15
  3
B7
350
D16
  3
B8
350
D17
  3
B9
350
D18
  3
C0
350
D19
  3
C1
350
D1A
  3
C2
350
D1B
  3
C3
350
D1C
  3
C4
350
D1D
  3
C5
350
D1E
  3
C6
350
D1F
  3
C7
350
D20
  3
C8
350
D21
  3
C9
350
D22
  3
D0
350
D23
  3
D1
350
D24
  3
D2
350
D25
  0
DICTIONARY
  5
D02
102
{ACAD_REACTORS
330
C
102
}
330
C
100
AcDbDictionary
281
     1
  3
Standard
350
D03
  0
DICTIONARY
  5
CED
102
{ACAD_REACTORS
330
C
102
}
330
C
100
AcDbDictionary
281
     1
  3
2dWireframe
350
CF3
  3
3D Hidden
350
CF5
  3
3dWireframe
350
CF4
  3
Basic
350
CF2
  3
Brighten
350
CF9
  3
ColorChange
350
CFD
  3
Conceptual
350
CF6
  3
Dim
350
CF8
  3
EdgeColorOff
350
D00
  3
Facepattern
350
CFC
  3
Flat
350
CEE
  3
FlatWithEdges
350
CEF
  3
Gouraud
350
CF0
  3
GouraudWithEdges
350
CF1
  3
JitterOff
350
CFE
  3
Linepattern
350
CFB
  3
OverhangOff
350
CFF
  3
Realistic
350
CF7
  3
Thicken
350
CFA
  0
ACAD_PROXY_OBJECT
  5
D4
102
{ACAD_REACTORS
330
C
102
}
330
C
100
AcDbProxyObject
 90
      499
 91
      540
 95
   393235
 70
     0
 93
        2
310
BF
360
D2
 94
        0
1001
ACAD
1000
AcRTDxfName
1000
ASAPP
1000
AcRTDxfName
1000
ASAPP
1000
AcRTDxfName
1000
ASAPP
1000
AcRTDxfName
1000
ASAPP
1000
AcRTDxfName
1000
ASAPP
1000
AcRTDxfName
1000
ASAPP
1000
AcRTDxfName
1000
ASAPP
1000
AcRTDxfName
1000
ASAPP
  0
ACAD_PROXY_OBJECT
  5
84
102
{ACAD_REACTORS
330
C
102
}
330
C
100
AcDbProxyObject
 90
      499
 91
      506
 95
   393235
 70
     0
 93
       34
310
010000407F
 94
        0
1001
ACAD
1000
AcRTDxfName
1000
ACASGREFMASTER
1000
AcRTDxfName
1000
ACASGREFMASTER
1000
AcRTDxfName
1000
ACASGREFMASTER
1000
AcRTDxfName
1000
ACASGREFMASTER
1000
AcRTDxfName
1000
ACASGREFMASTER
1000
AcRTDxfName
1000
ACASGREFMASTER
1000
AcRTDxfName
1000
ACASGREFMASTER
1000
AcRTDxfName
1000
ACASGREFMASTER
  0
ACAD_PROXY_OBJECT
  5
DA
102
{ACAD_REACTORS
330
C
102
}
330
C
100
AcDbProxyObject
 90
      499
 91
      541
 95
   393235
 70
     0
 93
       12
310
901F
330
0
 94
        0
1001
ACAD
1000
AcRTDxfName
1000
AGDICTIONARY
1000
AcRTDxfName
1000
AGDICTIONARY
1000
AcRTDxfName
1000
AGDICTIONARY
1000
AcRTDxfName
1000
AGDICTIONARY
1000
AcRTDxfName
1000
AGDICTIONARY
1000
AcRTDxfName
1000
AGDICTIONARY
1000
AcRTDxfName
1000
AGDICTIONARY
1000
AcRTDxfName
1000
AGDICTIONARY
  0
XRECORD
  5
1452
102
{ACAD_REACTORS
330
C
102
}
330
C
100
AcDbXrecord
280
     1
 90
        1
330
D03
330
E9E
  0
DICTIONARY
  5
FCB
102
{ACAD_REACTORS
330
C
102
}
330
C
100
AcDbDictionary
281
     1
  3
CANNOSCALE
350
FCE
  3
CMLEADERSTYLE
350
FCD
  3
CTABLESTYLE
350
FCC
  3
DIMASSOC
350
FD1
  3
INDEXCTL
350
FD0
  3
SORTENTS
350
FCF
  3
XCLIPFRAME
350
144E
  0
ACAD_PROXY_OBJECT
  5
A0
102
{ACAD_REACTORS
330
C
102
}
330
C
100
AcDbProxyObject
 90
      499
 91
      511
 95
   393235
 70
     0
 93
      184
310
4C5124810100000000000000000000000000000000000000
330
A1
330
A2
330
A3
330
A4
330
A5
330
A6
330
A7
330
A9
330
AA
330
AB
330
AC
330
AD
330
AE
330
AF
330
B0
330
B1
330
B2
330
B3
 94
        0
1001
ACAD
1000
AcRTDxfName
1000
"IM_SYSVAR_MAN"
1000
AcRTDxfName
1000
"IM_SYSVAR_MAN"
1000
AcRTDxfName
1000
"IM_SYSVAR_MAN"
1000
AcRTDxfName
1000
"IM_SYSVAR_MAN"
1000
AcRTDxfName
1000
"IM_SYSVAR_MAN"
1000
AcRTDxfName
1000
"IM_SYSVAR_MAN"
1000
AcRTDxfName
1000
"IM_SYSVAR_MAN"
1000
AcRTDxfName
1000
"IM_SYSVAR_MAN"
  0
ACAD_PROXY_OBJECT
  5
82
102
{ACAD_REACTORS
330
C
102
}
330
C
100
AcDbProxyObject
 90
      499
 91
      504
 95
   393235
 70
     0
 93
      114
310
01010041000000000000000000003F
 94
        0
1001
ACAD
1000
AcRTDxfName
1000
ACGREFMASTER
1000
AcRTDxfName
1000
ACGREFMASTER
1000
AcRTDxfName
1000
ACGREFMASTER
1000
AcRTDxfName
1000
ACGREFMASTER
1000
AcRTDxfName
1000
ACGREFMASTER
1000
AcRTDxfName
1000
ACGREFMASTER
1000
AcRTDxfName
1000
ACGREFMASTER
1000
AcRTDxfName
1000
ACGREFMASTER
  0
ACAD_PROXY_OBJECT
  5
80
102
{ACAD_REACTORS
330
C
102
}
330
C
100
AcDbProxyObject
 90
      499
 91
      502
 95
   393235
 70
     0
 93
     1726
310
4280508554E444546494E4580508554E444546494E458050C41445F434F4E56455254523140805084E202D20554E444F014213880B4815539113C050C414D4C54595045434845434B41405084E202D20554E444F014313880B481312539155165411405094E202D204C41594552014313880B481312539155165411405084E
310
202D20554E444F01431053531516541150D21150D2D03014213880B4815539113C05094E202D204C41594552014213880B4815539113C0504554E444F80504554E444F80504554E444F80504554E444F80506534156454153B
 94
        0
1001
ACAD
1000
AcRTDxfName
1000
ACMECOMMANDHISTORY
1000
AcRTDxfName
1000
ACMECOMMANDHISTORY
1000
AcRTDxfName
1000
ACMECOMMANDHISTORY
1000
AcRTDxfName
1000
ACMECOMMANDHISTORY
1000
AcRTDxfName
1000
ACMECOMMANDHISTORY
1000
AcRTDxfName
1000
ACMECOMMANDHISTORY
1000
AcRTDxfName
1000
ACMECOMMANDHISTORY
1000
AcRTDxfName
1000
ACMECOMMANDHISTORY
  0
ACAD_PROXY_OBJECT
  5
7F
102
{ACAD_REACTORS
330
C
102
}
330
C
100
AcDbProxyObject
 90
      499
 91
      501
 95
   393235
 70
     0
 93
      464
310
0101004093200000000000000000000000000000000000000000000000000000000000000000000000000000000000000000000000000009010000
360
85
360
86
360
87
360
88
360
8A
360
8B
360
8C
360
8D
360
8E
360
8F
360
90
360
91
360
92
360
95
360
96
360
97
360
98
360
99
360
9C
360
9D
360
9E
360
9F
360
A1
360
A2
360
A3
360
A4
360
A5
360
A6
360
A7
360
A9
360
AA
360
AB
360
AC
360
AD
360
AE
360
AF
360
B0
360
B1
360
B2
360
B3
360
BC
360
BD
360
BE
360
BF
360
C6
360
C7
360
C8
360
C9
360
CA
360
CE
330
0
 94
        0
1001
ACAD
1000
AcRTDxfName
1000
ACMESCOPE
1000
AcRTDxfName
1000
ACMESCOPE
1000
AcRTDxfName
1000
ACMESCOPE
1000
AcRTDxfName
1000
ACMESCOPE
1000
AcRTDxfName
1000
ACMESCOPE
1000
AcRTDxfName
1000
ACMESCOPE
1000
AcRTDxfName
1000
ACMESCOPE
1000
AcRTDxfName
1000
ACMESCOPE
  0
ACAD_PROXY_OBJECT
  5
93
102
{ACAD_REACTORS
330
C
102
}
330
C
100
AcDbProxyObject
 90
      499
 91
      515
 95
   393235
 70
     0
 93
       42
310
00010200453F
330
85
 94
        0
1001
ACAD
1000
AcRTDxfName
1000
NAMEDAPPL
1000
AcRTDxfName
1000
NAMEDAPPL
1000
AcRTDxfName
1000
NAMEDAPPL
1000
AcRTDxfName
1000
NAMEDAPPL
1000
AcRTDxfName
1000
NAMEDAPPL
1000
AcRTDxfName
1000
NAMEDAPPL
1000
AcRTDxfName
1000
NAMEDAPPL
1000
AcRTDxfName
1000
NAMEDAPPL
  0
ACAD_PROXY_OBJECT
  5
B4
102
{ACAD_REACTORS
330
C
102
}
330
C
100
AcDbProxyObject
 90
      499
 91
      527
 95
   393235
 70
     0
 93
       42
310
00010000453F
330
9C
 94
        0
1001
ACAD
1000
AcRTDxfName
1000
AM_DWGMGR_NAME
1000
AcRTDxfName
1000
AM_DWGMGR_NAME
1000
AcRTDxfName
1000
AM_DWGMGR_NAME
1000
AcRTDxfName
1000
AM_DWGMGR_NAME
1000
AcRTDxfName
1000
AM_DWGMGR_NAME
1000
AcRTDxfName
1000
AM_DWGMGR_NAME
1000
AcRTDxfName
1000
AM_DWGMGR_NAME
1000
AcRTDxfName
1000
AM_DWGMGR_NAME
  0
ACAD_PROXY_OBJECT
  5
9B
102
{ACAD_REACTORS
330
C
102
}
330
C
100
AcDbProxyObject
 90
      499
 91
      522
 95
   393235
 70
     0
 93
      114
310
00000042800000000000000000003F
 94
        0
1001
ACAD
1000
AcRTDxfName
1000
AcAdGrefModule
1000
AcRTDxfName
1000
AcAdGrefModule
1000
AcRTDxfName
1000
AcAdGrefModule
1000
AcRTDxfName
1000
AcAdGrefModule
1000
AcRTDxfName
1000
AcAdGrefModule
1000
AcRTDxfName
1000
AcAdGrefModule
1000
AcRTDxfName
1000
AcAdGrefModule
1000
AcRTDxfName
1000
AcAdGrefModule
  0
ACAD_PROXY_OBJECT
  5
9A
102
{ACAD_REACTORS
330
C
102
}
330
C
100
AcDbProxyObject
 90
      499
 91
      521
 95
   393235
 70
     0
 93
        8
310
0000
330
99
 94
        0
1001
ACAD
1000
AcRTDxfName
1000
AM_HNTEMPLATE_MGR_NAME
1000
AcRTDxfName
1000
AM_HNTEMPLATE_MGR_NAME
1000
AcRTDxfName
1000
AM_HNTEMPLATE_MGR_NAME
1000
AcRTDxfName
1000
AM_HNTEMPLATE_MGR_NAME
1000
AcRTDxfName
1000
AM_HNTEMPLATE_MGR_NAME
1000
AcRTDxfName
1000
AM_HNTEMPLATE_MGR_NAME
1000
AcRTDxfName
1000
AM_HNTEMPLATE_MGR_NAME
1000
AcRTDxfName
1000
AM_HNTEMPLATE_MGR_NAME
  0
ACAD_PROXY_OBJECT
  5
89
102
{ACAD_REACTORS
330
C
102
}
330
C
100
AcDbProxyObject
 90
      499
 91
      511
 95
   393235
 70
     0
 93
      104
310
9094410100000000000000000000
330
8A
330
8B
330
8C
330
8D
330
8E
330
8F
330
90
330
91
330
92
 94
        0
1001
ACAD
1000
AcRTDxfName
1000
"IM_SYSVAR_MAN"
1000
AcRTDxfName
1000
"IM_SYSVAR_MAN"
1000
AcRTDxfName
1000
"IM_SYSVAR_MAN"
1000
AcRTDxfName
1000
"IM_SYSVAR_MAN"
1000
AcRTDxfName
1000
"IM_SYSVAR_MAN"
1000
AcRTDxfName
1000
"IM_SYSVAR_MAN"
1000
AcRTDxfName
1000
"IM_SYSVAR_MAN"
1000
AcRTDxfName
1000
"IM_SYSVAR_MAN"
  0
ACAD_PROXY_OBJECT
  5
83
102
{ACAD_REACTORS
330
C
102
}
330
C
100
AcDbProxyObject
 90
      499
 91
      505
 95
   393235
 70
     0
 93
       34
310
010000407F
 94
        0
1001
ACAD
1000
AcRTDxfName
1000
AmiMaster
1000
AcRTDxfName
1000
AmiMaster
1000
AcRTDxfName
1000
AmiMaster
1000
AcRTDxfName
1000
AmiMaster
1000
AcRTDxfName
1000
AmiMaster
1000
AcRTDxfName
1000
AmiMaster
1000
AcRTDxfName
1000
AmiMaster
1000
AcRTDxfName
1000
AmiMaster
  0
DICTIONARY
  5
1258
102
{ACAD_REACTORS
330
C
102
}
330
C
100
AcDbDictionary
281
     1
  3
ASEBlockHierarchyIndexRecord
350
125A
1001
DCO15
1040
1810974113.856
  0
ACAD_PROXY_OBJECT
  5
C0
102
{ACAD_REACTORS
330
C
102
}
330
C
100
AcDbProxyObject
 90
      499
 91
      528
 95
   393235
 70
     0
 93
       58
310
010200420000003F
330
C8
330
CE
330
C9
 94
        0
1001
ACAD
1000
AcRTDxfName
1000
ACAMPROJECT
1000
AcRTDxfName
1000
ACAMPROJECT
1000
AcRTDxfName
1000
ACAMPROJECT
1000
AcRTDxfName
1000
ACAMPROJECT
1000
AcRTDxfName
1000
ACAMPROJECT
1000
AcRTDxfName
1000
ACAMPROJECT
1000
AcRTDxfName
1000
ACAMPROJECT
1000
AcRTDxfName
1000
ACAMPROJECT
  0
ACAD_PROXY_OBJECT
  5
BB
102
{ACAD_REACTORS
330
C
102
}
330
C
100
AcDbProxyObject
 90
      499
 91
      511
 95
   393235
 70
     0
 93
       64
310
904441010000000022
330
BC
330
BD
330
BE
330
BF
 94
        0
1001
ACAD
1000
AcRTDxfName
1000
"IM_SYSVAR_MAN"
1000
AcRTDxfName
1000
"IM_SYSVAR_MAN"
1000
AcRTDxfName
1000
"IM_SYSVAR_MAN"
1000
AcRTDxfName
1000
"IM_SYSVAR_MAN"
1000
AcRTDxfName
1000
"IM_SYSVAR_MAN"
1000
AcRTDxfName
1000
"IM_SYSVAR_MAN"
1000
AcRTDxfName
1000
"IM_SYSVAR_MAN"
1000
AcRTDxfName
1000
"IM_SYSVAR_MAN"
  0
XRECORD
  5
1453
102
{ACAD_REACTORS
330
C
102
}
330
C
100
AcDbXrecord
280
     1
  1
DWGPROPS COOKIE
  2

  3

  4

  6

  7

  8
nowak
  9

300
=
301
=
302
=
303
=
304
=
305
=
306
=
307
=
308
=
309
=
 40
0.0759397106481482
 41
2450973.59696809
 42
2456783.448045521
  1

 90
        0
  0
DICTIONARY
  5
3C
102
{ACAD_REACTORS
330
C
102
}
330
C
100
AcDbDictionary
281
     1
  0
DICTIONARY
  5
3B
102
{ACAD_REACTORS
330
C
102
}
330
C
100
AcDbDictionary
281
     1
  3
$PH$AAAF
350
6CC
  3
$PH$AAAN
350
714
  3
$PH$AAAO
350
745
  3
$PH$AAAP
350
754
  3
$PH$AAAQ
350
763
  3
$PH$AAAR
350
76E
  3
$PH$AAAS
350
778
  3
$PH$AAAT
350
783
  3
$PH$AABE
350
B71
  3
$PH$AABF
350
B79
  3
$PH$AABH2H
350
E0C
  3
$PH$AABICandP
350
EDA
  0
PH_VARS
  5
31
102
{ACAD_REACTORS
330
C
102
}
330
C
  0
DICTIONARY
  5
E94
102
{ACAD_REACTORS
330
E93
102
}
330
E93
100
AcDbDictionary
281
     1
  0
XRECORD
  5
D8C
102
{ACAD_REACTORS
330
D8B
102
}
330
D8B
100
AcDbXrecord
280
     1
290
     1
  0
XRECORD
  5
D8E
102
{ACAD_REACTORS
330
D8D
102
}
330
D8D
100
AcDbXrecord
280
     1
290
     1
  0
XRECORD
  5
D90
102
{ACAD_REACTORS
330
D8F
102
}
330
D8F
100
AcDbXrecord
280
     1
290
     1
  0
XRECORD
  5
D92
102
{ACAD_REACTORS
330
D91
102
}
330
D91
100
AcDbXrecord
280
     1
290
     1
  0
XRECORD
  5
D94
102
{ACAD_REACTORS
330
D93
102
}
330
D93
100
AcDbXrecord
280
     1
290
     1
  0
XRECORD
  5
D96
102
{ACAD_REACTORS
330
D95
102
}
330
D95
100
AcDbXrecord
280
     1
290
     1
  0
XRECORD
  5
D98
102
{ACAD_REACTORS
330
D97
102
}
330
D97
100
AcDbXrecord
280
     1
290
     1
  0
XRECORD
  5
D9A
102
{ACAD_REACTORS
330
D99
102
}
330
D99
100
AcDbXrecord
280
     1
290
     1
  0
XRECORD
  5
D9C
102
{ACAD_REACTORS
330
D9B
102
}
330
D9B
100
AcDbXrecord
280
     1
290
     1
  0
XRECORD
  5
D9E
102
{ACAD_REACTORS
330
D9D
102
}
330
D9D
100
AcDbXrecord
280
     1
290
     1
  0
XRECORD
  5
DA0
102
{ACAD_REACTORS
330
D9F
102
}
330
D9F
100
AcDbXrecord
280
     1
290
     1
  0
XRECORD
  5
DA2
102
{ACAD_REACTORS
330
DA1
102
}
330
DA1
100
AcDbXrecord
280
     1
290
     1
  0
XRECORD
  5
DA4
102
{ACAD_REACTORS
330
DA3
102
}
330
DA3
100
AcDbXrecord
280
     1
290
     1
  0
XRECORD
  5
DA6
102
{ACAD_REACTORS
330
DA5
102
}
330
DA5
100
AcDbXrecord
280
     1
290
     1
  0
XRECORD
  5
DA8
102
{ACAD_REACTORS
330
DA7
102
}
330
DA7
100
AcDbXrecord
280
     1
290
     1
  0
XRECORD
  5
1451
102
{ACAD_REACTORS
330
1450
102
}
330
1450
100
AcDbXrecord
280
     1
 40
46997.0
  1
\pxql;{\fArial|b1|i0|c0|p34;\W1.1;BOPLA}
  0
GROUP
  5
B7D
102
{ACAD_REACTORS
330
D
102
}
330
D
100
AcDbGroup
300

 70
     3
 71
     0
  0
GROUP
  5
3D
102
{ACAD_REACTORS
330
D
102
}
330
D
100
AcDbGroup
300

 70
     0
 71
     0
  0
LAYOUT
  5
D2B
102
{ACAD_XDICTIONARY
360
1480
102
}
102
{ACAD_REACTORS
330
D28
102
}
330
D28
100
AcDbPlotSettings
  1

  2
RICOH Aficio MP W2400 RPCS
  4

  6

 40
0.0
 41
0.0
 42
0.0
 43
0.0
 44
0.0
 45
0.0
 46
0.0
 47
0.0
 48
0.0
 49
0.0
140
0.0
141
0.0
142
1.0
143
1.0
 70
   688
 72
     0
 73
     0
 74
     5
  7
HP_Farbe_Dünn.ctb
 75
    16
147
1.0
148
0.0
149
0.0
100
AcDbLayout
  1
Layout1
 70
     1
 71
     1
 10
0.0
 20
0.0
 11
420.0
 21
297.0
 12
0.0
 22
0.0
 32
0.0
 14
1.000000000000000E+20
 24
1.000000000000000E+20
 34
1.000000000000000E+20
 15
-1.000000000000000E+20
 25
-1.000000000000000E+20
 35
-1.000000000000000E+20
146
0.0
 13
0.0
 23
0.0
 33
0.0
 16
1.0
 26
0.0
 36
0.0
 17
0.0
 27
1.0
 37
0.0
 76
     0
330
17
  0
LAYOUT
  5
D2A
102
{ACAD_XDICTIONARY
360
147E
102
}
102
{ACAD_REACTORS
330
D28
102
}
330
D28
100
AcDbPlotSettings
  1

  2
RICOH Aficio MP W2400 RPCS
  4
A4
  6

 40
5.027082920074462
 41
5.027099609375
 42
5.027069091796875
 43
5.027069091796875
 44
209.9733276367187
 45
296.9259948730469
 46
0.0
 47
0.0
 48
0.0
 49
0.0
140
0.0
141
0.0
142
1.0
143
78.58247648909025
 70
 11952
 72
     0
 73
     1
 74
     0
  7
HP_Farbe_Dünn.ctb
 75
     0
147
0.012725483398819
148
3727.732620202625
149
13.30321849626734
100
AcDbLayout
  1
Model
 70
     1
 71
     0
 10
0.0
 20
0.0
 11
12.0
 21
9.0
 12
0.0
 22
0.0
 32
0.0
 14
0.0
 24
0.0
 34
0.0
 15
0.0
 25
0.0
 35
0.0
146
0.0
 13
0.0
 23
0.0
 33
0.0
 16
1.0
 26
0.0
 36
0.0
 17
0.0
 27
1.0
 37
0.0
 76
     0
330
1A
331
CD0
1001
ACAD_PSEXT
1000
RICOH Aficio MP W2400 RPCS
1000
RICOH Aficio MP W2400 RPCS
1000
192.168.49.64
1000

1070
     0
  0
MATERIAL
  5
CDD
102
{ACAD_XDICTIONARY
360
CDE
102
}
102
{ACAD_REACTORS
330
CD4
102
}
330
CD4
100
AcDbMaterial
  1
ByBlock
 72
     0
 43
0.0208333333333333
 43
0.0
 43
0.0
 43
0.0
 43
0.0
 43
0.0208333333333333
 43
0.0
 43
0.0
 43
0.0
 43
0.0
 43
1.0
 43
0.0
 43
0.0
 43
0.0
 43
0.0
 43
1.0
 77
     0
 47
0.0208333333333333
 47
0.0
 47
0.0
 47
0.0
 47
0.0
 47
0.0208333333333333
 47
0.0
 47
0.0
 47
0.0
 47
0.0
 47
1.0
 47
0.0
 47
0.0
 47
0.0
 47
0.0
 47
1.0
171
     0
 49
0.0208333333333333
 49
0.0
 49
0.0
 49
0.0
 49
0.0
 49
0.0208333333333333
 49
0.0
 49
0.0
 49
0.0
 49
0.0
 49
1.0
 49
0.0
 49
0.0
 49
0.0
 49
0.0
 49
1.0
175
     0
142
0.0208333333333333
142
0.0
142
0.0
142
0.0
142
0.0
142
0.0208333333333333
142
0.0
142
0.0
142
0.0
142
0.0
142
1.0
142
0.0
142
0.0
142
0.0
142
0.0
142
1.0
179
     0
144
0.0208333333333333
144
0.0
144
0.0
144
0.0
144
0.0
144
0.0208333333333333
144
0.0
144
0.0
144
0.0
144
0.0
144
1.0
144
0.0
144
0.0
144
0.0
144
0.0
144
1.0
147
0.0208333333333333
147
0.0
147
0.0
147
0.0
147
0.0
147
0.0208333333333333
147
0.0
147
0.0
147
0.0
147
0.0
147
1.0
147
0.0
147
0.0
147
0.0
147
0.0
147
1.0
  0
MATERIAL
  5
CD5
102
{ACAD_XDICTIONARY
360
CD6
102
}
102
{ACAD_REACTORS
330
CD4
102
}
330
CD4
100
AcDbMaterial
  1
ByLayer
 72
     0
 43
0.0208333333333333
 43
0.0
 43
0.0
 43
0.0
 43
0.0
 43
0.0208333333333333
 43
0.0
 43
0.0
 43
0.0
 43
0.0
 43
1.0
 43
0.0
 43
0.0
 43
0.0
 43
0.0
 43
1.0
 77
     0
 47
0.0208333333333333
 47
0.0
 47
0.0
 47
0.0
 47
0.0
 47
0.0208333333333333
 47
0.0
 47
0.0
 47
0.0
 47
0.0
 47
1.0
 47
0.0
 47
0.0
 47
0.0
 47
0.0
 47
1.0
171
     0
 49
0.0208333333333333
 49
0.0
 49
0.0
 49
0.0
 49
0.0
 49
0.0208333333333333
 49
0.0
 49
0.0
 49
0.0
 49
0.0
 49
1.0
 49
0.0
 49
0.0
 49
0.0
 49
0.0
 49
1.0
175
     0
142
0.0208333333333333
142
0.0
142
0.0
142
0.0
142
0.0
142
0.0208333333333333
142
0.0
142
0.0
142
0.0
142
0.0
142
1.0
142
0.0
142
0.0
142
0.0
142
0.0
142
1.0
179
     0
144
0.0208333333333333
144
0.0
144
0.0
144
0.0
144
0.0
144
0.0208333333333333
144
0.0
144
0.0
144
0.0
144
0.0
144
1.0
144
0.0
144
0.0
144
0.0
144
0.0
144
1.0
147
0.0208333333333333
147
0.0
147
0.0
147
0.0
147
0.0
147
0.0208333333333333
147
0.0
147
0.0
147
0.0
147
0.0
147
1.0
147
0.0
147
0.0
147
0.0
147
0.0
147
1.0
  0
MATERIAL
  5
CE5
102
{ACAD_XDICTIONARY
360
CE6
102
}
102
{ACAD_REACTORS
330
CD4
102
}
330
CD4
100
AcDbMaterial
  1
Global
 72
     0
 43
0.0208333333333333
 43
0.0
 43
0.0
 43
0.0
 43
0.0
 43
0.0208333333333333
 43
0.0
 43
0.0
 43
0.0
 43
0.0
 43
1.0
 43
0.0
 43
0.0
 43
0.0
 43
0.0
 43
1.0
 77
     0
 47
0.0208333333333333
 47
0.0
 47
0.0
 47
0.0
 47
0.0
 47
0.0208333333333333
 47
0.0
 47
0.0
 47
0.0
 47
0.0
 47
1.0
 47
0.0
 47
0.0
 47
0.0
 47
0.0
 47
1.0
171
     0
 49
0.0208333333333333
 49
0.0
 49
0.0
 49
0.0
 49
0.0
 49
0.0208333333333333
 49
0.0
 49
0.0
 49
0.0
 49
0.0
 49
1.0
 49
0.0
 49
0.0
 49
0.0
 49
0.0
 49
1.0
175
     0
142
0.0208333333333333
142
0.0
142
0.0
142
0.0
142
0.0
142
0.0208333333333333
142
0.0
142
0.0
142
0.0
142
0.0
142
1.0
142
0.0
142
0.0
142
0.0
142
0.0
142
1.0
179
     0
144
0.0208333333333333
144
0.0
144
0.0
144
0.0
144
0.0
144
0.0208333333333333
144
0.0
144
0.0
144
0.0
144
0.0
144
1.0
144
0.0
144
0.0
144
0.0
144
0.0
144
1.0
147
0.0208333333333333
147
0.0
147
0.0
147
0.0
147
0.0
147
0.0208333333333333
147
0.0
147
0.0
147
0.0
147
0.0
147
1.0
147
0.0
147
0.0
147
0.0
147
0.0
147
1.0
  0
MLEADERSTYLE
  5
D27
102
{ACAD_REACTORS
330
D26
102
}
330
D26
100
AcDbMLeaderStyle
170
     2
171
     1
172
     0
 90
        2
 40
0.0
 41
0.0
173
     1
 91
-1056964608
340
14
 92
       -2
290
     1
 42
0.09
291
     1
 43
0.36
  3
Standard
 44
0.18
300

342
10
174
     1
178
     6
175
     1
176
     0
 93
-1056964608
 45
0.18
292
     0
297
     0
 46
0.18
 94
-1056964608
 47
1.0
 49
1.0
140
1.0
293
     1
141
0.0
294
     1
177
     0
142
1.0
295
     0
296
     0
143
0.125
1001
ACAD_MLEADERVER
1070
     2
  0
MLINESTYLE
  5
13
102
{ACAD_REACTORS
330
E
102
}
330
E
100
AcDbMlineStyle
  2
STANDARD
 70
     0
  3

 62
     0
 51
90.0
 52
90.0
 71
     2
 49
0.5
 62
   256
  6
BYLAYER
 49
-0.5
 62
   256
  6
BYLAYER
  0
PDFDEFINITION
  5
EF2
102
{ACAD_REACTORS
330
EF0
102
}
330
EF0
100
AcDbUnderlayDefinition
  1
F:\User\Daten\DWG\Anw\RN\NEUE KATALOGZG\Interzoll\NEUE NC2-KatalogZG\2900491-EPS-IZ-Ergänzugsprofilsatz.pdf
  2
1
  0
PDFDEFINITION
  5
11A7
102
{ACAD_REACTORS
330
EF0
330
11A8
102
}
330
EF0
100
AcDbUnderlayDefinition
  1
F:\User\Daten\DWG\Anw\RN\NEUE KATALOGZG\Interzoll\NEUE NC2-KatalogZG\2900491_IZEPS-Ergänzugsprofilsatz.pdf
  2
1
  0
ACDBPLACEHOLDER
  5
CD3
102
{ACAD_REACTORS
330
CD2
102
}
330
CD2
  0
SCALE
  5
D05
102
{ACAD_REACTORS
330
D04
102
}
330
D04
100
AcDbScale
 70
     0
300
1:1
140
1.0
141
1.0
290
     1
  0
SCALE
  5
D06
102
{ACAD_REACTORS
330
D04
102
}
330
D04
100
AcDbScale
 70
     0
300
1:2
140
1.0
141
2.0
290
     0
  0
SCALE
  5
D07
102
{ACAD_REACTORS
330
D04
102
}
330
D04
100
AcDbScale
 70
     0
300
1:4
140
1.0
141
4.0
290
     0
  0
SCALE
  5
D08
102
{ACAD_REACTORS
330
D04
102
}
330
D04
100
AcDbScale
 70
     0
300
1:5
140
1.0
141
5.0
290
     0
  0
SCALE
  5
D09
102
{ACAD_REACTORS
330
D04
102
}
330
D04
100
AcDbScale
 70
     0
300
1:8
140
1.0
141
8.0
290
     0
  0
SCALE
  5
D0A
102
{ACAD_REACTORS
330
D04
102
}
330
D04
100
AcDbScale
 70
     0
300
1:10
140
1.0
141
10.0
290
     0
  0
SCALE
  5
D0B
102
{ACAD_REACTORS
330
D04
102
}
330
D04
100
AcDbScale
 70
     0
300
1:16
140
1.0
141
16.0
290
     0
  0
SCALE
  5
D0C
102
{ACAD_REACTORS
330
D04
102
}
330
D04
100
AcDbScale
 70
     0
300
1:20
140
1.0
141
20.0
290
     0
  0
SCALE
  5
D0D
102
{ACAD_REACTORS
330
D04
102
}
330
D04
100
AcDbScale
 70
     0
300
1:30
140
1.0
141
30.0
290
     0
  0
SCALE
  5
D0E
102
{ACAD_REACTORS
330
D04
102
}
330
D04
100
AcDbScale
 70
     0
300
1:40
140
1.0
141
40.0
290
     0
  0
SCALE
  5
D0F
102
{ACAD_REACTORS
330
D04
102
}
330
D04
100
AcDbScale
 70
     0
300
1:50
140
1.0
141
50.0
290
     0
  0
SCALE
  5
D10
102
{ACAD_REACTORS
330
D04
102
}
330
D04
100
AcDbScale
 70
     0
300
1:100
140
1.0
141
100.0
290
     0
  0
SCALE
  5
D11
102
{ACAD_REACTORS
330
D04
102
}
330
D04
100
AcDbScale
 70
     0
300
2:1
140
2.0
141
1.0
290
     0
  0
SCALE
  5
D12
102
{ACAD_REACTORS
330
D04
102
}
330
D04
100
AcDbScale
 70
     0
300
4:1
140
4.0
141
1.0
290
     0
  0
SCALE
  5
D13
102
{ACAD_REACTORS
330
D04
102
}
330
D04
100
AcDbScale
 70
     0
300
8:1
140
8.0
141
1.0
290
     0
  0
SCALE
  5
D14
102
{ACAD_REACTORS
330
D04
102
}
330
D04
100
AcDbScale
 70
     0
300
10:1
140
10.0
141
1.0
290
     0
  0
SCALE
  5
D15
102
{ACAD_REACTORS
330
D04
102
}
330
D04
100
AcDbScale
 70
     0
300
100:1
140
100.0
141
1.0
290
     0
  0
SCALE
  5
D16
102
{ACAD_REACTORS
330
D04
102
}
330
D04
100
AcDbScale
 70
     0
300
1/128" = 1'-0"
140
0.0078125
141
12.0
290
     0
  0
SCALE
  5
D17
102
{ACAD_REACTORS
330
D04
102
}
330
D04
100
AcDbScale
 70
     0
300
1/64" = 1'-0"
140
0.015625
141
12.0
290
     0
  0
SCALE
  5
D18
102
{ACAD_REACTORS
330
D04
102
}
330
D04
100
AcDbScale
 70
     0
300
1/32" = 1'-0"
140
0.03125
141
12.0
290
     0
  0
SCALE
  5
D19
102
{ACAD_REACTORS
330
D04
102
}
330
D04
100
AcDbScale
 70
     0
300
1/16" = 1'-0"
140
0.0625
141
12.0
290
     0
  0
SCALE
  5
D1A
102
{ACAD_REACTORS
330
D04
102
}
330
D04
100
AcDbScale
 70
     0
300
3/32" = 1'-0"
140
0.09375
141
12.0
290
     0
  0
SCALE
  5
D1B
102
{ACAD_REACTORS
330
D04
102
}
330
D04
100
AcDbScale
 70
     0
300
1/8" = 1'-0"
140
0.125
141
12.0
290
     0
  0
SCALE
  5
D1C
102
{ACAD_REACTORS
330
D04
102
}
330
D04
100
AcDbScale
 70
     0
300
3/16" = 1'-0"
140
0.1875
141
12.0
290
     0
  0
SCALE
  5
D1D
102
{ACAD_REACTORS
330
D04
102
}
330
D04
100
AcDbScale
 70
     0
300
1/4" = 1'-0"
140
0.25
141
12.0
290
     0
  0
SCALE
  5
D1E
102
{ACAD_REACTORS
330
D04
102
}
330
D04
100
AcDbScale
 70
     0
300
3/8" = 1'-0"
140
0.375
141
12.0
290
     0
  0
SCALE
  5
D1F
102
{ACAD_REACTORS
330
D04
102
}
330
D04
100
AcDbScale
 70
     0
300
1/2" = 1'-0"
140
0.5
141
12.0
290
     0
  0
SCALE
  5
D20
102
{ACAD_REACTORS
330
D04
102
}
330
D04
100
AcDbScale
 70
     0
300
3/4" = 1'-0"
140
0.75
141
12.0
290
     0
  0
SCALE
  5
D21
102
{ACAD_REACTORS
330
D04
102
}
330
D04
100
AcDbScale
 70
     0
300
1" = 1'-0"
140
1.0
141
12.0
290
     0
  0
SCALE
  5
D22
102
{ACAD_REACTORS
330
D04
102
}
330
D04
100
AcDbScale
 70
     0
300
1-1/2" = 1'-0"
140
1.5
141
12.0
290
     0
  0
SCALE
  5
D23
102
{ACAD_REACTORS
330
D04
102
}
330
D04
100
AcDbScale
 70
     0
300
3" = 1'-0"
140
3.0
141
12.0
290
     0
  0
SCALE
  5
D24
102
{ACAD_REACTORS
330
D04
102
}
330
D04
100
AcDbScale
 70
     0
300
6" = 1'-0"
140
6.0
141
12.0
290
     0
  0
SCALE
  5
D25
102
{ACAD_REACTORS
330
D04
102
}
330
D04
100
AcDbScale
 70
     0
300
1'-0" = 1'-0"
140
12.0
141
12.0
290
     0
  0
TABLESTYLE
  5
D03
102
{ACAD_XDICTIONARY
360
F8C
102
}
102
{ACAD_REACTORS
330
D02
102
}
330
D02
100
AcDbTableStyle
  3
Standard
 70
     0
 71
     0
 40
0.06
 41
0.06
280
     0
281
     0
  7
STANDARD
140
0.18
170
     2
 62
     0
 63
     7
283
     0
274
    -2
284
     1
 64
     0
275
    -2
285
     1
 65
     0
276
    -2
286
     1
 66
     0
277
    -2
287
     1
 67
     0
278
    -2
288
     1
 68
     0
279
    -2
289
     1
 69
     0
  7
STANDARD
140
0.25
170
     5
 62
     0
 63
     7
283
     0
274
    -2
284
     1
 64
     0
275
    -2
285
     1
 65
     0
276
    -2
286
     1
 66
     0
277
    -2
287
     1
 67
     0
278
    -2
288
     1
 68
     0
279
    -2
289
     1
 69
     0
  7
STANDARD
140
0.18
170
     5
 62
     0
 63
     7
283
     0
274
    -2
284
     1
 64
     0
275
    -2
285
     1
 65
     0
276
    -2
286
     1
 66
     0
277
    -2
287
     1
 67
     0
278
    -2
288
     1
 68
     0
279
    -2
289
     1
 69
     0
  0
VISUALSTYLE
  5
CF3
102
{ACAD_XDICTIONARY
360
1461
102
}
102
{ACAD_REACTORS
330
CED
102
}
330
CED
100
AcDbVisualStyle
  2
2dWireframe
 70
     4
 71
     0
 72
     2
 73
     0
 90
        0
 40
-0.6
 41
-30.0
 62
     5
 63
     7
 74
     1
 91
        4
 64
     7
 65
   257
 75
     1
175
     1
 42
1.0
 92
        0
 66
   257
 43
1.0
 76
     1
 77
     6
 78
     2
 67
     7
 79
     5
170
     0
171
     0
290
     0
174
     0
 93
        1
 44
0.0
173
     0
291
     0
 45
0.0
1001
ACAD
1000
AcDbSavedByObjectVersion
1070
     0
  0
VISUALSTYLE
  5
CF5
102
{ACAD_XDICTIONARY
360
1465
102
}
102
{ACAD_REACTORS
330
CED
102
}
330
CED
100
AcDbVisualStyle
  2
3D Hidden
 70
     6
 71
     1
 72
     2
 73
     2
 90
        0
 40
-0.6
 41
-30.0
 62
     5
 63
     7
 74
     2
 91
        2
 64
     7
 65
   257
 75
     2
175
     1
 42
179.0
 92
        0
 66
   257
 43
1.0
 76
     1
 77
     6
 78
     2
 67
     7
 79
     3
170
     0
171
     0
290
     0
174
     0
 93
        1
 44
0.0
173
     0
291
     0
 45
0.0
1001
ACAD
1000
AcDbSavedByObjectVersion
1070
     0
  0
VISUALSTYLE
  5
CF4
102
{ACAD_XDICTIONARY
360
1463
102
}
102
{ACAD_REACTORS
330
CED
102
}
330
CED
100
AcDbVisualStyle
  2
3dWireframe
 70
     5
 71
     0
 72
     2
 73
     0
 90
        0
 40
-0.6
 41
-30.0
 62
     5
 63
     7
 74
     1
 91
        4
 64
     7
 65
   257
 75
     1
175
     1
 42
1.0
 92
        0
 66
   257
 43
1.0
 76
     1
 77
     6
 78
     2
 67
     7
 79
     5
170
     0
171
     0
290
     0
174
     0
 93
        1
 44
0.0
173
     0
291
     0
 45
0.0
1001
ACAD
1000
AcDbSavedByObjectVersion
1070
     0
  0
VISUALSTYLE
  5
CF2
102
{ACAD_XDICTIONARY
360
145F
102
}
102
{ACAD_REACTORS
330
CED
102
}
330
CED
100
AcDbVisualStyle
  2
Basic
 70
     7
 71
     1
 72
     0
 73
     1
 90
        0
 40
-0.6
 41
-30.0
 62
     5
 63
     7
 74
     0
 91
        4
 64
     7
 65
   257
 75
     1
175
     1
 42
1.0
 92
        8
 66
     7
 43
1.0
 76
     1
 77
     6
 78
     2
 67
     7
 79
     5
170
     0
171
     0
290
     0
174
     0
 93
        1
 44
0.0
173
     0
291
     1
 45
0.0
1001
ACAD
1000
AcDbSavedByObjectVersion
1070
     0
  0
VISUALSTYLE
  5
CF9
102
{ACAD_XDICTIONARY
360
146D
102
}
102
{ACAD_REACTORS
330
CED
102
}
330
CED
100
AcDbVisualStyle
  2
Brighten
 70
    12
 71
     2
 72
     2
 73
     0
 90
        0
 40
-0.6
 41
-30.0
 62
     5
 63
     7
 74
     1
 91
        4
 64
     7
 65
   257
 75
     1
175
     1
 42
1.0
 92
        8
 66
     7
 43
1.0
 76
     1
 77
     6
 78
     2
 67
     7
 79
     5
170
     0
171
     0
290
     0
174
     0
 93
        1
 44
50.0
173
     0
291
     1
 45
0.0
1001
ACAD
1000
AcDbSavedByObjectVersion
1070
     0
  0
VISUALSTYLE
  5
CFD
102
{ACAD_XDICTIONARY
360
1475
102
}
102
{ACAD_REACTORS
330
CED
102
}
330
CED
100
AcDbVisualStyle
  2
ColorChange
 70
    16
 71
     2
 72
     2
 73
     3
 90
        0
 40
-0.6
 41
-30.0
 62
     5
 63
     8
 74
     1
 91
        4
 64
     7
 65
   257
 75
     1
175
     1
 42
1.0
 92
        8
 66
     8
 43
1.0
 76
     1
 77
     6
 78
     2
 67
     7
 79
     5
170
     0
171
     0
290
     0
174
     0
 93
        1
 44
0.0
173
     0
291
     1
 45
0.0
1001
ACAD
1000
AcDbSavedByObjectVersion
1070
     0
  0
VISUALSTYLE
  5
CF6
102
{ACAD_XDICTIONARY
360
1467
102
}
102
{ACAD_REACTORS
330
CED
102
}
330
CED
100
AcDbVisualStyle
  2
Conceptual
 70
     9
 71
     3
 72
     2
 73
     0
 90
        0
 40
-0.6
 41
-30.0
 62
     5
 63
     7
 74
     2
 91
        2
 64
     7
 65
   257
 75
     1
175
     1
 42
179.0
 92
        8
 66
     7
 43
1.0
 76
     1
 77
     6
 78
     2
 67
     7
 79
     3
170
     0
171
     0
290
     0
174
     0
 93
        1
 44
0.0
173
     0
291
     0
 45
0.0
1001
ACAD
1000
AcDbSavedByObjectVersion
1070
     0
  0
VISUALSTYLE
  5
CF8
102
{ACAD_XDICTIONARY
360
146B
102
}
102
{ACAD_REACTORS
330
CED
102
}
330
CED
100
AcDbVisualStyle
  2
Dim
 70
    11
 71
     2
 72
     2
 73
     0
 90
        0
 40
-0.6
 41
-30.0
 62
     5
 63
     7
 74
     1
 91
        4
 64
     7
 65
   257
 75
     1
175
     1
 42
1.0
 92
        8
 66
     7
 43
1.0
 76
     1
 77
     6
 78
     2
 67
     7
 79
     5
170
     0
171
     0
290
     0
174
     0
 93
        1
 44
-50.0
173
     0
291
     1
 45
0.0
1001
ACAD
1000
AcDbSavedByObjectVersion
1070
     0
  0
VISUALSTYLE
  5
D00
102
{ACAD_XDICTIONARY
360
147B
102
}
102
{ACAD_REACTORS
330
CED
102
}
330
CED
100
AcDbVisualStyle
  2
EdgeColorOff
 70
    22
 71
     2
 72
     2
 73
     0
 90
        0
 40
-0.6
 41
-30.0
 62
     5
 63
     7
 74
     1
 91
        4
 64
     7
 65
   257
 75
     1
175
     1
 42
1.0
 92
        8
 66
     7
 43
1.0
 76
     1
 77
     6
 78
     2
 67
     7
 79
     5
170
     0
171
     0
290
     0
174
     0
 93
        1
 44
0.0
173
     0
291
     1
 45
0.0
1001
ACAD
1000
AcDbSavedByObjectVersion
1070
     0
  0
VISUALSTYLE
  5
CFC
102
{ACAD_XDICTIONARY
360
1473
102
}
102
{ACAD_REACTORS
330
CED
102
}
330
CED
100
AcDbVisualStyle
  2
Facepattern
 70
    15
 71
     2
 72
     2
 73
     0
 90
        0
 40
-0.6
 41
-30.0
 62
     5
 63
     7
 74
     1
 91
        4
 64
     7
 65
   257
 75
     1
175
     1
 42
1.0
 92
        8
 66
     7
 43
1.0
 76
     1
 77
     6
 78
     2
 67
     7
 79
     5
170
     0
171
     0
290
     0
174
     0
 93
        1
 44
0.0
173
     0
291
     1
 45
0.0
1001
ACAD
1000
AcDbSavedByObjectVersion
1070
     0
  0
VISUALSTYLE
  5
CEE
102
{ACAD_XDICTIONARY
360
1457
102
}
102
{ACAD_REACTORS
330
CED
102
}
330
CED
100
AcDbVisualStyle
  2
Flat
 70
     0
 71
     2
 72
     1
 73
     1
 90
        2
 40
-0.6
 41
30.0
 62
     5
 63
     7
 74
     0
 91
        4
 64
     7
 65
   257
 75
     1
175
     1
 42
1.0
 92
        8
 66
     7
 43
1.0
 76
     1
 77
     6
 78
     2
 67
     7
 79
     5
170
     0
171
     0
290
     0
174
     0
 93
       13
 44
0.0
173
     0
291
     1
 45
0.0
1001
ACAD
1000
AcDbSavedByObjectVersion
1070
     0
  0
VISUALSTYLE
  5
CEF
102
{ACAD_XDICTIONARY
360
1459
102
}
102
{ACAD_REACTORS
330
CED
102
}
330
CED
100
AcDbVisualStyle
  2
FlatWithEdges
 70
     1
 71
     2
 72
     1
 73
     1
 90
        2
 40
-0.6
 41
30.0
 62
     5
 63
     7
 74
     1
 91
        4
 64
     7
 65
   257
 75
     1
175
     1
 42
1.0
 92
        0
 66
   257
 43
1.0
 76
     1
 77
     6
 78
     2
 67
     7
 79
     5
170
     0
171
     0
290
     0
174
     0
 93
       13
 44
0.0
173
     0
291
     1
 45
0.0
1001
ACAD
1000
AcDbSavedByObjectVersion
1070
     0
  0
VISUALSTYLE
  5
CF0
102
{ACAD_XDICTIONARY
360
145B
102
}
102
{ACAD_REACTORS
330
CED
102
}
330
CED
100
AcDbVisualStyle
  2
Gouraud
 70
     2
 71
     2
 72
     2
 73
     1
 90
        2
 40
-0.6
 41
30.0
 62
     5
 63
     7
 74
     0
 91
        4
 64
     7
 65
   257
 75
     1
175
     1
 42
1.0
 92
        0
 66
     7
 43
1.0
 76
     1
 77
     6
 78
     2
 67
     7
 79
     5
170
     0
171
     0
290
     0
174
     0
 93
       13
 44
0.0
173
     0
291
     1
 45
0.0
1001
ACAD
1000
AcDbSavedByObjectVersion
1070
     0
  0
VISUALSTYLE
  5
CF1
102
{ACAD_XDICTIONARY
360
145D
102
}
102
{ACAD_REACTORS
330
CED
102
}
330
CED
100
AcDbVisualStyle
  2
GouraudWithEdges
 70
     3
 71
     2
 72
     2
 73
     1
 90
        2
 40
-0.6
 41
30.0
 62
     5
 63
     7
 74
     1
 91
        4
 64
     7
 65
   257
 75
     1
175
     1
 42
1.0
 92
        0
 66
   257
 43
1.0
 76
     1
 77
     6
 78
     2
 67
     7
 79
     5
170
     0
171
     0
290
     0
174
     0
 93
       13
 44
0.0
173
     0
291
     1
 45
0.0
1001
ACAD
1000
AcDbSavedByObjectVersion
1070
     0
  0
VISUALSTYLE
  5
CFE
102
{ACAD_XDICTIONARY
360
1477
102
}
102
{ACAD_REACTORS
330
CED
102
}
330
CED
100
AcDbVisualStyle
  2
JitterOff
 70
    20
 71
     2
 72
     2
 73
     0
 90
        0
 40
-0.6
 41
-30.0
 62
     5
 63
     7
 74
     1
 91
        4
 64
     7
 65
   257
 75
     1
175
     1
 42
1.0
 92
       10
 66
     7
 43
1.0
 76
     1
 77
     6
 78
     2
 67
     7
 79
     5
170
     0
171
     0
290
     0
174
     0
 93
        1
 44
0.0
173
     0
291
     1
 45
0.0
1001
ACAD
1000
AcDbSavedByObjectVersion
1070
     0
  0
VISUALSTYLE
  5
CFB
102
{ACAD_XDICTIONARY
360
1471
102
}
102
{ACAD_REACTORS
330
CED
102
}
330
CED
100
AcDbVisualStyle
  2
Linepattern
 70
    14
 71
     2
 72
     2
 73
     0
 90
        0
 40
-0.6
 41
-30.0
 62
     5
 63
     7
 74
     1
 91
        4
 64
     7
 65
   257
 75
     7
175
     7
 42
1.0
 92
        8
 66
     7
 43
1.0
 76
     1
 77
     6
 78
     2
 67
     7
 79
     5
170
     0
171
     0
290
     0
174
     0
 93
        1
 44
0.0
173
     0
291
     1
 45
0.0
1001
ACAD
1000
AcDbSavedByObjectVersion
1070
     0
  0
VISUALSTYLE
  5
CFF
102
{ACAD_XDICTIONARY
360
1479
102
}
102
{ACAD_REACTORS
330
CED
102
}
330
CED
100
AcDbVisualStyle
  2
OverhangOff
 70
    21
 71
     2
 72
     2
 73
     0
 90
        0
 40
-0.6
 41
-30.0
 62
     5
 63
     7
 74
     1
 91
        4
 64
     7
 65
   257
 75
     1
175
     1
 42
1.0
 92
        9
 66
     7
 43
1.0
 76
     1
 77
     6
 78
     2
 67
     7
 79
     5
170
     0
171
     0
290
     0
174
     0
 93
        1
 44
0.0
173
     0
291
     1
 45
0.0
1001
ACAD
1000
AcDbSavedByObjectVersion
1070
     0
  0
VISUALSTYLE
  5
CF7
102
{ACAD_XDICTIONARY
360
1469
102
}
102
{ACAD_REACTORS
330
CED
102
}
330
CED
100
AcDbVisualStyle
  2
Realistic
 70
     8
 71
     2
 72
     2
 73
     0
 90
        0
 40
-0.6
 41
-30.0
 62
     5
 63
     7
 74
     1
 91
        0
 64
     7
 65
   257
 75
     1
175
     1
 42
1.0
 92
        8
 66
     8
 43
1.0
 76
     1
 77
     6
 78
     2
 67
     7
 79
     5
170
     0
171
     0
290
     0
174
     0
 93
       13
 44
0.0
173
     0
291
     0
 45
0.0
1001
ACAD
1000
AcDbSavedByObjectVersion
1070
     0
  0
VISUALSTYLE
  5
CFA
102
{ACAD_XDICTIONARY
360
146F
102
}
102
{ACAD_REACTORS
330
CED
102
}
330
CED
100
AcDbVisualStyle
  2
Thicken
 70
    13
 71
     2
 72
     2
 73
     0
 90
        0
 40
-0.6
 41
-30.0
 62
     5
 63
     7
 74
     1
 91
        4
 64
     7
 65
   257
 75
     1
175
     1
 42
1.0
 92
       12
 66
     7
 43
1.0
 76
     1
 77
     6
 78
     2
 67
     7
 79
     5
170
     0
171
     0
290
     0
174
     0
 93
        1
 44
0.0
173
     0
291
     1
 45
0.0
1001
ACAD
1000
AcDbSavedByObjectVersion
1070
     0
  0
ACAD_PROXY_OBJECT
  5
D2
330
0
100
AcDbProxyObject
 90
      499
 91
      538
 95
   393235
 70
     0
 93
      736
310
9084D2E312E3232336407014B7269BC41100000000000000E03F1EC52B91F85EA10FE1EC52B91F85EA10FD034153471EC52B91F85EA10FC000000FC83D797414650540C000000000000E03F3F2A7C749358940FC000000FC83D7974100
 94
        0
1001
ACAD
1000
AcRTDxfName
1000
ASSYSVARS
1000
AcRTDxfName
1000
ASSYSVARS
1000
AcRTDxfName
1000
ASSYSVARS
1000
AcRTDxfName
1000
ASSYSVARS
1000
AcRTDxfName
1000
ASSYSVARS
1000
AcRTDxfName
1000
ASSYSVARS
1000
AcRTDxfName
1000
ASSYSVARS
1000
AcRTDxfName
1000
ASSYSVARS
  0
DICTIONARYVAR
  5
FCE
102
{ACAD_REACTORS
330
FCB
102
}
330
FCB
100
DictionaryVariables
280
     0
  1
1:1
  0
DICTIONARYVAR
  5
FCD
102
{ACAD_REACTORS
330
FCB
102
}
330
FCB
100
DictionaryVariables
280
     0
  1
STANDARD
  0
DICTIONARYVAR
  5
FCC
102
{ACAD_REACTORS
330
FCB
102
}
330
FCB
100
DictionaryVariables
280
     0
  1
STANDARD
  0
DICTIONARYVAR
  5
FD1
102
{ACAD_REACTORS
330
FCB
102
}
330
FCB
100
DictionaryVariables
280
     0
  1
1
  0
DICTIONARYVAR
  5
FD0
102
{ACAD_REACTORS
330
FCB
102
}
330
FCB
100
DictionaryVariables
280
     0
  1
0
  0
DICTIONARYVAR
  5
FCF
102
{ACAD_REACTORS
330
FCB
102
}
330
FCB
100
DictionaryVariables
280
     0
  1
127
  0
DICTIONARYVAR
  5
144E
102
{ACAD_REACTORS
330
FCB
102
}
330
FCB
100
DictionaryVariables
280
     0
  1
2
  0
ACAD_PROXY_OBJECT
  5
85
330
0
100
AcDbProxyObject
 90
      499
 91
      507
 95
   393235
 70
     0
 93
      354
310
000000000000405AA6A9AA40504646174650142118B8C4B8C8C8CD9C0504646174650142118B8C4B8C8C8CD9FF
330
7F
330
86
330
87
330
89
330
0
330
0
 94
        0
1001
ACAD
1000
AcRTDxfName
1000
ADAPPL
1000
AcRTDxfName
1000
ADAPPL
1000
AcRTDxfName
1000
ADAPPL
1000
AcRTDxfName
1000
ADAPPL
1000
AcRTDxfName
1000
ADAPPL
1000
AcRTDxfName
1000
ADAPPL
1000
AcRTDxfName
1000
ADAPPL
1000
AcRTDxfName
1000
ADAPPL
  0
ACAD_PROXY_OBJECT
  5
86
330
0
100
AcDbProxyObject
 90
      499
 91
      508
 95
   393235
 70
     0
 93
      120
310
00009024410100000092080002A6A600
330
7F
330
96
330
95
330
0
 94
        0
1001
ACAD
1000
AcRTDxfName
1000
DEPMGR
1000
AcRTDxfName
1000
DEPMGR
1000
AcRTDxfName
1000
DEPMGR
1000
AcRTDxfName
1000
DEPMGR
1000
AcRTDxfName
1000
DEPMGR
1000
AcRTDxfName
1000
DEPMGR
1000
AcRTDxfName
1000
DEPMGR
1000
AcRTDxfName
1000
DEPMGR
  0
ACAD_PROXY_OBJECT
  5
87
330
0
100
AcDbProxyObject
 90
      499
 91
      509
 95
   393235
 70
     0
 93
       46
310
00000000920B
330
7F
330
0
330
88
 94
        0
1001
ACAD
1000
AcRTDxfName
1000
PARAMMGR
1000
AcRTDxfName
1000
PARAMMGR
1000
AcRTDxfName
1000
PARAMMGR
1000
AcRTDxfName
1000
PARAMMGR
1000
AcRTDxfName
1000
PARAMMGR
1000
AcRTDxfName
1000
PARAMMGR
1000
AcRTDxfName
1000
PARAMMGR
1000
AcRTDxfName
1000
PARAMMGR
  0
ACAD_PROXY_OBJECT
  5
88
330
0
100
AcDbProxyObject
 90
      499
 91
      510
 95
   393235
 70
     0
 93
       22
310
0000AB
330
7F
 94
        0
1001
ACAD
1000
AcRTDxfName
1000
PARAMSCOPE
1000
AcRTDxfName
1000
PARAMSCOPE
1000
AcRTDxfName
1000
PARAMSCOPE
1000
AcRTDxfName
1000
PARAMSCOPE
1000
AcRTDxfName
1000
PARAMSCOPE
1000
AcRTDxfName
1000
PARAMSCOPE
1000
AcRTDxfName
1000
PARAMSCOPE
1000
AcRTDxfName
1000
PARAMSCOPE
  0
ACAD_PROXY_OBJECT
  5
8A
330
0
100
AcDbProxyObject
 90
      499
 91
      512
 95
   393235
 70
     0
 93
      124
310
00000142905350D3D39114D414D6905F
330
7F
 94
        0
1001
ACAD
1000
AcRTDxfName
1000
SYSTEM_VAR_INT
1000
AcRTDxfName
1000
SYSTEM_VAR_INT
1000
AcRTDxfName
1000
SYSTEM_VAR_INT
1000
AcRTDxfName
1000
SYSTEM_VAR_INT
1000
AcRTDxfName
1000
SYSTEM_VAR_INT
1000
AcRTDxfName
1000
SYSTEM_VAR_INT
1000
AcRTDxfName
1000
SYSTEM_VAR_INT
1000
AcRTDxfName
1000
SYSTEM_VAR_INT
  0
ACAD_PROXY_OBJECT
  5
8B
330
0
100
AcDbProxyObject
 90
      499
 91
      512
 95
   393235
 70
     0
 93
      124
310
000001429053549553115353D111501F
330
7F
 94
        0
1001
ACAD
1000
AcRTDxfName
1000
SYSTEM_VAR_INT
1000
AcRTDxfName
1000
SYSTEM_VAR_INT
1000
AcRTDxfName
1000
SYSTEM_VAR_INT
1000
AcRTDxfName
1000
SYSTEM_VAR_INT
1000
AcRTDxfName
1000
SYSTEM_VAR_INT
1000
AcRTDxfName
1000
SYSTEM_VAR_INT
1000
AcRTDxfName
1000
SYSTEM_VAR_INT
1000
AcRTDxfName
1000
SYSTEM_VAR_INT
  0
ACAD_PROXY_OBJECT
  5
8C
330
0
100
AcDbProxyObject
 90
      499
 91
      512
 95
   393235
 70
     0
 93
      108
310
00000142105354D2D353D111501F
330
7F
 94
        0
1001
ACAD
1000
AcRTDxfName
1000
SYSTEM_VAR_INT
1000
AcRTDxfName
1000
SYSTEM_VAR_INT
1000
AcRTDxfName
1000
SYSTEM_VAR_INT
1000
AcRTDxfName
1000
SYSTEM_VAR_INT
1000
AcRTDxfName
1000
SYSTEM_VAR_INT
1000
AcRTDxfName
1000
SYSTEM_VAR_INT
1000
AcRTDxfName
1000
SYSTEM_VAR_INT
1000
AcRTDxfName
1000
SYSTEM_VAR_INT
  0
ACAD_PROXY_OBJECT
  5
8D
330
0
100
AcDbProxyObject
 90
      499
 91
      512
 95
   393235
 70
     0
 93
      140
310
000001435053511253511254D41353D1116F
330
7F
 94
        0
1001
ACAD
1000
AcRTDxfName
1000
SYSTEM_VAR_INT
1000
AcRTDxfName
1000
SYSTEM_VAR_INT
1000
AcRTDxfName
1000
SYSTEM_VAR_INT
1000
AcRTDxfName
1000
SYSTEM_VAR_INT
1000
AcRTDxfName
1000
SYSTEM_VAR_INT
1000
AcRTDxfName
1000
SYSTEM_VAR_INT
1000
AcRTDxfName
1000
SYSTEM_VAR_INT
1000
AcRTDxfName
1000
SYSTEM_VAR_INT
  0
ACAD_PROXY_OBJECT
  5
8E
330
0
100
AcDbProxyObject
 90
      499
 91
      513
 95
   393235
 70
     0
 93
      180
310
00000142905354D2D05391D513D300000000000001040F
330
7F
 94
        0
1001
ACAD
1000
AcRTDxfName
1000
SYSTEM_VAR_REAL
1000
AcRTDxfName
1000
SYSTEM_VAR_REAL
1000
AcRTDxfName
1000
SYSTEM_VAR_REAL
1000
AcRTDxfName
1000
SYSTEM_VAR_REAL
1000
AcRTDxfName
1000
SYSTEM_VAR_REAL
1000
AcRTDxfName
1000
SYSTEM_VAR_REAL
1000
AcRTDxfName
1000
SYSTEM_VAR_REAL
1000
AcRTDxfName
1000
SYSTEM_VAR_REAL
  0
ACAD_PROXY_OBJECT
  5
8F
330
0
100
AcDbProxyObject
 90
      499
 91
      514
 95
   393235
 70
     0
 93
      164
310
00000142505354D2D4D516531140505434F4E542AF
330
7F
 94
        0
1001
ACAD
1000
AcRTDxfName
1000
SYSTEM_VAR_STR
1000
AcRTDxfName
1000
SYSTEM_VAR_STR
1000
AcRTDxfName
1000
SYSTEM_VAR_STR
1000
AcRTDxfName
1000
SYSTEM_VAR_STR
1000
AcRTDxfName
1000
SYSTEM_VAR_STR
1000
AcRTDxfName
1000
SYSTEM_VAR_STR
1000
AcRTDxfName
1000
SYSTEM_VAR_STR
1000
AcRTDxfName
1000
SYSTEM_VAR_STR
  0
ACAD_PROXY_OBJECT
  5
90
330
0
100
AcDbProxyObject
 90
      499
 91
      512
 95
   393235
 70
     0
 93
      108
310
00000142105350D351111253501F
330
7F
 94
        0
1001
ACAD
1000
AcRTDxfName
1000
SYSTEM_VAR_INT
1000
AcRTDxfName
1000
SYSTEM_VAR_INT
1000
AcRTDxfName
1000
SYSTEM_VAR_INT
1000
AcRTDxfName
1000
SYSTEM_VAR_INT
1000
AcRTDxfName
1000
SYSTEM_VAR_INT
1000
AcRTDxfName
1000
SYSTEM_VAR_INT
1000
AcRTDxfName
1000
SYSTEM_VAR_INT
1000
AcRTDxfName
1000
SYSTEM_VAR_INT
  0
ACAD_PROXY_OBJECT
  5
91
330
0
100
AcDbProxyObject
 90
      499
 91
      514
 95
   393235
 70
     0
 93
      116
310
00000142505354105491925311406F
330
7F
 94
        0
1001
ACAD
1000
AcRTDxfName
1000
SYSTEM_VAR_STR
1000
AcRTDxfName
1000
SYSTEM_VAR_STR
1000
AcRTDxfName
1000
SYSTEM_VAR_STR
1000
AcRTDxfName
1000
SYSTEM_VAR_STR
1000
AcRTDxfName
1000
SYSTEM_VAR_STR
1000
AcRTDxfName
1000
SYSTEM_VAR_STR
1000
AcRTDxfName
1000
SYSTEM_VAR_STR
1000
AcRTDxfName
1000
SYSTEM_VAR_STR
  0
ACAD_PROXY_OBJECT
  5
92
330
0
100
AcDbProxyObject
 90
      499
 91
      512
 95
   393235
 70
     0
 93
      100
310
00000142105350D3D35414D5AF
330
7F
 94
        0
1001
ACAD
1000
AcRTDxfName
1000
SYSTEM_VAR_INT
1000
AcRTDxfName
1000
SYSTEM_VAR_INT
1000
AcRTDxfName
1000
SYSTEM_VAR_INT
1000
AcRTDxfName
1000
SYSTEM_VAR_INT
1000
AcRTDxfName
1000
SYSTEM_VAR_INT
1000
AcRTDxfName
1000
SYSTEM_VAR_INT
1000
AcRTDxfName
1000
SYSTEM_VAR_INT
1000
AcRTDxfName
1000
SYSTEM_VAR_INT
  0
ACAD_PROXY_OBJECT
  5
95
330
0
100
AcDbProxyObject
 90
      499
 91
      517
 95
   393235
 70
     0
 93
      164
310
000092090148200A00000440000FFFFFFFF000000F
330
7F
330
96
330
86
330
0
 94
        0
1001
ACAD
1000
AcRTDxfName
1000
ADBASE
1000
AcRTDxfName
1000
ADBASE
1000
AcRTDxfName
1000
ADBASE
1000
AcRTDxfName
1000
ADBASE
1000
AcRTDxfName
1000
ADBASE
1000
AcRTDxfName
1000
ADBASE
1000
AcRTDxfName
1000
ADBASE
1000
AcRTDxfName
1000
ADBASE
  0
ACAD_PROXY_OBJECT
  5
96
330
0
100
AcDbProxyObject
 90
      499
 91
      518
 95
   393235
 70
     0
 93
       82
310
000040520802482A80003F
330
7F
330
95
330
86
330
0
 94
        0
1001
ACAD
1000
AcRTDxfName
1000
BODYID
1000
AcRTDxfName
1000
BODYID
1000
AcRTDxfName
1000
BODYID
1000
AcRTDxfName
1000
BODYID
1000
AcRTDxfName
1000
BODYID
1000
AcRTDxfName
1000
BODYID
1000
AcRTDxfName
1000
BODYID
1000
AcRTDxfName
1000
BODYID
  0
ACAD_PROXY_OBJECT
  5
97
330
0
100
AcDbProxyObject
 90
      499
 91
      510
 95
   393235
 70
     0
 93
       22
310
0000AB
330
7F
 94
        0
1001
ACAD
1000
AcRTDxfName
1000
PARAMSCOPE
1000
AcRTDxfName
1000
PARAMSCOPE
1000
AcRTDxfName
1000
PARAMSCOPE
1000
AcRTDxfName
1000
PARAMSCOPE
1000
AcRTDxfName
1000
PARAMSCOPE
1000
AcRTDxfName
1000
PARAMSCOPE
1000
AcRTDxfName
1000
PARAMSCOPE
1000
AcRTDxfName
1000
PARAMSCOPE
  0
ACAD_PROXY_OBJECT
  5
98
330
0
100
AcDbProxyObject
 90
      499
 91
      519
 95
   393235
 70
     0
 93
       38
310
000000920B
330
7F
330
0
 94
        0
1001
ACAD
1000
AcRTDxfName
1000
WORKPLANEDISPLAYMGR
1000
AcRTDxfName
1000
WORKPLANEDISPLAYMGR
1000
AcRTDxfName
1000
WORKPLANEDISPLAYMGR
1000
AcRTDxfName
1000
WORKPLANEDISPLAYMGR
1000
AcRTDxfName
1000
WORKPLANEDISPLAYMGR
1000
AcRTDxfName
1000
WORKPLANEDISPLAYMGR
1000
AcRTDxfName
1000
WORKPLANEDISPLAYMGR
1000
AcRTDxfName
1000
WORKPLANEDISPLAYMGR
  0
ACAD_PROXY_OBJECT
  5
99
330
0
100
AcDbProxyObject
 90
      499
 91
      520
 95
   393235
 70
     0
 93
     3204
310
0000419208050A44555243485F424F4852014254D050D2D7D093D2148050C44555243485F5A594C494E440142D4D050D2D7D696531253910050B44555243485F4B4547454C014294D050D2D7D2D151D15310648201451EC94958C8094950535112504811155490D20B9F4051D7B252563202525414D4449412058202525414
310
D4445502054494546457D014F5EC94958C8094950535112504811155490D20B9F57141ED6965312539108094958C80949505350D112504816080949505350D09111540815125151915F405467B252563202525414D4449412058202525414D4445502054494546457D5C507B5A594C494E4420252563202525414D43444941
310
2058202525414D43424445502054494546457D014E5EC94958C8094950535112504811155490D20B9F57141ED2D151D15308094958C80949505350D112504816080949505350D4D05391C949591F405427B252563202525414D4449412058202525414D4445502054494546457D5C507B4B4547454C20252563202525414D4
310
34449412058202525414D4353414E472525647DF
330
7F
 94
        0
1001
ACAD
1000
AcRTDxfName
1000
ADHNTMPLT
1000
AcRTDxfName
1000
ADHNTMPLT
1000
AcRTDxfName
1000
ADHNTMPLT
1000
AcRTDxfName
1000
ADHNTMPLT
1000
AcRTDxfName
1000
ADHNTMPLT
1000
AcRTDxfName
1000
ADHNTMPLT
1000
AcRTDxfName
1000
ADHNTMPLT
1000
AcRTDxfName
1000
ADHNTMPLT
  0
ACAD_PROXY_OBJECT
  5
9C
330
0
100
AcDbProxyObject
 90
      499
 91
      523
 95
   393235
 70
     0
 93
      332
310
0000014119185D1940508442E312E32323362014119185D1940508442E312E323233624050100000000F
330
7F
330
9D
330
9F
330
A0
330
0
 94
        0
1001
ACAD
1000
AcRTDxfName
1000
AM_DRAWING_MGR
1000
AcRTDxfName
1000
AM_DRAWING_MGR
1000
AcRTDxfName
1000
AM_DRAWING_MGR
1000
AcRTDxfName
1000
AM_DRAWING_MGR
1000
AcRTDxfName
1000
AM_DRAWING_MGR
1000
AcRTDxfName
1000
AM_DRAWING_MGR
1000
AcRTDxfName
1000
AM_DRAWING_MGR
1000
AcRTDxfName
1000
AM_DRAWING_MGR
  0
ACAD_PROXY_OBJECT
  5
9D
330
0
100
AcDbProxyObject
 90
      499
 91
      524
 95
   393235
 70
     0
 93
       56
310
0000901441010000
330
7F
330
9E
 94
        0
1001
ACAD
1000
AcRTDxfName
1000
AM_DWG_DOCUMENT
1000
AcRTDxfName
1000
AM_DWG_DOCUMENT
1000
AcRTDxfName
1000
AM_DWG_DOCUMENT
1000
AcRTDxfName
1000
AM_DWG_DOCUMENT
1000
AcRTDxfName
1000
AM_DWG_DOCUMENT
1000
AcRTDxfName
1000
AM_DWG_DOCUMENT
1000
AcRTDxfName
1000
AM_DWG_DOCUMENT
1000
AcRTDxfName
1000
AM_DWG_DOCUMENT
  0
ACAD_PROXY_OBJECT
  5
9E
330
0
100
AcDbProxyObject
 90
      499
 91
      525
 95
   393235
 70
     0
 93
       40
310
0000A4410100
330
7F
 94
        0
1001
ACAD
1000
AcRTDxfName
1000
AM_DWG_SHEET
1000
AcRTDxfName
1000
AM_DWG_SHEET
1000
AcRTDxfName
1000
AM_DWG_SHEET
1000
AcRTDxfName
1000
AM_DWG_SHEET
1000
AcRTDxfName
1000
AM_DWG_SHEET
1000
AcRTDxfName
1000
AM_DWG_SHEET
1000
AcRTDxfName
1000
AM_DWG_SHEET
1000
AcRTDxfName
1000
AM_DWG_SHEET
  0
ACAD_PROXY_OBJECT
  5
9F
330
0
100
AcDbProxyObject
 90
      499
 91
      526
 95
   393235
 70
     0
 93
       68
310
0000A44101920A482F
330
7F
 94
        0
1001
ACAD
1000
AcRTDxfName
1000
AM_VIEWDIMPARMAP
1000
AcRTDxfName
1000
AM_VIEWDIMPARMAP
1000
AcRTDxfName
1000
AM_VIEWDIMPARMAP
1000
AcRTDxfName
1000
AM_VIEWDIMPARMAP
1000
AcRTDxfName
1000
AM_VIEWDIMPARMAP
1000
AcRTDxfName
1000
AM_VIEWDIMPARMAP
1000
AcRTDxfName
1000
AM_VIEWDIMPARMAP
1000
AcRTDxfName
1000
AM_VIEWDIMPARMAP
  0
ACAD_PROXY_OBJECT
  5
A1
330
0
100
AcDbProxyObject
 90
      499
 91
      512
 95
   393235
 70
     0
 93
      108
310
000001421053521310D05310D01F
330
7F
 94
        0
1001
ACAD
1000
AcRTDxfName
1000
SYSTEM_VAR_INT
1000
AcRTDxfName
1000
SYSTEM_VAR_INT
1000
AcRTDxfName
1000
SYSTEM_VAR_INT
1000
AcRTDxfName
1000
SYSTEM_VAR_INT
1000
AcRTDxfName
1000
SYSTEM_VAR_INT
1000
AcRTDxfName
1000
SYSTEM_VAR_INT
1000
AcRTDxfName
1000
SYSTEM_VAR_INT
1000
AcRTDxfName
1000
SYSTEM_VAR_INT
  0
ACAD_PROXY_OBJECT
  5
A2
330
0
100
AcDbProxyObject
 90
      499
 91
      512
 95
   393235
 70
     0
 93
      124
310
000001429053541493D295165411501F
330
7F
 94
        0
1001
ACAD
1000
AcRTDxfName
1000
SYSTEM_VAR_INT
1000
AcRTDxfName
1000
SYSTEM_VAR_INT
1000
AcRTDxfName
1000
SYSTEM_VAR_INT
1000
AcRTDxfName
1000
SYSTEM_VAR_INT
1000
AcRTDxfName
1000
SYSTEM_VAR_INT
1000
AcRTDxfName
1000
SYSTEM_VAR_INT
1000
AcRTDxfName
1000
SYSTEM_VAR_INT
1000
AcRTDxfName
1000
SYSTEM_VAR_INT
  0
ACAD_PROXY_OBJECT
  5
A3
330
0
100
AcDbProxyObject
 90
      499
 91
      512
 95
   393235
 70
     0
 93
      124
310
00000142905354915554D1511253501F
330
7F
 94
        0
1001
ACAD
1000
AcRTDxfName
1000
SYSTEM_VAR_INT
1000
AcRTDxfName
1000
SYSTEM_VAR_INT
1000
AcRTDxfName
1000
SYSTEM_VAR_INT
1000
AcRTDxfName
1000
SYSTEM_VAR_INT
1000
AcRTDxfName
1000
SYSTEM_VAR_INT
1000
AcRTDxfName
1000
SYSTEM_VAR_INT
1000
AcRTDxfName
1000
SYSTEM_VAR_INT
1000
AcRTDxfName
1000
SYSTEM_VAR_INT
  0
ACAD_PROXY_OBJECT
  5
A4
330
0
100
AcDbProxyObject
 90
      499
 91
      512
 95
   393235
 70
     0
 93
      132
310
00000143105354D150D51253D39112536F
330
7F
 94
        0
1001
ACAD
1000
AcRTDxfName
1000
SYSTEM_VAR_INT
1000
AcRTDxfName
1000
SYSTEM_VAR_INT
1000
AcRTDxfName
1000
SYSTEM_VAR_INT
1000
AcRTDxfName
1000
SYSTEM_VAR_INT
1000
AcRTDxfName
1000
SYSTEM_VAR_INT
1000
AcRTDxfName
1000
SYSTEM_VAR_INT
1000
AcRTDxfName
1000
SYSTEM_VAR_INT
1000
AcRTDxfName
1000
SYSTEM_VAR_INT
  0
ACAD_PROXY_OBJECT
  5
A5
330
0
100
AcDbProxyObject
 90
      499
 91
      512
 95
   393235
 70
     0
 93
      124
310
00000142905355941093D4911154901F
330
7F
 94
        0
1001
ACAD
1000
AcRTDxfName
1000
SYSTEM_VAR_INT
1000
AcRTDxfName
1000
SYSTEM_VAR_INT
1000
AcRTDxfName
1000
SYSTEM_VAR_INT
1000
AcRTDxfName
1000
SYSTEM_VAR_INT
1000
AcRTDxfName
1000
SYSTEM_VAR_INT
1000
AcRTDxfName
1000
SYSTEM_VAR_INT
1000
AcRTDxfName
1000
SYSTEM_VAR_INT
1000
AcRTDxfName
1000
SYSTEM_VAR_INT
  0
ACAD_PROXY_OBJECT
  5
A6
330
0
100
AcDbProxyObject
 90
      499
 91
      512
 95
   393235
 70
     0
 93
      116
310
0000014290535115D1D0D3D313D4AF
330
7F
 94
        0
1001
ACAD
1000
AcRTDxfName
1000
SYSTEM_VAR_INT
1000
AcRTDxfName
1000
SYSTEM_VAR_INT
1000
AcRTDxfName
1000
SYSTEM_VAR_INT
1000
AcRTDxfName
1000
SYSTEM_VAR_INT
1000
AcRTDxfName
1000
SYSTEM_VAR_INT
1000
AcRTDxfName
1000
SYSTEM_VAR_INT
1000
AcRTDxfName
1000
SYSTEM_VAR_INT
1000
AcRTDxfName
1000
SYSTEM_VAR_INT
  0
ACAD_PROXY_OBJECT
  5
A7
330
0
100
AcDbProxyObject
 90
      499
 91
      514
 95
   393235
 70
     0
 93
      196
310
0000014290535212511315165411405085645524445434B54F
330
7F
 94
        0
1001
ACAD
1000
AcRTDxfName
1000
SYSTEM_VAR_STR
1000
AcRTDxfName
1000
SYSTEM_VAR_STR
1000
AcRTDxfName
1000
SYSTEM_VAR_STR
1000
AcRTDxfName
1000
SYSTEM_VAR_STR
1000
AcRTDxfName
1000
SYSTEM_VAR_STR
1000
AcRTDxfName
1000
SYSTEM_VAR_STR
1000
AcRTDxfName
1000
SYSTEM_VAR_STR
1000
AcRTDxfName
1000
SYSTEM_VAR_STR
  0
ACAD_PROXY_OBJECT
  5
A9
330
0
100
AcDbProxyObject
 90
      499
 91
      514
 95
   393235
 70
     0
 93
      196
310
00000142905354D150D315165411405085048414E544F4D32F
330
7F
 94
        0
1001
ACAD
1000
AcRTDxfName
1000
SYSTEM_VAR_STR
1000
AcRTDxfName
1000
SYSTEM_VAR_STR
1000
AcRTDxfName
1000
SYSTEM_VAR_STR
1000
AcRTDxfName
1000
SYSTEM_VAR_STR
1000
AcRTDxfName
1000
SYSTEM_VAR_STR
1000
AcRTDxfName
1000
SYSTEM_VAR_STR
1000
AcRTDxfName
1000
SYSTEM_VAR_STR
1000
AcRTDxfName
1000
SYSTEM_VAR_STR
  0
ACAD_PROXY_OBJECT
  5
AA
330
0
100
AcDbProxyObject
 90
      499
 91
      512
 95
   393235
 70
     0
 93
      108
310
00000142105354D51114D0D5102F
330
7F
 94
        0
1001
ACAD
1000
AcRTDxfName
1000
SYSTEM_VAR_INT
1000
AcRTDxfName
1000
SYSTEM_VAR_INT
1000
AcRTDxfName
1000
SYSTEM_VAR_INT
1000
AcRTDxfName
1000
SYSTEM_VAR_INT
1000
AcRTDxfName
1000
SYSTEM_VAR_INT
1000
AcRTDxfName
1000
SYSTEM_VAR_INT
1000
AcRTDxfName
1000
SYSTEM_VAR_INT
1000
AcRTDxfName
1000
SYSTEM_VAR_INT
  0
ACAD_PROXY_OBJECT
  5
AB
330
0
100
AcDbProxyObject
 90
      499
 91
      512
 95
   393235
 70
     0
 93
      108
310
00000142105354D511151054102F
330
7F
 94
        0
1001
ACAD
1000
AcRTDxfName
1000
SYSTEM_VAR_INT
1000
AcRTDxfName
1000
SYSTEM_VAR_INT
1000
AcRTDxfName
1000
SYSTEM_VAR_INT
1000
AcRTDxfName
1000
SYSTEM_VAR_INT
1000
AcRTDxfName
1000
SYSTEM_VAR_INT
1000
AcRTDxfName
1000
SYSTEM_VAR_INT
1000
AcRTDxfName
1000
SYSTEM_VAR_INT
1000
AcRTDxfName
1000
SYSTEM_VAR_INT
  0
ACAD_PROXY_OBJECT
  5
AC
330
0
100
AcDbProxyObject
 90
      499
 91
      512
 95
   393235
 70
     0
 93
      108
310
00000142105354D511111513102F
330
7F
 94
        0
1001
ACAD
1000
AcRTDxfName
1000
SYSTEM_VAR_INT
1000
AcRTDxfName
1000
SYSTEM_VAR_INT
1000
AcRTDxfName
1000
SYSTEM_VAR_INT
1000
AcRTDxfName
1000
SYSTEM_VAR_INT
1000
AcRTDxfName
1000
SYSTEM_VAR_INT
1000
AcRTDxfName
1000
SYSTEM_VAR_INT
1000
AcRTDxfName
1000
SYSTEM_VAR_INT
1000
AcRTDxfName
1000
SYSTEM_VAR_INT
  0
ACAD_PROXY_OBJECT
  5
AD
330
0
100
AcDbProxyObject
 90
      499
 91
      513
 95
   393235
 70
     0
 93
      148
310
00000141905350D310D34295C8FC2F528BC3FF
330
7F
 94
        0
1001
ACAD
1000
AcRTDxfName
1000
SYSTEM_VAR_REAL
1000
AcRTDxfName
1000
SYSTEM_VAR_REAL
1000
AcRTDxfName
1000
SYSTEM_VAR_REAL
1000
AcRTDxfName
1000
SYSTEM_VAR_REAL
1000
AcRTDxfName
1000
SYSTEM_VAR_REAL
1000
AcRTDxfName
1000
SYSTEM_VAR_REAL
1000
AcRTDxfName
1000
SYSTEM_VAR_REAL
1000
AcRTDxfName
1000
SYSTEM_VAR_REAL
  0
ACAD_PROXY_OBJECT
  5
AE
330
0
100
AcDbProxyObject
 90
      499
 91
      513
 95
   393235
 70
     0
 93
      156
310
00000141D05350D311D05402B8716D9CEF7C33FF
330
7F
 94
        0
1001
ACAD
1000
AcRTDxfName
1000
SYSTEM_VAR_REAL
1000
AcRTDxfName
1000
SYSTEM_VAR_REAL
1000
AcRTDxfName
1000
SYSTEM_VAR_REAL
1000
AcRTDxfName
1000
SYSTEM_VAR_REAL
1000
AcRTDxfName
1000
SYSTEM_VAR_REAL
1000
AcRTDxfName
1000
SYSTEM_VAR_REAL
1000
AcRTDxfName
1000
SYSTEM_VAR_REAL
1000
AcRTDxfName
1000
SYSTEM_VAR_REAL
  0
ACAD_PROXY_OBJECT
  5
AF
330
0
100
AcDbProxyObject
 90
      499
 91
      513
 95
   393235
 70
     0
 93
      164
310
00000142105350D313D4D2150295C8FC2F528BC3FF
330
7F
 94
        0
1001
ACAD
1000
AcRTDxfName
1000
SYSTEM_VAR_REAL
1000
AcRTDxfName
1000
SYSTEM_VAR_REAL
1000
AcRTDxfName
1000
SYSTEM_VAR_REAL
1000
AcRTDxfName
1000
SYSTEM_VAR_REAL
1000
AcRTDxfName
1000
SYSTEM_VAR_REAL
1000
AcRTDxfName
1000
SYSTEM_VAR_REAL
1000
AcRTDxfName
1000
SYSTEM_VAR_REAL
1000
AcRTDxfName
1000
SYSTEM_VAR_REAL
  0
ACAD_PROXY_OBJECT
  5
B0
330
0
100
AcDbProxyObject
 90
      499
 91
      512
 95
   393235
 70
     0
 93
      100
310
00000141D05350D3141054901F
330
7F
 94
        0
1001
ACAD
1000
AcRTDxfName
1000
SYSTEM_VAR_INT
1000
AcRTDxfName
1000
SYSTEM_VAR_INT
1000
AcRTDxfName
1000
SYSTEM_VAR_INT
1000
AcRTDxfName
1000
SYSTEM_VAR_INT
1000
AcRTDxfName
1000
SYSTEM_VAR_INT
1000
AcRTDxfName
1000
SYSTEM_VAR_INT
1000
AcRTDxfName
1000
SYSTEM_VAR_INT
1000
AcRTDxfName
1000
SYSTEM_VAR_INT
  0
ACAD_PROXY_OBJECT
  5
B1
330
0
100
AcDbProxyObject
 90
      499
 91
      512
 95
   393235
 70
     0
 93
      100
310
0000014210535590539254D22F
330
7F
 94
        0
1001
ACAD
1000
AcRTDxfName
1000
SYSTEM_VAR_INT
1000
AcRTDxfName
1000
SYSTEM_VAR_INT
1000
AcRTDxfName
1000
SYSTEM_VAR_INT
1000
AcRTDxfName
1000
SYSTEM_VAR_INT
1000
AcRTDxfName
1000
SYSTEM_VAR_INT
1000
AcRTDxfName
1000
SYSTEM_VAR_INT
1000
AcRTDxfName
1000
SYSTEM_VAR_INT
1000
AcRTDxfName
1000
SYSTEM_VAR_INT
  0
ACAD_PROXY_OBJECT
  5
B2
330
0
100
AcDbProxyObject
 90
      499
 91
      513
 95
   393235
 70
     0
 93
      188
310
00000142D0535312539155121250D2C295C8FC2F5289C3FF
330
7F
 94
        0
1001
ACAD
1000
AcRTDxfName
1000
SYSTEM_VAR_REAL
1000
AcRTDxfName
1000
SYSTEM_VAR_REAL
1000
AcRTDxfName
1000
SYSTEM_VAR_REAL
1000
AcRTDxfName
1000
SYSTEM_VAR_REAL
1000
AcRTDxfName
1000
SYSTEM_VAR_REAL
1000
AcRTDxfName
1000
SYSTEM_VAR_REAL
1000
AcRTDxfName
1000
SYSTEM_VAR_REAL
1000
AcRTDxfName
1000
SYSTEM_VAR_REAL
  0
ACAD_PROXY_OBJECT
  5
B3
330
0
100
AcDbProxyObject
 90
      499
 91
      514
 95
   393235
 70
     0
 93
      156
310
00000142105350D315165411405054D49545445F
330
7F
 94
        0
1001
ACAD
1000
AcRTDxfName
1000
SYSTEM_VAR_STR
1000
AcRTDxfName
1000
SYSTEM_VAR_STR
1000
AcRTDxfName
1000
SYSTEM_VAR_STR
1000
AcRTDxfName
1000
SYSTEM_VAR_STR
1000
AcRTDxfName
1000
SYSTEM_VAR_STR
1000
AcRTDxfName
1000
SYSTEM_VAR_STR
1000
AcRTDxfName
1000
SYSTEM_VAR_STR
1000
AcRTDxfName
1000
SYSTEM_VAR_STR
  0
ACAD_PROXY_OBJECT
  5
BC
330
0
100
AcDbProxyObject
 90
      499
 91
      512
 95
   393235
 70
     0
 93
      132
310
00000142D05050555513D4D3D31591501F
330
7F
 94
        0
1001
ACAD
1000
AcRTDxfName
1000
SYSTEM_VAR_INT
1000
AcRTDxfName
1000
SYSTEM_VAR_INT
1000
AcRTDxfName
1000
SYSTEM_VAR_INT
1000
AcRTDxfName
1000
SYSTEM_VAR_INT
1000
AcRTDxfName
1000
SYSTEM_VAR_INT
1000
AcRTDxfName
1000
SYSTEM_VAR_INT
1000
AcRTDxfName
1000
SYSTEM_VAR_INT
1000
AcRTDxfName
1000
SYSTEM_VAR_INT
  0
ACAD_PROXY_OBJECT
  5
BD
330
0
100
AcDbProxyObject
 90
      499
 91
      512
 95
   393235
 70
     0
 93
      156
310
00000143905050555513D054D4D153509311501F
330
7F
 94
        0
1001
ACAD
1000
AcRTDxfName
1000
SYSTEM_VAR_INT
1000
AcRTDxfName
1000
SYSTEM_VAR_INT
1000
AcRTDxfName
1000
SYSTEM_VAR_INT
1000
AcRTDxfName
1000
SYSTEM_VAR_INT
1000
AcRTDxfName
1000
SYSTEM_VAR_INT
1000
AcRTDxfName
1000
SYSTEM_VAR_INT
1000
AcRTDxfName
1000
SYSTEM_VAR_INT
1000
AcRTDxfName
1000
SYSTEM_VAR_INT
  0
ACAD_PROXY_OBJECT
  5
BE
330
0
100
AcDbProxyObject
 90
      499
 91
      512
 95
   393235
 70
     0
 93
      148
310
00000143505055925155D49154D513D491501F
330
7F
 94
        0
1001
ACAD
1000
AcRTDxfName
1000
SYSTEM_VAR_INT
1000
AcRTDxfName
1000
SYSTEM_VAR_INT
1000
AcRTDxfName
1000
SYSTEM_VAR_INT
1000
AcRTDxfName
1000
SYSTEM_VAR_INT
1000
AcRTDxfName
1000
SYSTEM_VAR_INT
1000
AcRTDxfName
1000
SYSTEM_VAR_INT
1000
AcRTDxfName
1000
SYSTEM_VAR_INT
1000
AcRTDxfName
1000
SYSTEM_VAR_INT
  0
ACAD_PROXY_OBJECT
  5
BF
330
0
100
AcDbProxyObject
 90
      499
 91
      512
 95
   393235
 70
     0
 93
      124
310
00000142D050525394D15495105094EF
330
7F
 94
        0
1001
ACAD
1000
AcRTDxfName
1000
SYSTEM_VAR_INT
1000
AcRTDxfName
1000
SYSTEM_VAR_INT
1000
AcRTDxfName
1000
SYSTEM_VAR_INT
1000
AcRTDxfName
1000
SYSTEM_VAR_INT
1000
AcRTDxfName
1000
SYSTEM_VAR_INT
1000
AcRTDxfName
1000
SYSTEM_VAR_INT
1000
AcRTDxfName
1000
SYSTEM_VAR_INT
1000
AcRTDxfName
1000
SYSTEM_VAR_INT
  0
ACAD_PROXY_OBJECT
  5
C6
330
0
100
AcDbProxyObject
 90
      499
 91
      531
 95
   393235
 70
     0
 93
       32
310
0000000000
330
7F
340
C3
330
C7
330
C3
 94
        0
1001
ACAD
1000
AcRTDxfName
1000
ACAMGRCOMPDEF
1000
AcRTDxfName
1000
ACAMGRCOMPDEF
1000
AcRTDxfName
1000
ACAMGRCOMPDEF
1000
AcRTDxfName
1000
ACAMGRCOMPDEF
1000
AcRTDxfName
1000
ACAMGRCOMPDEF
1000
AcRTDxfName
1000
ACAMGRCOMPDEF
1000
AcRTDxfName
1000
ACAMGRCOMPDEF
1000
AcRTDxfName
1000
ACAMGRCOMPDEF
  0
ACAD_PROXY_OBJECT
  5
C7
330
0
100
AcDbProxyObject
 90
      499
 91
      532
 95
   393235
 70
     0
 93
      143
310
0000014213905351539313D4D0400522080D
330
7F
330
C6
 94
        0
1001
ACAD
1000
AcRTDxfName
1000
ACAMCOMPDEF
1000
AcRTDxfName
1000
ACAMCOMPDEF
1000
AcRTDxfName
1000
ACAMCOMPDEF
1000
AcRTDxfName
1000
ACAMCOMPDEF
1000
AcRTDxfName
1000
ACAMCOMPDEF
1000
AcRTDxfName
1000
ACAMCOMPDEF
1000
AcRTDxfName
1000
ACAMCOMPDEF
1000
AcRTDxfName
1000
ACAMCOMPDEF
  0
ACAD_PROXY_OBJECT
  5
C8
330
0
100
AcDbProxyObject
 90
      499
 91
      533
 95
   393235
 70
     0
 93
       72
310
000000A44101A4410140
330
7F
330
C7
 94
        0
1001
ACAD
1000
AcRTDxfName
1000
ACAMCOMPDEFMGR
1000
AcRTDxfName
1000
ACAMCOMPDEFMGR
1000
AcRTDxfName
1000
ACAMCOMPDEFMGR
1000
AcRTDxfName
1000
ACAMCOMPDEFMGR
1000
AcRTDxfName
1000
ACAMCOMPDEFMGR
1000
AcRTDxfName
1000
ACAMCOMPDEFMGR
1000
AcRTDxfName
1000
ACAMCOMPDEFMGR
1000
AcRTDxfName
1000
ACAMCOMPDEFMGR
  0
ACAD_PROXY_OBJECT
  5
C9
330
0
100
AcDbProxyObject
 90
      499
 91
      534
 95
   393235
 70
     0
 93
       80
310
0000901441010000000066
330
7F
330
CA
330
CA
330
CA
330
CA
 94
        0
1001
ACAD
1000
AcRTDxfName
1000
AMCONTEXTMGR
1000
AcRTDxfName
1000
AMCONTEXTMGR
1000
AcRTDxfName
1000
AMCONTEXTMGR
1000
AcRTDxfName
1000
AMCONTEXTMGR
1000
AcRTDxfName
1000
AMCONTEXTMGR
1000
AcRTDxfName
1000
AMCONTEXTMGR
1000
AcRTDxfName
1000
AMCONTEXTMGR
1000
AcRTDxfName
1000
AMCONTEXTMGR
  0
ACAD_PROXY_OBJECT
  5
CA
330
0
100
AcDbProxyObject
 90
      499
 91
      535
 95
   393235
 70
     0
 93
      173
310
00000000406AAAAAAAAAAAAAAAAA806A44101A441017
330
7F
330
C9
330
C7
 94
        0
1001
ACAD
1000
AcRTDxfName
1000
ACAMCONTEXTMODELER
1000
AcRTDxfName
1000
ACAMCONTEXTMODELER
1000
AcRTDxfName
1000
ACAMCONTEXTMODELER
1000
AcRTDxfName
1000
ACAMCONTEXTMODELER
1000
AcRTDxfName
1000
ACAMCONTEXTMODELER
1000
AcRTDxfName
1000
ACAMCONTEXTMODELER
1000
AcRTDxfName
1000
ACAMCONTEXTMODELER
1000
AcRTDxfName
1000
ACAMCONTEXTMODELER
  0
ACAD_PROXY_OBJECT
  5
CE
330
0
100
AcDbProxyObject
 90
      499
 91
      536
 95
   393235
 70
     0
 93
       26
310
0000803F
330
7F
330
0
 94
        0
1001
ACAD
1000
AcRTDxfName
1000
ACAMDRAWINGMAN
1000
AcRTDxfName
1000
ACAMDRAWINGMAN
1000
AcRTDxfName
1000
ACAMDRAWINGMAN
1000
AcRTDxfName
1000
ACAMDRAWINGMAN
1000
AcRTDxfName
1000
ACAMDRAWINGMAN
1000
AcRTDxfName
1000
ACAMDRAWINGMAN
1000
AcRTDxfName
1000
ACAMDRAWINGMAN
1000
AcRTDxfName
1000
ACAMDRAWINGMAN
  0
XRECORD
  5
125A
102
{ACAD_REACTORS
330
1258
102
}
330
1258
100
AcDbXrecord
280
     1
330
E0B
330
E9C
330
E9F
330
ED7
  0
DICTIONARY
  5
6CC
102
{ACAD_REACTORS
330
3B
102
}
330
3B
100
AcDbDictionary
281
     1
  3
PH_GRPMEMBERS
350
D36
  0
DICTIONARY
  5
714
102
{ACAD_REACTORS
330
3B
102
}
330
3B
100
AcDbDictionary
281
     1
  3
PH_GRPMEMBERS
350
D3F
  0
DICTIONARY
  5
745
102
{ACAD_REACTORS
330
3B
102
}
330
3B
100
AcDbDictionary
281
     1
  3
$PH$AAAA
350
749
  3
$PH$AAAB
350
74E
  3
PH_GRPMEMBERS
350
D42
  0
DICTIONARY
  5
754
102
{ACAD_REACTORS
330
3B
102
}
330
3B
100
AcDbDictionary
281
     1
  3
PH_GRPMEMBERS
350
D43
  0
DICTIONARY
  5
763
102
{ACAD_REACTORS
330
3B
102
}
330
3B
100
AcDbDictionary
281
     1
  3
PH_GRPMEMBERS
350
D44
  0
DICTIONARY
  5
76E
102
{ACAD_REACTORS
330
3B
102
}
330
3B
100
AcDbDictionary
281
     1
  3
PH_GRPMEMBERS
350
D45
  0
DICTIONARY
  5
778
102
{ACAD_REACTORS
330
3B
102
}
330
3B
100
AcDbDictionary
281
     1
  3
PH_GRPMEMBERS
350
D46
  0
DICTIONARY
  5
783
102
{ACAD_REACTORS
330
3B
102
}
330
3B
100
AcDbDictionary
281
     1
  3
$PH$AAAA
350
785
  3
$PH$AAAB
350
7B7
  3
$PH$AAAC
350
812
  3
$PH$AAAD
350
816
  3
$PH$AAAE
350
876
  3
PH_GRPMEMBERS
350
D4C
  0
DICTIONARY
  5
B71
102
{ACAD_REACTORS
330
3B
102
}
330
3B
100
AcDbDictionary
281
     1
  3
PH_GRPMEMBERS
350
D70
  0
DICTIONARY
  5
B79
102
{ACAD_REACTORS
330
3B
102
}
330
3B
100
AcDbDictionary
281
     1
  3
PH_GRPMEMBERS
350
D71
  0
DICTIONARY
  5
E0C
102
{ACAD_REACTORS
330
3B
102
}
330
3B
100
AcDbDictionary
281
     1
  3
PH_GRPMEMBERS
350
E0D
  0
DICTIONARY
  5
EDA
102
{ACAD_REACTORS
330
3B
102
}
330
3B
100
AcDbDictionary
281
     1
  3
$PH$AAAA
350
EDB
  3
PH_GRPMEMBERS
350
EDF
  0
DICTIONARY
  5
1480
330
D2B
100
AcDbDictionary
280
     1
281
     1
  3
ACAD_XREC_ROUNDTRIP
360
1481
  0
DICTIONARY
  5
147E
330
D2A
100
AcDbDictionary
280
     1
281
     1
  3
ACAD_XREC_ROUNDTRIP
360
147F
  0
DICTIONARY
  5
CDE
330
CDD
100
AcDbDictionary
280
     1
281
     1
  3
ACAD_XREC_ROUNDTRIP
360
1455
  3
BUMPTILE
360
CE0
  3
DIFFUSETILE
360
CDF
  3
OPACITYTILE
360
CE3
  3
REFLECTIONTILE
360
CE2
  3
REFRACTIONTILE
360
CE4
  3
SPECULARTILE
360
CE1
  0
DICTIONARY
  5
CD6
330
CD5
100
AcDbDictionary
280
     1
281
     1
  3
ACAD_XREC_ROUNDTRIP
360
1454
  3
BUMPTILE
360
CD8
  3
DIFFUSETILE
360
CD7
  3
OPACITYTILE
360
CDB
  3
REFLECTIONTILE
360
CDA
  3
REFRACTIONTILE
360
CDC
  3
SPECULARTILE
360
CD9
  0
DICTIONARY
  5
CE6
330
CE5
100
AcDbDictionary
280
     1
281
     1
  3
ACAD_XREC_ROUNDTRIP
360
1456
  3
BUMPTILE
360
CE8
  3
DIFFUSETILE
360
CE7
  3
OPACITYTILE
360
CEB
  3
REFLECTIONTILE
360
CEA
  3
REFRACTIONTILE
360
CEC
  3
SPECULARTILE
360
CE9
  0
DICTIONARY
  5
F8C
330
D03
100
AcDbDictionary
280
     1
281
     1
  3
ACAD_ROUNDTRIP_2008_TABLESTYLE_CELLSTYLEMAP
360
144F
  3
ACAD_XREC_ROUNDTRIP
360
147D
  0
DICTIONARY
  5
1461
330
CF3
100
AcDbDictionary
280
     1
281
     1
  3
ACAD_XREC_ROUNDTRIP
360
1462
  0
DICTIONARY
  5
1465
330
CF5
100
AcDbDictionary
280
     1
281
     1
  3
ACAD_XREC_ROUNDTRIP
360
1466
  0
DICTIONARY
  5
1463
330
CF4
100
AcDbDictionary
280
     1
281
     1
  3
ACAD_XREC_ROUNDTRIP
360
1464
  0
DICTIONARY
  5
145F
330
CF2
100
AcDbDictionary
280
     1
281
     1
  3
ACAD_XREC_ROUNDTRIP
360
1460
  0
DICTIONARY
  5
146D
330
CF9
100
AcDbDictionary
280
     1
281
     1
  3
ACAD_XREC_ROUNDTRIP
360
146E
  0
DICTIONARY
  5
1475
330
CFD
100
AcDbDictionary
280
     1
281
     1
  3
ACAD_XREC_ROUNDTRIP
360
1476
  0
DICTIONARY
  5
1467
330
CF6
100
AcDbDictionary
280
     1
281
     1
  3
ACAD_XREC_ROUNDTRIP
360
1468
  0
DICTIONARY
  5
146B
330
CF8
100
AcDbDictionary
280
     1
281
     1
  3
ACAD_XREC_ROUNDTRIP
360
146C
  0
DICTIONARY
  5
147B
330
D00
100
AcDbDictionary
280
     1
281
     1
  3
ACAD_XREC_ROUNDTRIP
360
147C
  0
DICTIONARY
  5
1473
330
CFC
100
AcDbDictionary
280
     1
281
     1
  3
ACAD_XREC_ROUNDTRIP
360
1474
  0
DICTIONARY
  5
1457
330
CEE
100
AcDbDictionary
280
     1
281
     1
  3
ACAD_XREC_ROUNDTRIP
360
1458
  0
DICTIONARY
  5
1459
330
CEF
100
AcDbDictionary
280
     1
281
     1
  3
ACAD_XREC_ROUNDTRIP
360
145A
  0
DICTIONARY
  5
145B
330
CF0
100
AcDbDictionary
280
     1
281
     1
  3
ACAD_XREC_ROUNDTRIP
360
145C
  0
DICTIONARY
  5
145D
330
CF1
100
AcDbDictionary
280
     1
281
     1
  3
ACAD_XREC_ROUNDTRIP
360
145E
  0
DICTIONARY
  5
1477
330
CFE
100
AcDbDictionary
280
     1
281
     1
  3
ACAD_XREC_ROUNDTRIP
360
1478
  0
DICTIONARY
  5
1471
330
CFB
100
AcDbDictionary
280
     1
281
     1
  3
ACAD_XREC_ROUNDTRIP
360
1472
  0
DICTIONARY
  5
1479
330
CFF
100
AcDbDictionary
280
     1
281
     1
  3
ACAD_XREC_ROUNDTRIP
360
147A
  0
DICTIONARY
  5
1469
330
CF7
100
AcDbDictionary
280
     1
281
     1
  3
ACAD_XREC_ROUNDTRIP
360
146A
  0
DICTIONARY
  5
146F
330
CFA
100
AcDbDictionary
280
     1
281
     1
  3
ACAD_XREC_ROUNDTRIP
360
1470
  0
PH_GROUP
  5
D36
102
{ACAD_REACTORS
330
6CC
102
}
330
6CC
  0
PH_GROUP
  5
D3F
102
{ACAD_REACTORS
330
714
102
}
330
714
  0
DICTIONARY
  5
749
102
{ACAD_REACTORS
330
745
102
}
330
745
100
AcDbDictionary
281
     1
  3
PH_GRPMEMBERS
350
D40
  0
DICTIONARY
  5
74E
102
{ACAD_REACTORS
330
745
102
}
330
745
100
AcDbDictionary
281
     1
  3
PH_GRPMEMBERS
350
D41
  0
PH_GROUP
  5
D42
102
{ACAD_REACTORS
330
745
102
}
330
745
  0
PH_GROUP
  5
D43
102
{ACAD_REACTORS
330
754
102
}
330
754
  0
PH_GROUP
  5
D44
102
{ACAD_REACTORS
330
763
102
}
330
763
  0
PH_GROUP
  5
D45
102
{ACAD_REACTORS
330
76E
102
}
330
76E
  0
PH_GROUP
  5
D46
102
{ACAD_REACTORS
330
778
102
}
330
778
  0
DICTIONARY
  5
785
102
{ACAD_REACTORS
330
783
102
}
330
783
100
AcDbDictionary
281
     1
  3
PH_GRPMEMBERS
350
D47
  0
DICTIONARY
  5
7B7
102
{ACAD_REACTORS
330
783
102
}
330
783
100
AcDbDictionary
281
     1
  3
PH_GRPMEMBERS
350
D48
  0
DICTIONARY
  5
812
102
{ACAD_REACTORS
330
783
102
}
330
783
100
AcDbDictionary
281
     1
  3
PH_GRPMEMBERS
350
D49
  0
DICTIONARY
  5
816
102
{ACAD_REACTORS
330
783
102
}
330
783
100
AcDbDictionary
281
     1
  3
PH_GRPMEMBERS
350
D4A
  0
DICTIONARY
  5
876
102
{ACAD_REACTORS
330
783
102
}
330
783
100
AcDbDictionary
281
     1
  3
PH_GRPMEMBERS
350
D4B
  0
PH_GROUP
  5
D4C
102
{ACAD_REACTORS
330
783
102
}
330
783
  0
PH_GROUP
  5
D70
102
{ACAD_REACTORS
330
B71
102
}
330
B71
  0
PH_GROUP
  5
D71
102
{ACAD_REACTORS
330
B79
102
}
330
B79
  0
PH_GROUP
  5
E0D
102
{ACAD_REACTORS
330
E0C
102
}
330
E0C
  0
DICTIONARY
  5
EDB
102
{ACAD_REACTORS
330
EDA
102
}
330
EDA
100
AcDbDictionary
281
     1
  3
$PH$AAAA
350
EDC
  3
PH_GRPMEMBERS
350
EDE
  0
PH_GROUP
  5
EDF
102
{ACAD_REACTORS
330
EDA
102
}
330
EDA
  0
XRECORD
  5
1481
102
{ACAD_REACTORS
330
1480
102
}
330
1480
100
AcDbXrecord
280
     1
102
SHADEPLOT
 70
     0
102
SHADEPLOTRESLEVEL
 70
     2
102
SHADEPLOTCUSTOMDPI
 70
   300
  0
XRECORD
  5
147F
102
{ACAD_REACTORS
330
147E
102
}
330
147E
100
AcDbXrecord
280
     1
102
SHADEPLOT
 70
     0
102
SHADEPLOTRESLEVEL
 70
     2
102
SHADEPLOTCUSTOMDPI
 70
   300
  0
XRECORD
  5
1455
102
{ACAD_REACTORS
330
CDE
102
}
330
CDE
100
AcDbXrecord
280
     1
102
MATERIAL
148
0.0
149
0.0
149
0.0
 93
        0
 94
      127
282
     0
 72
     0
 77
     0
171
     0
175
     0
179
     0
273
     0
  0
XRECORD
  5
CE0
102
{ACAD_REACTORS
330
CDE
102
}
330
CDE
100
AcDbXrecord
280
     1
270
     1
271
     1
  0
XRECORD
  5
CDF
102
{ACAD_REACTORS
330
CDE
102
}
330
CDE
100
AcDbXrecord
280
     1
270
     1
271
     1
  0
XRECORD
  5
CE3
102
{ACAD_REACTORS
330
CDE
102
}
330
CDE
100
AcDbXrecord
280
     1
270
     1
271
     1
  0
XRECORD
  5
CE2
102
{ACAD_REACTORS
330
CDE
102
}
330
CDE
100
AcDbXrecord
280
     1
270
     1
271
     1
  0
XRECORD
  5
CE4
102
{ACAD_REACTORS
330
CDE
102
}
330
CDE
100
AcDbXrecord
280
     1
270
     1
271
     1
  0
XRECORD
  5
CE1
102
{ACAD_REACTORS
330
CDE
102
}
330
CDE
100
AcDbXrecord
280
     1
270
     1
271
     1
  0
XRECORD
  5
1454
102
{ACAD_REACTORS
330
CD6
102
}
330
CD6
100
AcDbXrecord
280
     1
102
MATERIAL
148
0.0
149
0.0
149
0.0
 93
        0
 94
      127
282
     0
 72
     0
 77
     0
171
     0
175
     0
179
     0
273
     0
  0
XRECORD
  5
CD8
102
{ACAD_REACTORS
330
CD6
102
}
330
CD6
100
AcDbXrecord
280
     1
270
     1
271
     1
  0
XRECORD
  5
CD7
102
{ACAD_REACTORS
330
CD6
102
}
330
CD6
100
AcDbXrecord
280
     1
270
     1
271
     1
  0
XRECORD
  5
CDB
102
{ACAD_REACTORS
330
CD6
102
}
330
CD6
100
AcDbXrecord
280
     1
270
     1
271
     1
  0
XRECORD
  5
CDA
102
{ACAD_REACTORS
330
CD6
102
}
330
CD6
100
AcDbXrecord
280
     1
270
     1
271
     1
  0
XRECORD
  5
CDC
102
{ACAD_REACTORS
330
CD6
102
}
330
CD6
100
AcDbXrecord
280
     1
270
     1
271
     1
  0
XRECORD
  5
CD9
102
{ACAD_REACTORS
330
CD6
102
}
330
CD6
100
AcDbXrecord
280
     1
270
     1
271
     1
  0
XRECORD
  5
1456
102
{ACAD_REACTORS
330
CE6
102
}
330
CE6
100
AcDbXrecord
280
     1
102
MATERIAL
148
0.0
149
0.0
149
0.0
 93
        0
 94
      127
282
     0
 72
     0
 77
     0
171
     0
175
     0
179
     0
273
     0
  0
XRECORD
  5
CE8
102
{ACAD_REACTORS
330
CE6
102
}
330
CE6
100
AcDbXrecord
280
     1
270
     1
271
     1
  0
XRECORD
  5
CE7
102
{ACAD_REACTORS
330
CE6
102
}
330
CE6
100
AcDbXrecord
280
     1
270
     1
271
     1
  0
XRECORD
  5
CEB
102
{ACAD_REACTORS
330
CE6
102
}
330
CE6
100
AcDbXrecord
280
     1
270
     1
271
     1
  0
XRECORD
  5
CEA
102
{ACAD_REACTORS
330
CE6
102
}
330
CE6
100
AcDbXrecord
280
     1
270
     1
271
     1
  0
XRECORD
  5
CEC
102
{ACAD_REACTORS
330
CE6
102
}
330
CE6
100
AcDbXrecord
280
     1
270
     1
271
     1
  0
XRECORD
  5
CE9
102
{ACAD_REACTORS
330
CE6
102
}
330
CE6
100
AcDbXrecord
280
     1
270
     1
271
     1
  0
CELLSTYLEMAP
  5
144F
102
{ACAD_REACTORS
330
F8C
102
}
330
F8C
100
AcDbCellStyleMap
 90
        3
300
CELLSTYLE
  1
TABLEFORMAT_BEGIN
 90
        5
170
     1
 91
        0
 92
    32768
 62
   257
 93
        1
300
CONTENTFORMAT
  1
CONTENTFORMAT_BEGIN
 90
        0
 91
        0
 92
      512
 93
        0
300

 40
0.0
140
1.0
 94
        5
 62
     0
340
10
144
0.25
309
CONTENTFORMAT_END
171
     0
 94
        0
309
TABLEFORMAT_END
  1
CELLSTYLE_BEGIN
 90
        1
 91
        1
300
_TITLE
309
CELLSTYLE_END
300
CELLSTYLE
  1
TABLEFORMAT_BEGIN
 90
        5
170
     1
 91
        0
 92
        0
 62
   257
 93
        1
300
CONTENTFORMAT
  1
CONTENTFORMAT_BEGIN
 90
        0
 91
        0
 92
      512
 93
        0
300

 40
0.0
140
1.0
 94
        5
 62
     0
340
10
144
0.18
309
CONTENTFORMAT_END
171
     0
 94
        0
309
TABLEFORMAT_END
  1
CELLSTYLE_BEGIN
 90
        2
 91
        1
300
_HEADER
309
CELLSTYLE_END
300
CELLSTYLE
  1
TABLEFORMAT_BEGIN
 90
        5
170
     1
 91
        0
 92
        0
 62
   257
 93
        1
300
CONTENTFORMAT
  1
CONTENTFORMAT_BEGIN
 90
        0
 91
        0
 92
      512
 93
        0
300

 40
0.0
140
1.0
 94
        2
 62
     0
340
10
144
0.18
309
CONTENTFORMAT_END
171
     0
 94
        0
309
TABLEFORMAT_END
  1
CELLSTYLE_BEGIN
 90
        3
 91
        2
300
_DATA
309
CELLSTYLE_END
  0
XRECORD
  5
147D
102
{ACAD_REACTORS
330
F8C
102
}
330
F8C
100
AcDbXrecord
280
     1
102
ACAD_ROUNDTRIP_PRE2007_TABLESTYLE
 90
      512
 91
        0
  1

 92
      512
 93
        0
  2

 94
      512
 95
        0
  3

  0
XRECORD
  5
1462
102
{ACAD_REACTORS
330
1461
102
}
330
1461
100
AcDbXrecord
280
     1
102
RTVSPropertyOp0
 70
     1
102
RTVSPropertyOp1
 70
     1
102
RTVSPropertyOp2
 70
     1
102
RTVSPropertyOp3
 70
     1
102
RTVSPropertyOp4
 70
     1
102
RTVSPropertyOp5
 70
     1
102
RTVSPropertyOp6
 70
     1
102
RTVSPropertyOp7
 70
     1
102
RTVSPropertyOp8
 70
     1
102
RTVSPropertyOp9
 70
     1
102
RTVSPropertyOp10
 70
     1
102
RTVSPropertyOp11
 70
     1
102
RTVSPropertyOp12
 70
     1
102
RTVSPropertyOp13
 70
     1
102
RTVSPropertyOp14
 70
     1
102
RTVSPropertyOp15
 70
     1
102
RTVSPropertyOp16
 70
     1
102
RTVSPropertyOp17
 70
     1
102
RTVSPropertyOp18
 70
     1
102
RTVSPropertyOp19
 70
     1
102
RTVSPropertyOp20
 70
     1
102
RTVSPropertyOp21
 70
     1
102
RTVSPropertyOp22
 70
     1
102
RTVSPropertyOp23
 70
     1
102
RTVSPropertyOp24
 70
     1
102
RTVSPropertyOp25
 70
     1
102
RTVSPropertyOp26
 70
     1
102
RTVSPropertyOp27
 70
     1
  0
XRECORD
  5
1466
102
{ACAD_REACTORS
330
1465
102
}
330
1465
100
AcDbXrecord
280
     1
102
RTVSPropertyOp0
 70
     1
102
RTVSPropertyOp1
 70
     1
102
RTVSPropertyOp2
 70
     1
102
RTVSPropertyOp3
 70
     1
102
RTVSPropertyOp4
 70
     1
102
RTVSPropertyOp5
 70
     1
102
RTVSPropertyOp6
 70
     1
102
RTVSPropertyOp7
 70
     1
102
RTVSPropertyOp8
 70
     1
102
RTVSPropertyOp9
 70
     1
102
RTVSPropertyOp10
 70
     1
102
RTVSPropertyOp11
 70
     1
102
RTVSPropertyOp12
 70
     1
102
RTVSPropertyOp13
 70
     1
102
RTVSPropertyOp14
 70
     1
102
RTVSPropertyOp15
 70
     1
102
RTVSPropertyOp16
 70
     1
102
RTVSPropertyOp17
 70
     1
102
RTVSPropertyOp18
 70
     1
102
RTVSPropertyOp19
 70
     1
102
RTVSPropertyOp20
 70
     1
102
RTVSPropertyOp21
 70
     1
102
RTVSPropertyOp22
 70
     1
102
RTVSPropertyOp23
 70
     1
102
RTVSPropertyOp24
 70
     1
102
RTVSPropertyOp25
 70
     1
102
RTVSPropertyOp26
 70
     1
102
RTVSPropertyOp27
 70
     1
  0
XRECORD
  5
1464
102
{ACAD_REACTORS
330
1463
102
}
330
1463
100
AcDbXrecord
280
     1
102
RTVSPropertyOp0
 70
     1
102
RTVSPropertyOp1
 70
     1
102
RTVSPropertyOp2
 70
     1
102
RTVSPropertyOp3
 70
     1
102
RTVSPropertyOp4
 70
     1
102
RTVSPropertyOp5
 70
     1
102
RTVSPropertyOp6
 70
     1
102
RTVSPropertyOp7
 70
     1
102
RTVSPropertyOp8
 70
     1
102
RTVSPropertyOp9
 70
     1
102
RTVSPropertyOp10
 70
     1
102
RTVSPropertyOp11
 70
     1
102
RTVSPropertyOp12
 70
     1
102
RTVSPropertyOp13
 70
     1
102
RTVSPropertyOp14
 70
     1
102
RTVSPropertyOp15
 70
     1
102
RTVSPropertyOp16
 70
     1
102
RTVSPropertyOp17
 70
     1
102
RTVSPropertyOp18
 70
     1
102
RTVSPropertyOp19
 70
     1
102
RTVSPropertyOp20
 70
     1
102
RTVSPropertyOp21
 70
     1
102
RTVSPropertyOp22
 70
     1
102
RTVSPropertyOp23
 70
     1
102
RTVSPropertyOp24
 70
     1
102
RTVSPropertyOp25
 70
     1
102
RTVSPropertyOp26
 70
     1
102
RTVSPropertyOp27
 70
     1
  0
XRECORD
  5
1460
102
{ACAD_REACTORS
330
145F
102
}
330
145F
100
AcDbXrecord
280
     1
102
RTVSPropertyOp0
 70
     1
102
RTVSPropertyOp1
 70
     1
102
RTVSPropertyOp2
 70
     1
102
RTVSPropertyOp3
 70
     1
102
RTVSPropertyOp4
 70
     1
102
RTVSPropertyOp5
 70
     1
102
RTVSPropertyOp6
 70
     1
102
RTVSPropertyOp7
 70
     1
102
RTVSPropertyOp8
 70
     1
102
RTVSPropertyOp9
 70
     1
102
RTVSPropertyOp10
 70
     1
102
RTVSPropertyOp11
 70
     1
102
RTVSPropertyOp12
 70
     1
102
RTVSPropertyOp13
 70
     1
102
RTVSPropertyOp14
 70
     1
102
RTVSPropertyOp15
 70
     1
102
RTVSPropertyOp16
 70
     1
102
RTVSPropertyOp17
 70
     1
102
RTVSPropertyOp18
 70
     1
102
RTVSPropertyOp19
 70
     1
102
RTVSPropertyOp20
 70
     1
102
RTVSPropertyOp21
 70
     1
102
RTVSPropertyOp22
 70
     1
102
RTVSPropertyOp23
 70
     1
102
RTVSPropertyOp24
 70
     1
102
RTVSPropertyOp25
 70
     1
102
RTVSPropertyOp26
 70
     1
102
RTVSPropertyOp27
 70
     1
  0
XRECORD
  5
146E
102
{ACAD_REACTORS
330
146D
102
}
330
146D
100
AcDbXrecord
280
     1
102
RTVSPropertyOp0
 70
     1
102
RTVSPropertyOp1
 70
     1
102
RTVSPropertyOp2
 70
     1
102
RTVSPropertyOp3
 70
     1
102
RTVSPropertyOp4
 70
     1
102
RTVSPropertyOp5
 70
     1
102
RTVSPropertyOp6
 70
     1
102
RTVSPropertyOp7
 70
     1
102
RTVSPropertyOp8
 70
     1
102
RTVSPropertyOp9
 70
     1
102
RTVSPropertyOp10
 70
     1
102
RTVSPropertyOp11
 70
     1
102
RTVSPropertyOp12
 70
     1
102
RTVSPropertyOp13
 70
     1
102
RTVSPropertyOp14
 70
     1
102
RTVSPropertyOp15
 70
     1
102
RTVSPropertyOp16
 70
     1
102
RTVSPropertyOp17
 70
     1
102
RTVSPropertyOp18
 70
     1
102
RTVSPropertyOp19
 70
     1
102
RTVSPropertyOp20
 70
     1
102
RTVSPropertyOp21
 70
     1
102
RTVSPropertyOp22
 70
     1
102
RTVSPropertyOp23
 70
     1
102
RTVSPropertyOp24
 70
     1
102
RTVSPropertyOp25
 70
     1
102
RTVSPropertyOp26
 70
     1
102
RTVSPropertyOp27
 70
     1
  0
XRECORD
  5
1476
102
{ACAD_REACTORS
330
1475
102
}
330
1475
100
AcDbXrecord
280
     1
102
RTVSPropertyOp0
 70
     1
102
RTVSPropertyOp1
 70
     1
102
RTVSPropertyOp2
 70
     1
102
RTVSPropertyOp3
 70
     1
102
RTVSPropertyOp4
 70
     1
102
RTVSPropertyOp5
 70
     1
102
RTVSPropertyOp6
 70
     1
102
RTVSPropertyOp7
 70
     1
102
RTVSPropertyOp8
 70
     1
102
RTVSPropertyOp9
 70
     1
102
RTVSPropertyOp10
 70
     1
102
RTVSPropertyOp11
 70
     1
102
RTVSPropertyOp12
 70
     1
102
RTVSPropertyOp13
 70
     1
102
RTVSPropertyOp14
 70
     1
102
RTVSPropertyOp15
 70
     1
102
RTVSPropertyOp16
 70
     1
102
RTVSPropertyOp17
 70
     1
102
RTVSPropertyOp18
 70
     1
102
RTVSPropertyOp19
 70
     1
102
RTVSPropertyOp20
 70
     1
102
RTVSPropertyOp21
 70
     1
102
RTVSPropertyOp22
 70
     1
102
RTVSPropertyOp23
 70
     1
102
RTVSPropertyOp24
 70
     1
102
RTVSPropertyOp25
 70
     1
102
RTVSPropertyOp26
 70
     1
102
RTVSPropertyOp27
 70
     1
  0
XRECORD
  5
1468
102
{ACAD_REACTORS
330
1467
102
}
330
1467
100
AcDbXrecord
280
     1
102
RTVSPropertyOp0
 70
     1
102
RTVSPropertyOp1
 70
     1
102
RTVSPropertyOp2
 70
     1
102
RTVSPropertyOp3
 70
     1
102
RTVSPropertyOp4
 70
     1
102
RTVSPropertyOp5
 70
     1
102
RTVSPropertyOp6
 70
     1
102
RTVSPropertyOp7
 70
     1
102
RTVSPropertyOp8
 70
     1
102
RTVSPropertyOp9
 70
     1
102
RTVSPropertyOp10
 70
     1
102
RTVSPropertyOp11
 70
     1
102
RTVSPropertyOp12
 70
     1
102
RTVSPropertyOp13
 70
     1
102
RTVSPropertyOp14
 70
     1
102
RTVSPropertyOp15
 70
     1
102
RTVSPropertyOp16
 70
     1
102
RTVSPropertyOp17
 70
     1
102
RTVSPropertyOp18
 70
     1
102
RTVSPropertyOp19
 70
     1
102
RTVSPropertyOp20
 70
     1
102
RTVSPropertyOp21
 70
     1
102
RTVSPropertyOp22
 70
     1
102
RTVSPropertyOp23
 70
     1
102
RTVSPropertyOp24
 70
     1
102
RTVSPropertyOp25
 70
     1
102
RTVSPropertyOp26
 70
     1
102
RTVSPropertyOp27
 70
     1
  0
XRECORD
  5
146C
102
{ACAD_REACTORS
330
146B
102
}
330
146B
100
AcDbXrecord
280
     1
102
RTVSPropertyOp0
 70
     1
102
RTVSPropertyOp1
 70
     1
102
RTVSPropertyOp2
 70
     1
102
RTVSPropertyOp3
 70
     1
102
RTVSPropertyOp4
 70
     1
102
RTVSPropertyOp5
 70
     1
102
RTVSPropertyOp6
 70
     1
102
RTVSPropertyOp7
 70
     1
102
RTVSPropertyOp8
 70
     1
102
RTVSPropertyOp9
 70
     1
102
RTVSPropertyOp10
 70
     1
102
RTVSPropertyOp11
 70
     1
102
RTVSPropertyOp12
 70
     1
102
RTVSPropertyOp13
 70
     1
102
RTVSPropertyOp14
 70
     1
102
RTVSPropertyOp15
 70
     1
102
RTVSPropertyOp16
 70
     1
102
RTVSPropertyOp17
 70
     1
102
RTVSPropertyOp18
 70
     1
102
RTVSPropertyOp19
 70
     1
102
RTVSPropertyOp20
 70
     1
102
RTVSPropertyOp21
 70
     1
102
RTVSPropertyOp22
 70
     1
102
RTVSPropertyOp23
 70
     1
102
RTVSPropertyOp24
 70
     1
102
RTVSPropertyOp25
 70
     1
102
RTVSPropertyOp26
 70
     1
102
RTVSPropertyOp27
 70
     1
  0
XRECORD
  5
147C
102
{ACAD_REACTORS
330
147B
102
}
330
147B
100
AcDbXrecord
280
     1
102
RTVSPropertyOp0
 70
     0
102
RTVSPropertyOp1
 70
     0
102
RTVSPropertyOp2
 70
     0
102
RTVSPropertyOp3
 70
     0
102
RTVSPropertyOp4
 70
     0
102
RTVSPropertyOp5
 70
     0
102
RTVSPropertyOp6
 70
     0
102
RTVSPropertyOp7
 70
     0
102
RTVSPropertyOp8
 70
     0
102
RTVSPropertyOp9
 70
     0
102
RTVSPropertyOp10
 70
     0
102
RTVSPropertyOp11
 70
     0
102
RTVSPropertyOp12
 70
     0
102
RTVSPropertyOp13
 70
     0
102
RTVSPropertyOp14
 70
     2
102
RTVSPropertyOp15
 70
     0
102
RTVSPropertyOp16
 70
     0
102
RTVSPropertyOp17
 70
     0
102
RTVSPropertyOp18
 70
     0
102
RTVSPropertyOp19
 70
     0
102
RTVSPropertyOp20
 70
     0
102
RTVSPropertyOp21
 70
     0
102
RTVSPropertyOp22
 70
     0
102
RTVSPropertyOp23
 70
     0
102
RTVSPropertyOp24
 70
     0
102
RTVSPropertyOp25
 70
     0
102
RTVSPropertyOp26
 70
     0
102
RTVSPropertyOp27
 70
     0
  0
XRECORD
  5
1474
102
{ACAD_REACTORS
330
1473
102
}
330
1473
100
AcDbXrecord
280
     1
102
RTVSPropertyOp0
 70
     1
102
RTVSPropertyOp1
 70
     1
102
RTVSPropertyOp2
 70
     1
102
RTVSPropertyOp3
 70
     1
102
RTVSPropertyOp4
 70
     1
102
RTVSPropertyOp5
 70
     1
102
RTVSPropertyOp6
 70
     1
102
RTVSPropertyOp7
 70
     1
102
RTVSPropertyOp8
 70
     1
102
RTVSPropertyOp9
 70
     1
102
RTVSPropertyOp10
 70
     1
102
RTVSPropertyOp11
 70
     1
102
RTVSPropertyOp12
 70
     1
102
RTVSPropertyOp13
 70
     1
102
RTVSPropertyOp14
 70
     1
102
RTVSPropertyOp15
 70
     1
102
RTVSPropertyOp16
 70
     1
102
RTVSPropertyOp17
 70
     1
102
RTVSPropertyOp18
 70
     1
102
RTVSPropertyOp19
 70
     1
102
RTVSPropertyOp20
 70
     1
102
RTVSPropertyOp21
 70
     1
102
RTVSPropertyOp22
 70
     1
102
RTVSPropertyOp23
 70
     1
102
RTVSPropertyOp24
 70
     1
102
RTVSPropertyOp25
 70
     1
102
RTVSPropertyOp26
 70
     1
102
RTVSPropertyOp27
 70
     1
  0
XRECORD
  5
1458
102
{ACAD_REACTORS
330
1457
102
}
330
1457
100
AcDbXrecord
280
     1
102
RTVSPropertyOp0
 70
     1
102
RTVSPropertyOp1
 70
     1
102
RTVSPropertyOp2
 70
     1
102
RTVSPropertyOp3
 70
     1
102
RTVSPropertyOp4
 70
     1
102
RTVSPropertyOp5
 70
     1
102
RTVSPropertyOp6
 70
     1
102
RTVSPropertyOp7
 70
     1
102
RTVSPropertyOp8
 70
     1
102
RTVSPropertyOp9
 70
     1
102
RTVSPropertyOp10
 70
     1
102
RTVSPropertyOp11
 70
     1
102
RTVSPropertyOp12
 70
     1
102
RTVSPropertyOp13
 70
     1
102
RTVSPropertyOp14
 70
     1
102
RTVSPropertyOp15
 70
     1
102
RTVSPropertyOp16
 70
     1
102
RTVSPropertyOp17
 70
     1
102
RTVSPropertyOp18
 70
     1
102
RTVSPropertyOp19
 70
     1
102
RTVSPropertyOp20
 70
     1
102
RTVSPropertyOp21
 70
     1
102
RTVSPropertyOp22
 70
     1
102
RTVSPropertyOp23
 70
     1
102
RTVSPropertyOp24
 70
     1
102
RTVSPropertyOp25
 70
     1
102
RTVSPropertyOp26
 70
     1
102
RTVSPropertyOp27
 70
     1
  0
XRECORD
  5
145A
102
{ACAD_REACTORS
330
1459
102
}
330
1459
100
AcDbXrecord
280
     1
102
RTVSPropertyOp0
 70
     1
102
RTVSPropertyOp1
 70
     1
102
RTVSPropertyOp2
 70
     1
102
RTVSPropertyOp3
 70
     1
102
RTVSPropertyOp4
 70
     1
102
RTVSPropertyOp5
 70
     1
102
RTVSPropertyOp6
 70
     1
102
RTVSPropertyOp7
 70
     1
102
RTVSPropertyOp8
 70
     1
102
RTVSPropertyOp9
 70
     1
102
RTVSPropertyOp10
 70
     1
102
RTVSPropertyOp11
 70
     1
102
RTVSPropertyOp12
 70
     1
102
RTVSPropertyOp13
 70
     1
102
RTVSPropertyOp14
 70
     1
102
RTVSPropertyOp15
 70
     1
102
RTVSPropertyOp16
 70
     1
102
RTVSPropertyOp17
 70
     1
102
RTVSPropertyOp18
 70
     1
102
RTVSPropertyOp19
 70
     1
102
RTVSPropertyOp20
 70
     1
102
RTVSPropertyOp21
 70
     1
102
RTVSPropertyOp22
 70
     1
102
RTVSPropertyOp23
 70
     1
102
RTVSPropertyOp24
 70
     1
102
RTVSPropertyOp25
 70
     1
102
RTVSPropertyOp26
 70
     1
102
RTVSPropertyOp27
 70
     1
  0
XRECORD
  5
145C
102
{ACAD_REACTORS
330
145B
102
}
330
145B
100
AcDbXrecord
280
     1
102
RTVSPropertyOp0
 70
     1
102
RTVSPropertyOp1
 70
     1
102
RTVSPropertyOp2
 70
     1
102
RTVSPropertyOp3
 70
     1
102
RTVSPropertyOp4
 70
     1
102
RTVSPropertyOp5
 70
     1
102
RTVSPropertyOp6
 70
     1
102
RTVSPropertyOp7
 70
     1
102
RTVSPropertyOp8
 70
     1
102
RTVSPropertyOp9
 70
     1
102
RTVSPropertyOp10
 70
     1
102
RTVSPropertyOp11
 70
     1
102
RTVSPropertyOp12
 70
     1
102
RTVSPropertyOp13
 70
     1
102
RTVSPropertyOp14
 70
     1
102
RTVSPropertyOp15
 70
     1
102
RTVSPropertyOp16
 70
     1
102
RTVSPropertyOp17
 70
     1
102
RTVSPropertyOp18
 70
     1
102
RTVSPropertyOp19
 70
     1
102
RTVSPropertyOp20
 70
     1
102
RTVSPropertyOp21
 70
     1
102
RTVSPropertyOp22
 70
     1
102
RTVSPropertyOp23
 70
     1
102
RTVSPropertyOp24
 70
     1
102
RTVSPropertyOp25
 70
     1
102
RTVSPropertyOp26
 70
     1
102
RTVSPropertyOp27
 70
     1
  0
XRECORD
  5
145E
102
{ACAD_REACTORS
330
145D
102
}
330
145D
100
AcDbXrecord
280
     1
102
RTVSPropertyOp0
 70
     1
102
RTVSPropertyOp1
 70
     1
102
RTVSPropertyOp2
 70
     1
102
RTVSPropertyOp3
 70
     1
102
RTVSPropertyOp4
 70
     1
102
RTVSPropertyOp5
 70
     1
102
RTVSPropertyOp6
 70
     1
102
RTVSPropertyOp7
 70
     1
102
RTVSPropertyOp8
 70
     1
102
RTVSPropertyOp9
 70
     1
102
RTVSPropertyOp10
 70
     1
102
RTVSPropertyOp11
 70
     1
102
RTVSPropertyOp12
 70
     1
102
RTVSPropertyOp13
 70
     1
102
RTVSPropertyOp14
 70
     1
102
RTVSPropertyOp15
 70
     1
102
RTVSPropertyOp16
 70
     1
102
RTVSPropertyOp17
 70
     1
102
RTVSPropertyOp18
 70
     1
102
RTVSPropertyOp19
 70
     1
102
RTVSPropertyOp20
 70
     1
102
RTVSPropertyOp21
 70
     1
102
RTVSPropertyOp22
 70
     1
102
RTVSPropertyOp23
 70
     1
102
RTVSPropertyOp24
 70
     1
102
RTVSPropertyOp25
 70
     1
102
RTVSPropertyOp26
 70
     1
102
RTVSPropertyOp27
 70
     1
  0
XRECORD
  5
1478
102
{ACAD_REACTORS
330
1477
102
}
330
1477
100
AcDbXrecord
280
     1
102
RTVSPropertyOp0
 70
     0
102
RTVSPropertyOp1
 70
     0
102
RTVSPropertyOp2
 70
     0
102
RTVSPropertyOp3
 70
     0
102
RTVSPropertyOp4
 70
     0
102
RTVSPropertyOp5
 70
     0
102
RTVSPropertyOp6
 70
     0
102
RTVSPropertyOp7
 70
     0
102
RTVSPropertyOp8
 70
     0
102
RTVSPropertyOp9
 70
     0
102
RTVSPropertyOp10
 70
     0
102
RTVSPropertyOp11
 70
     0
102
RTVSPropertyOp12
 70
     0
102
RTVSPropertyOp13
 70
     0
102
RTVSPropertyOp14
 70
     2
102
RTVSPropertyOp15
 70
     0
102
RTVSPropertyOp16
 70
     0
102
RTVSPropertyOp17
 70
     0
102
RTVSPropertyOp18
 70
     0
102
RTVSPropertyOp19
 70
     0
102
RTVSPropertyOp20
 70
     0
102
RTVSPropertyOp21
 70
     0
102
RTVSPropertyOp22
 70
     0
102
RTVSPropertyOp23
 70
     0
102
RTVSPropertyOp24
 70
     0
102
RTVSPropertyOp25
 70
     0
102
RTVSPropertyOp26
 70
     0
102
RTVSPropertyOp27
 70
     0
  0
XRECORD
  5
1472
102
{ACAD_REACTORS
330
1471
102
}
330
1471
100
AcDbXrecord
280
     1
102
RTVSPropertyOp0
 70
     1
102
RTVSPropertyOp1
 70
     1
102
RTVSPropertyOp2
 70
     1
102
RTVSPropertyOp3
 70
     1
102
RTVSPropertyOp4
 70
     1
102
RTVSPropertyOp5
 70
     1
102
RTVSPropertyOp6
 70
     1
102
RTVSPropertyOp7
 70
     1
102
RTVSPropertyOp8
 70
     1
102
RTVSPropertyOp9
 70
     1
102
RTVSPropertyOp10
 70
     1
102
RTVSPropertyOp11
 70
     1
102
RTVSPropertyOp12
 70
     1
102
RTVSPropertyOp13
 70
     1
102
RTVSPropertyOp14
 70
     1
102
RTVSPropertyOp15
 70
     1
102
RTVSPropertyOp16
 70
     1
102
RTVSPropertyOp17
 70
     1
102
RTVSPropertyOp18
 70
     1
102
RTVSPropertyOp19
 70
     1
102
RTVSPropertyOp20
 70
     1
102
RTVSPropertyOp21
 70
     1
102
RTVSPropertyOp22
 70
     1
102
RTVSPropertyOp23
 70
     1
102
RTVSPropertyOp24
 70
     1
102
RTVSPropertyOp25
 70
     1
102
RTVSPropertyOp26
 70
     1
102
RTVSPropertyOp27
 70
     1
  0
XRECORD
  5
147A
102
{ACAD_REACTORS
330
1479
102
}
330
1479
100
AcDbXrecord
280
     1
102
RTVSPropertyOp0
 70
     0
102
RTVSPropertyOp1
 70
     0
102
RTVSPropertyOp2
 70
     0
102
RTVSPropertyOp3
 70
     0
102
RTVSPropertyOp4
 70
     0
102
RTVSPropertyOp5
 70
     0
102
RTVSPropertyOp6
 70
     0
102
RTVSPropertyOp7
 70
     0
102
RTVSPropertyOp8
 70
     0
102
RTVSPropertyOp9
 70
     0
102
RTVSPropertyOp10
 70
     0
102
RTVSPropertyOp11
 70
     0
102
RTVSPropertyOp12
 70
     0
102
RTVSPropertyOp13
 70
     0
102
RTVSPropertyOp14
 70
     2
102
RTVSPropertyOp15
 70
     0
102
RTVSPropertyOp16
 70
     0
102
RTVSPropertyOp17
 70
     0
102
RTVSPropertyOp18
 70
     0
102
RTVSPropertyOp19
 70
     0
102
RTVSPropertyOp20
 70
     0
102
RTVSPropertyOp21
 70
     0
102
RTVSPropertyOp22
 70
     0
102
RTVSPropertyOp23
 70
     0
102
RTVSPropertyOp24
 70
     0
102
RTVSPropertyOp25
 70
     0
102
RTVSPropertyOp26
 70
     0
102
RTVSPropertyOp27
 70
     0
  0
XRECORD
  5
146A
102
{ACAD_REACTORS
330
1469
102
}
330
1469
100
AcDbXrecord
280
     1
102
RTVSPropertyOp0
 70
     1
102
RTVSPropertyOp1
 70
     1
102
RTVSPropertyOp2
 70
     1
102
RTVSPropertyOp3
 70
     1
102
RTVSPropertyOp4
 70
     1
102
RTVSPropertyOp5
 70
     1
102
RTVSPropertyOp6
 70
     1
102
RTVSPropertyOp7
 70
     1
102
RTVSPropertyOp8
 70
     1
102
RTVSPropertyOp9
 70
     1
102
RTVSPropertyOp10
 70
     1
102
RTVSPropertyOp11
 70
     1
102
RTVSPropertyOp12
 70
     1
102
RTVSPropertyOp13
 70
     1
102
RTVSPropertyOp14
 70
     1
102
RTVSPropertyOp15
 70
     1
102
RTVSPropertyOp16
 70
     1
102
RTVSPropertyOp17
 70
     1
102
RTVSPropertyOp18
 70
     1
102
RTVSPropertyOp19
 70
     1
102
RTVSPropertyOp20
 70
     1
102
RTVSPropertyOp21
 70
     1
102
RTVSPropertyOp22
 70
     1
102
RTVSPropertyOp23
 70
     1
102
RTVSPropertyOp24
 70
     1
102
RTVSPropertyOp25
 70
     1
102
RTVSPropertyOp26
 70
     1
102
RTVSPropertyOp27
 70
     1
  0
XRECORD
  5
1470
102
{ACAD_REACTORS
330
146F
102
}
330
146F
100
AcDbXrecord
280
     1
102
RTVSPropertyOp0
 70
     1
102
RTVSPropertyOp1
 70
     1
102
RTVSPropertyOp2
 70
     1
102
RTVSPropertyOp3
 70
     1
102
RTVSPropertyOp4
 70
     1
102
RTVSPropertyOp5
 70
     1
102
RTVSPropertyOp6
 70
     1
102
RTVSPropertyOp7
 70
     1
102
RTVSPropertyOp8
 70
     1
102
RTVSPropertyOp9
 70
     1
102
RTVSPropertyOp10
 70
     1
102
RTVSPropertyOp11
 70
     1
102
RTVSPropertyOp12
 70
     1
102
RTVSPropertyOp13
 70
     1
102
RTVSPropertyOp14
 70
     1
102
RTVSPropertyOp15
 70
     1
102
RTVSPropertyOp16
 70
     1
102
RTVSPropertyOp17
 70
     1
102
RTVSPropertyOp18
 70
     1
102
RTVSPropertyOp19
 70
     1
102
RTVSPropertyOp20
 70
     1
102
RTVSPropertyOp21
 70
     1
102
RTVSPropertyOp22
 70
     1
102
RTVSPropertyOp23
 70
     1
102
RTVSPropertyOp24
 70
     1
102
RTVSPropertyOp25
 70
     1
102
RTVSPropertyOp26
 70
     1
102
RTVSPropertyOp27
 70
     1
  0
PH_GROUP
  5
D40
102
{ACAD_REACTORS
330
749
102
}
330
749
  0
PH_GROUP
  5
D41
102
{ACAD_REACTORS
330
74E
102
}
330
74E
  0
PH_GROUP
  5
D47
102
{ACAD_REACTORS
330
785
102
}
330
785
  0
PH_GROUP
  5
D48
102
{ACAD_REACTORS
330
7B7
102
}
330
7B7
  0
PH_GROUP
  5
D49
102
{ACAD_REACTORS
330
812
102
}
330
812
  0
PH_GROUP
  5
D4A
102
{ACAD_REACTORS
330
816
102
}
330
816
  0
PH_GROUP
  5
D4B
102
{ACAD_REACTORS
330
876
102
}
330
876
  0
DICTIONARY
  5
EDC
102
{ACAD_REACTORS
330
EDB
102
}
330
EDB
100
AcDbDictionary
281
     1
  3
PH_GRPMEMBERS
350
EDD
  0
PH_GROUP
  5
EDE
102
{ACAD_REACTORS
330
EDB
102
}
330
EDB
  0
PH_GROUP
  5
EDD
102
{ACAD_REACTORS
330
EDC
102
}
330
EDC
  0
ENDSEC
  0
EOF
